0
SECTION
2
HEADER
9
$MEASUREMENT
70
1
0
ENDSEC
0
SECTION
2
TABLES
0
TABLE
2
LTYPE
0
LTYPE
72
65
70
64
2
CONTINUOUS
3
______
73
0
40
0
0
ENDTAB
0
TABLE
2
LAYER
0
LAYER
2
DEFAULT_255_2_778
70
0
62
255
6
CONTINUOUS
0
ENDTAB
0
ENDSEC
0
SECTION
2
ENTITIES
0
ARC
8
DEFAULT_255_2_778
10
0.6416545
20
3.902502
40
0.1124543
50
179.9618029
51
180.1145915
0
ARC
8
DEFAULT_255_2_778
10
0.723554
20
3.9145753
40
0.1947422
50
183.6207204
51
227.5843285
0
ARC
8
DEFAULT_255_2_778
10
1.0313677
20
4.2095775
40
0.6207993
50
224.9743195
51
240.0273347
0
ARC
8
DEFAULT_255_2_778
10
1.4970272
20
4.9863165
40
1.5263747
50
239.4516771
51
247.3254559
0
ARC
8
DEFAULT_255_2_778
10
2.1014582
20
6.4053048
40
3.0687131
50
247.1256811
51
251.9734376
0
ARC
8
DEFAULT_255_2_778
10
2.823947
20
8.6024722
40
5.3816128
50
251.8979171
51
255.3021197
0
ARC
8
DEFAULT_255_2_778
10
3.6370474
20
11.6788333
40
8.5636103
50
255.2622944
51
257.8056632
0
ARC
8
DEFAULT_255_2_778
10
4.4845195
20
15.5747447
40
12.5506285
50
257.7809012
51
259.7467369
0
ARC
8
DEFAULT_255_2_778
10
5.3340453
20
20.2547849
40
17.3071466
50
259.7370897
51
261.4197221
0
ARC
8
DEFAULT_255_2_778
10
6.1446682
20
25.6037487
40
22.7171847
50
261.4108653
51
262.8480983
0
ARC
8
DEFAULT_255_2_778
10
6.8113306
20
30.8719398
40
28.0273874
50
262.8366832
51
263.9389927
0
ARC
8
DEFAULT_255_2_778
10
7.2993152
20
35.4358142
40
32.6172751
50
263.9330739
51
264.8128742
0
ARC
8
DEFAULT_255_2_778
10
7.7209769
20
40.106485
40
37.3069401
50
264.8164601
51
265.8847063
0
ARC
8
DEFAULT_255_2_778
10
8.0795048
20
45.0784835
40
42.2918486
50
265.8836299
51
266.9652611
0
ARC
8
DEFAULT_255_2_778
10
8.3205575
20
49.616409
40
46.8361717
50
266.9646856
51
268.1244701
0
ARC
8
DEFAULT_255_2_778
10
8.4318465
20
52.9040088
40
50.1256527
50
268.1203189
51
269.0640285
0
ARC
8
DEFAULT_255_2_778
10
8.4648678
20
54.8560182
40
52.0779413
50
269.0627845
51
270.002016
0
ARC
8
DEFAULT_255_2_778
10
8.4683715
20
54.8864049
40
52.1083279
50
269.9981623
51
270.9014934
0
ARC
8
DEFAULT_255_2_778
10
8.4967673
20
53.1181998
40
50.3398949
50
270.900842
51
271.7508324
0
ARC
8
DEFAULT_255_2_778
10
8.5715191
20
50.6862586
40
47.9068051
50
271.7503376
51
272.5599088
0
ARC
8
DEFAULT_255_2_778
10
8.7445717
20
46.9269029
40
44.1434722
50
272.5534552
51
273.7335097
0
ARC
8
DEFAULT_255_2_778
10
9.0833479
20
41.7462092
40
38.9517137
50
273.732463
51
274.8735344
0
ARC
8
DEFAULT_255_2_778
10
9.5451603
20
36.3352923
40
33.5211251
50
274.8727668
51
275.9993457
0
ARC
8
DEFAULT_255_2_778
10
10.1457114
20
30.6531923
40
27.8073777
50
275.9923704
51
277.3259614
0
ARC
8
DEFAULT_255_2_778
10
10.8890262
20
24.8863878
40
21.9928661
50
277.3210155
51
278.7959234
0
ARC
8
DEFAULT_255_2_778
10
11.6984119
20
19.6669463
40
16.7110414
50
278.7899815
51
280.4487031
0
ARC
8
DEFAULT_255_2_778
10
12.5375069
20
15.1326954
40
12.099805
50
280.4351074
51
282.4547961
0
ARC
8
DEFAULT_255_2_778
10
13.3668961
20
11.3892439
40
8.2655767
50
282.4373055
51
284.9239621
0
ARC
8
DEFAULT_255_2_778
10
14.1526558
20
8.4572728
40
5.230145
50
284.8783467
51
288.3036994
0
ARC
8
DEFAULT_255_2_778
10
14.8524712
20
6.3519939
40
3.0116043
50
288.2421033
51
292.9573207
0
ARC
8
DEFAULT_255_2_778
10
15.4421937
20
4.9747416
40
1.5134291
50
292.7368674
51
300.6562639
0
ARC
8
DEFAULT_255_2_778
10
15.9058853
20
4.2046134
40
0.6145339
50
300.0773634
51
315.2220848
0
ARC
8
DEFAULT_255_2_778
10
16.2106621
20
3.9143225
40
0.1939123
50
312.6766341
51
356.438627
0
ARC
8
DEFAULT_255_2_778
10
16.291746
20
3.902502
40
0.1124542
50
359.8854085
51
0.0381971
0
ARC
8
DEFAULT_255_2_778
10
16.291746
20
-2.844398
40
0.1124543
50
359.8854085
51
0.0381971
0
ARC
8
DEFAULT_255_2_778
10
16.2098464
20
-2.8323247
40
0.1947422
50
312.4156715
51
356.3792796
0
ARC
8
DEFAULT_255_2_778
10
15.9020327
20
-2.5373225
40
0.6207993
50
299.9726653
51
315.0256805
0
ARC
8
DEFAULT_255_2_778
10
15.4363733
20
-1.7605835
40
1.5263747
50
292.6745441
51
300.5483229
0
ARC
8
DEFAULT_255_2_778
10
14.8319422
20
-0.3415952
40
3.0687131
50
288.0265624
51
292.8743189
0
ARC
8
DEFAULT_255_2_778
10
14.1094534
20
1.8555722
40
5.3816128
50
284.6978803
51
288.1020829
0
ARC
8
DEFAULT_255_2_778
10
13.296353
20
4.9319333
40
8.5636103
50
282.1943368
51
284.7377056
0
ARC
8
DEFAULT_255_2_778
10
12.4488809
20
8.8278447
40
12.5506285
50
280.2532631
51
282.2190988
0
ARC
8
DEFAULT_255_2_778
10
11.5993551
20
13.5078849
40
17.3071466
50
278.5802779
51
280.2629103
0
ARC
8
DEFAULT_255_2_778
10
10.7887323
20
18.8568487
40
22.7171847
50
277.1519017
51
278.5891347
0
ARC
8
DEFAULT_255_2_778
10
10.1220699
20
24.1250398
40
28.0273874
50
276.0610073
51
277.1633168
0
ARC
8
DEFAULT_255_2_778
10
9.6340852
20
28.6889142
40
32.6172751
50
275.1871258
51
276.0669261
0
ARC
8
DEFAULT_255_2_778
10
9.2124235
20
33.359585
40
37.3069401
50
274.1152937
51
275.1835399
0
ARC
8
DEFAULT_255_2_778
10
8.8538957
20
38.3315835
40
42.2918486
50
273.0347389
51
274.1163701
0
ARC
8
DEFAULT_255_2_778
10
8.6128429
20
42.869509
40
46.8361717
50
271.8755299
51
273.0353144
0
ARC
8
DEFAULT_255_2_778
10
8.501554
20
46.1571088
40
50.1256527
50
270.9359715
51
271.8796811
0
ARC
8
DEFAULT_255_2_778
10
8.4685327
20
48.1091182
40
52.0779413
50
269.997984
51
270.9372155
0
ARC
8
DEFAULT_255_2_778
10
8.4650289
20
48.1395049
40
52.1083279
50
269.0985066
51
270.0018377
0
ARC
8
DEFAULT_255_2_778
10
8.4366332
20
46.3712998
40
50.3398949
50
268.2491676
51
269.099158
0
ARC
8
DEFAULT_255_2_778
10
8.3618814
20
43.9393586
40
47.9068051
50
267.4400912
51
268.2496624
0
ARC
8
DEFAULT_255_2_778
10
8.1888288
20
40.1800029
40
44.1434722
50
266.2664903
51
267.4465448
0
ARC
8
DEFAULT_255_2_778
10
7.8500525
20
34.9993092
40
38.9517137
50
265.1264656
51
266.267537
0
ARC
8
DEFAULT_255_2_778
10
7.3882402
20
29.5883923
40
33.5211251
50
264.0006543
51
265.1272332
0
ARC
8
DEFAULT_255_2_778
10
6.7876891
20
23.9062923
40
27.8073777
50
262.6740386
51
264.0076296
0
ARC
8
DEFAULT_255_2_778
10
6.0443742
20
18.1394878
40
21.9928661
50
261.2040766
51
262.6789845
0
ARC
8
DEFAULT_255_2_778
10
5.2349886
20
12.9200463
40
16.7110414
50
259.5512969
51
261.2100185
0
ARC
8
DEFAULT_255_2_778
10
4.3958936
20
8.3857954
40
12.099805
50
257.5452039
51
259.5648926
0
ARC
8
DEFAULT_255_2_778
10
3.5665043
20
4.6423439
40
8.2655767
50
255.0760379
51
257.5626945
0
ARC
8
DEFAULT_255_2_778
10
2.7807447
20
1.7103728
40
5.230145
50
251.6963006
51
255.1216533
0
ARC
8
DEFAULT_255_2_778
10
2.0809293
20
-0.3949061
40
3.0116043
50
247.0426793
51
251.7578967
0
ARC
8
DEFAULT_255_2_778
10
1.4912067
20
-1.7721584
40
1.5134291
50
239.3437361
51
247.2631326
0
ARC
8
DEFAULT_255_2_778
10
1.0275151
20
-2.5422866
40
0.6145339
50
224.7779152
51
239.9226366
0
ARC
8
DEFAULT_255_2_778
10
0.7227384
20
-2.8325775
40
0.1939123
50
183.561373
51
227.3233659
0
ARC
8
DEFAULT_255_2_778
10
0.6416545
20
-2.844398
40
0.1124542
50
179.9618029
51
180.1145915
0
LINE
8
DEFAULT_255_2_778
10
16.4042002
20
3.902577
11
16.4042002
21
-2.844323
0
LINE
8
DEFAULT_255_2_778
10
0.5292002
20
-2.844323
11
0.5292002
21
3.902577
0
ARC
8
DEFAULT_255_2_778
10
16.291746
20
3.9025042
40
0.1124543
50
359.8854085
51
0.0381971
0
ARC
8
DEFAULT_255_2_778
10
16.2098464
20
3.9145775
40
0.1947422
50
312.4156715
51
356.3792796
0
ARC
8
DEFAULT_255_2_778
10
15.9020327
20
4.2095797
40
0.6207993
50
299.9726653
51
315.0256805
0
ARC
8
DEFAULT_255_2_778
10
15.4363733
20
4.9863187
40
1.5263747
50
292.6745441
51
300.5483229
0
ARC
8
DEFAULT_255_2_778
10
14.8319422
20
6.4053069
40
3.0687131
50
288.0265624
51
292.8743189
0
ARC
8
DEFAULT_255_2_778
10
14.1094534
20
8.6024743
40
5.3816128
50
284.6978803
51
288.1020829
0
ARC
8
DEFAULT_255_2_778
10
13.296353
20
11.6788355
40
8.5636103
50
282.1943368
51
284.7377056
0
ARC
8
DEFAULT_255_2_778
10
12.4488809
20
15.5747469
40
12.5506285
50
280.2532631
51
282.2190988
0
ARC
8
DEFAULT_255_2_778
10
11.5993551
20
20.254787
40
17.3071466
50
278.5802779
51
280.2629103
0
ARC
8
DEFAULT_255_2_778
10
10.7887323
20
25.6037508
40
22.7171847
50
277.1519017
51
278.5891347
0
ARC
8
DEFAULT_255_2_778
10
10.1220699
20
30.871942
40
28.0273874
50
276.0610073
51
277.1633168
0
ARC
8
DEFAULT_255_2_778
10
9.6340852
20
35.4358164
40
32.6172751
50
275.1871258
51
276.0669261
0
ARC
8
DEFAULT_255_2_778
10
9.2124235
20
40.1064871
40
37.3069401
50
274.1152937
51
275.1835399
0
ARC
8
DEFAULT_255_2_778
10
8.8538957
20
45.0784857
40
42.2918486
50
273.0347389
51
274.1163701
0
ARC
8
DEFAULT_255_2_778
10
8.6128429
20
49.6164112
40
46.8361717
50
271.8755299
51
273.0353144
0
ARC
8
DEFAULT_255_2_778
10
8.501554
20
52.9040109
40
50.1256527
50
270.9359715
51
271.8796811
0
ARC
8
DEFAULT_255_2_778
10
8.4685327
20
54.8560204
40
52.0779413
50
269.997984
51
270.9372155
0
ARC
8
DEFAULT_255_2_778
10
8.4650289
20
54.886407
40
52.1083279
50
269.0985066
51
270.0018377
0
ARC
8
DEFAULT_255_2_778
10
8.4366332
20
53.1182019
40
50.3398949
50
268.2491676
51
269.099158
0
ARC
8
DEFAULT_255_2_778
10
8.3618814
20
50.6862608
40
47.9068051
50
267.4400912
51
268.2496624
0
ARC
8
DEFAULT_255_2_778
10
8.1888288
20
46.9269051
40
44.1434722
50
266.2664903
51
267.4465448
0
ARC
8
DEFAULT_255_2_778
10
7.8500525
20
41.7462113
40
38.9517137
50
265.1264656
51
266.267537
0
ARC
8
DEFAULT_255_2_778
10
7.3882402
20
36.3352944
40
33.5211251
50
264.0006543
51
265.1272332
0
ARC
8
DEFAULT_255_2_778
10
6.7876891
20
30.6531944
40
27.8073777
50
262.6740386
51
264.0076296
0
ARC
8
DEFAULT_255_2_778
10
6.0443742
20
24.88639
40
21.9928661
50
261.2040766
51
262.6789845
0
ARC
8
DEFAULT_255_2_778
10
5.2349886
20
19.6669485
40
16.7110414
50
259.5512969
51
261.2100185
0
ARC
8
DEFAULT_255_2_778
10
4.3958936
20
15.1326976
40
12.099805
50
257.5452039
51
259.5648926
0
ARC
8
DEFAULT_255_2_778
10
3.5665043
20
11.3892461
40
8.2655767
50
255.0760379
51
257.5626945
0
ARC
8
DEFAULT_255_2_778
10
2.7807447
20
8.4572749
40
5.230145
50
251.6963006
51
255.1216533
0
ARC
8
DEFAULT_255_2_778
10
2.0809293
20
6.3519961
40
3.0116043
50
247.0426793
51
251.7578967
0
ARC
8
DEFAULT_255_2_778
10
1.4912067
20
4.9747437
40
1.5134291
50
239.3437361
51
247.2631326
0
ARC
8
DEFAULT_255_2_778
10
1.0275151
20
4.2046155
40
0.6145339
50
224.7779152
51
239.9226366
0
ARC
8
DEFAULT_255_2_778
10
0.7227384
20
3.9143246
40
0.1939123
50
183.561373
51
227.3233659
0
ARC
8
DEFAULT_255_2_778
10
0.6416545
20
3.9025042
40
0.1124542
50
179.9618029
51
180.1145915
0
ARC
8
DEFAULT_255_2_778
10
0.7231693
20
3.8907739
40
0.194328
50
132.4778437
51
176.5172066
0
ARC
8
DEFAULT_255_2_778
10
1.0303572
20
3.5969714
40
0.6191048
50
120.0000438
51
135.0845276
0
ARC
8
DEFAULT_255_2_778
10
1.4955955
20
2.8218361
40
1.5230881
50
112.6899807
51
120.5771107
0
ARC
8
DEFAULT_255_2_778
10
2.0997397
20
1.4046331
40
3.0636715
50
108.035981
51
112.8902425
0
ARC
8
DEFAULT_255_2_778
10
2.8220292
20
-0.790641
40
5.3747106
50
104.7038334
51
108.1117733
0
ARC
8
DEFAULT_255_2_778
10
3.6351894
20
-3.8658802
40
8.5556387
50
102.1982896
51
104.7437763
0
ARC
8
DEFAULT_255_2_778
10
4.4826311
20
-7.76033
40
12.5412222
50
100.255845
51
102.2230886
0
ARC
8
DEFAULT_255_2_778
10
5.3324142
20
-12.4405546
40
17.2979677
50
98.5819642
51
100.2655174
0
ARC
8
DEFAULT_255_2_778
10
6.1432902
20
-17.7900755
40
22.7085947
50
97.1529861
51
98.5908442
0
ARC
8
DEFAULT_255_2_778
10
6.810343
20
-23.0605256
40
28.0210875
50
96.0617629
51
97.1644153
0
ARC
8
DEFAULT_255_2_778
10
7.2987795
20
-27.6284278
40
32.6150282
50
95.1876627
51
96.0676179
0
ARC
8
DEFAULT_255_2_778
10
7.7204227
20
-32.2987067
40
37.3043013
50
94.1155794
51
95.1840352
0
ARC
8
DEFAULT_255_2_778
10
8.0791112
20
-37.2724772
40
42.2909888
50
93.0348595
51
94.116667
0
ARC
8
DEFAULT_255_2_778
10
8.3203769
20
-41.8138685
40
46.8387843
50
91.8755567
51
93.0354589
0
ARC
8
DEFAULT_255_2_778
10
8.4318199
20
-45.1057029
40
50.1325028
50
90.9359841
51
91.8797232
0
ARC
8
DEFAULT_255_2_778
10
8.4648773
20
-47.0598222
40
52.0869015
50
89.9979947
51
90.9372291
0
ARC
8
DEFAULT_255_2_778
10
8.4683614
20
-47.0895177
40
52.1165968
50
89.0984803
51
90.0018263
0
ARC
8
DEFAULT_255_2_778
10
8.4967545
20
-45.3216808
40
50.3485322
50
88.2491463
51
89.0991343
0
ARC
8
DEFAULT_255_2_778
10
8.5715823
20
-42.8867022
40
47.9124041
50
87.4400132
51
88.2496199
0
ARC
8
DEFAULT_255_2_778
10
8.7447693
20
-39.1239941
40
44.1457161
50
86.2662698
51
87.4464397
0
ARC
8
DEFAULT_255_2_778
10
9.0840428
20
-33.9362787
40
38.9469185
50
85.1259827
51
86.2673444
0
ARC
8
DEFAULT_255_2_778
10
9.5461036
20
-28.5234927
40
33.5144465
50
83.9998958
51
85.126824
0
ARC
8
DEFAULT_255_2_778
10
10.1469296
20
-22.8398872
40
27.7991731
50
82.672858
51
84.0069562
0
ARC
8
DEFAULT_255_2_778
10
10.8904225
20
-17.0727114
40
21.9842703
50
81.2022691
51
82.6778305
0
ARC
8
DEFAULT_255_2_778
10
11.6999419
20
-11.8533882
40
16.7025421
50
79.5485737
51
81.2081582
0
ARC
8
DEFAULT_255_2_778
10
12.5393953
20
-7.3183993
40
12.0905149
50
77.5410165
51
79.5621766
0
ARC
8
DEFAULT_255_2_778
10
13.3688682
20
-3.5759405
40
8.257238
50
75.0697279
51
77.5586337
0
ARC
8
DEFAULT_255_2_778
10
14.1545843
20
-0.6454724
40
5.2232693
50
71.6863186
51
75.1155226
0
ARC
8
DEFAULT_255_2_778
10
14.8541738
20
1.4578635
40
3.0066437
50
67.0266529
51
71.7481979
0
ARC
8
DEFAULT_255_2_778
10
15.443631
20
2.8334098
40
1.5101411
50
59.3147176
51
67.2476804
0
ARC
8
DEFAULT_255_2_778
10
15.9068962
20
3.6019264
40
0.6128465
50
44.7186463
51
59.895253
0
ARC
8
DEFAULT_255_2_778
10
16.2110446
20
3.8910247
40
0.1935008
50
3.4233151
51
47.2606204
0
LINE
8
DEFAULT_255_2_778
10
16.4042002
20
3.9025791
11
16.4042002
21
3.9025791
0
ARC
8
DEFAULT_255_2_778
10
0.6416545
20
3.3402646
40
0.1124543
50
179.9618029
51
180.1145915
0
ARC
8
DEFAULT_255_2_778
10
0.723554
20
3.3523379
40
0.1947422
50
183.6207204
51
227.5843285
0
ARC
8
DEFAULT_255_2_778
10
1.0313677
20
3.6473401
40
0.6207993
50
224.9743195
51
240.0273347
0
ARC
8
DEFAULT_255_2_778
10
1.4970272
20
4.4240791
40
1.5263747
50
239.4516771
51
247.3254559
0
ARC
8
DEFAULT_255_2_778
10
2.1014582
20
5.8430674
40
3.0687131
50
247.1256811
51
251.9734376
0
ARC
8
DEFAULT_255_2_778
10
2.823947
20
8.0402348
40
5.3816128
50
251.8979171
51
255.3021197
0
ARC
8
DEFAULT_255_2_778
10
3.6370474
20
11.1165959
40
8.5636103
50
255.2622944
51
257.8056632
0
ARC
8
DEFAULT_255_2_778
10
4.4845195
20
15.0125073
40
12.5506285
50
257.7809012
51
259.7467369
0
ARC
8
DEFAULT_255_2_778
10
5.3340453
20
19.6925475
40
17.3071466
50
259.7370897
51
261.4197221
0
ARC
8
DEFAULT_255_2_778
10
6.1446682
20
25.0415113
40
22.7171847
50
261.4108653
51
262.8480983
0
ARC
8
DEFAULT_255_2_778
10
6.8113306
20
30.3097024
40
28.0273874
50
262.8366832
51
263.9389927
0
ARC
8
DEFAULT_255_2_778
10
7.2993152
20
34.8735768
40
32.6172751
50
263.9330739
51
264.8128742
0
ARC
8
DEFAULT_255_2_778
10
7.7209769
20
39.5442476
40
37.3069401
50
264.8164601
51
265.8847063
0
ARC
8
DEFAULT_255_2_778
10
8.0795048
20
44.5162461
40
42.2918486
50
265.8836299
51
266.9652611
0
ARC
8
DEFAULT_255_2_778
10
8.3205575
20
49.0541716
40
46.8361717
50
266.9646856
51
268.1244701
0
ARC
8
DEFAULT_255_2_778
10
8.4318465
20
52.3417714
40
50.1256527
50
268.1203189
51
269.0640285
0
ARC
8
DEFAULT_255_2_778
10
8.4648678
20
54.2937808
40
52.0779413
50
269.0627845
51
270.002016
0
ARC
8
DEFAULT_255_2_778
10
8.4683715
20
54.3241675
40
52.1083279
50
269.9981623
51
270.9014934
0
ARC
8
DEFAULT_255_2_778
10
8.4967673
20
52.5559624
40
50.3398949
50
270.900842
51
271.7508324
0
ARC
8
DEFAULT_255_2_778
10
8.5715191
20
50.1240212
40
47.9068051
50
271.7503376
51
272.5599088
0
ARC
8
DEFAULT_255_2_778
10
8.7445717
20
46.3646655
40
44.1434722
50
272.5534552
51
273.7335097
0
ARC
8
DEFAULT_255_2_778
10
9.0833479
20
41.1839718
40
38.9517137
50
273.732463
51
274.8735344
0
ARC
8
DEFAULT_255_2_778
10
9.5451603
20
35.7730549
40
33.5211251
50
274.8727668
51
275.9993457
0
ARC
8
DEFAULT_255_2_778
10
10.1457114
20
30.0909549
40
27.8073777
50
275.9923704
51
277.3259614
0
ARC
8
DEFAULT_255_2_778
10
10.8890262
20
24.3241504
40
21.9928661
50
277.3210155
51
278.7959234
0
ARC
8
DEFAULT_255_2_778
10
11.6984119
20
19.1047089
40
16.7110414
50
278.7899815
51
280.4487031
0
ARC
8
DEFAULT_255_2_778
10
12.5375069
20
14.570458
40
12.099805
50
280.4351074
51
282.4547961
0
ARC
8
DEFAULT_255_2_778
10
13.3668961
20
10.8270065
40
8.2655767
50
282.4373055
51
284.9239621
0
ARC
8
DEFAULT_255_2_778
10
14.1526558
20
7.8950354
40
5.230145
50
284.8783467
51
288.3036994
0
ARC
8
DEFAULT_255_2_778
10
14.8524712
20
5.7897565
40
3.0116043
50
288.2421033
51
292.9573207
0
ARC
8
DEFAULT_255_2_778
10
15.4421937
20
4.4125041
40
1.5134291
50
292.7368674
51
300.6562639
0
ARC
8
DEFAULT_255_2_778
10
15.9058853
20
3.6423759
40
0.6145339
50
300.0773634
51
315.2220848
0
ARC
8
DEFAULT_255_2_778
10
16.2106621
20
3.3520851
40
0.1939123
50
312.6766341
51
356.438627
0
ARC
8
DEFAULT_255_2_778
10
16.291746
20
3.3402646
40
0.1124542
50
359.8854085
51
0.0381971
0
ARC
8
DEFAULT_255_2_778
10
0.6416545
20
2.7780646
40
0.1124543
50
179.9618029
51
180.1145915
0
ARC
8
DEFAULT_255_2_778
10
0.723554
20
2.7901379
40
0.1947422
50
183.6207204
51
227.5843285
0
ARC
8
DEFAULT_255_2_778
10
1.0313677
20
3.0851401
40
0.6207993
50
224.9743195
51
240.0273347
0
ARC
8
DEFAULT_255_2_778
10
1.4970272
20
3.8618791
40
1.5263747
50
239.4516771
51
247.3254559
0
ARC
8
DEFAULT_255_2_778
10
2.1014582
20
5.2808674
40
3.0687131
50
247.1256811
51
251.9734376
0
ARC
8
DEFAULT_255_2_778
10
2.823947
20
7.4780348
40
5.3816128
50
251.8979171
51
255.3021197
0
ARC
8
DEFAULT_255_2_778
10
3.6370474
20
10.5543959
40
8.5636103
50
255.2622944
51
257.8056632
0
ARC
8
DEFAULT_255_2_778
10
4.4845195
20
14.4503073
40
12.5506285
50
257.7809012
51
259.7467369
0
ARC
8
DEFAULT_255_2_778
10
5.3340453
20
19.1303475
40
17.3071466
50
259.7370897
51
261.4197221
0
ARC
8
DEFAULT_255_2_778
10
6.1446682
20
24.4793113
40
22.7171847
50
261.4108653
51
262.8480983
0
ARC
8
DEFAULT_255_2_778
10
6.8113306
20
29.7475024
40
28.0273874
50
262.8366832
51
263.9389927
0
ARC
8
DEFAULT_255_2_778
10
7.2993152
20
34.3113768
40
32.6172751
50
263.9330739
51
264.8128742
0
ARC
8
DEFAULT_255_2_778
10
7.7209769
20
38.9820476
40
37.3069401
50
264.8164601
51
265.8847063
0
ARC
8
DEFAULT_255_2_778
10
8.0795048
20
43.9540461
40
42.2918486
50
265.8836299
51
266.9652611
0
ARC
8
DEFAULT_255_2_778
10
8.3205575
20
48.4919716
40
46.8361717
50
266.9646856
51
268.1244701
0
ARC
8
DEFAULT_255_2_778
10
8.4318465
20
51.7795714
40
50.1256527
50
268.1203189
51
269.0640285
0
ARC
8
DEFAULT_255_2_778
10
8.4648678
20
53.7315808
40
52.0779413
50
269.0627845
51
270.002016
0
ARC
8
DEFAULT_255_2_778
10
8.4683715
20
53.7619675
40
52.1083279
50
269.9981623
51
270.9014934
0
ARC
8
DEFAULT_255_2_778
10
8.4967673
20
51.9937624
40
50.3398949
50
270.900842
51
271.7508324
0
ARC
8
DEFAULT_255_2_778
10
8.5715191
20
49.5618212
40
47.9068051
50
271.7503376
51
272.5599088
0
ARC
8
DEFAULT_255_2_778
10
8.7445717
20
45.8024655
40
44.1434722
50
272.5534552
51
273.7335097
0
ARC
8
DEFAULT_255_2_778
10
9.0833479
20
40.6217718
40
38.9517137
50
273.732463
51
274.8735344
0
ARC
8
DEFAULT_255_2_778
10
9.5451603
20
35.2108549
40
33.5211251
50
274.8727668
51
275.9993457
0
ARC
8
DEFAULT_255_2_778
10
10.1457114
20
29.5287549
40
27.8073777
50
275.9923704
51
277.3259614
0
ARC
8
DEFAULT_255_2_778
10
10.8890262
20
23.7619504
40
21.9928661
50
277.3210155
51
278.7959234
0
ARC
8
DEFAULT_255_2_778
10
11.6984119
20
18.5425089
40
16.7110414
50
278.7899815
51
280.4487031
0
ARC
8
DEFAULT_255_2_778
10
12.5375069
20
14.008258
40
12.099805
50
280.4351074
51
282.4547961
0
ARC
8
DEFAULT_255_2_778
10
13.3668961
20
10.2648065
40
8.2655767
50
282.4373055
51
284.9239621
0
ARC
8
DEFAULT_255_2_778
10
14.1526558
20
7.3328354
40
5.230145
50
284.8783467
51
288.3036994
0
ARC
8
DEFAULT_255_2_778
10
14.8524712
20
5.2275565
40
3.0116043
50
288.2421033
51
292.9573207
0
ARC
8
DEFAULT_255_2_778
10
15.4421937
20
3.8503041
40
1.5134291
50
292.7368674
51
300.6562639
0
ARC
8
DEFAULT_255_2_778
10
15.9058853
20
3.0801759
40
0.6145339
50
300.0773634
51
315.2220848
0
ARC
8
DEFAULT_255_2_778
10
16.2106621
20
2.7898851
40
0.1939123
50
312.6766341
51
356.438627
0
ARC
8
DEFAULT_255_2_778
10
16.291746
20
2.7780646
40
0.1124542
50
359.8854085
51
0.0381971
0
ENDSEC
0
EOF