0
SECTION
2
HEADER
9
$MEASUREMENT
70
1
0
ENDSEC
0
SECTION
2
TABLES
0
TABLE
2
LTYPE
0
LTYPE
72
65
70
64
2
CONTINUOUS
3
______
73
0
40
0
0
ENDTAB
0
TABLE
2
LAYER
0
LAYER
2
DEFAULT_255_2_778
70
0
62
255
6
CONTINUOUS
0
ENDTAB
0
ENDSEC
0
SECTION
2
ENTITIES
0
ARC
8
DEFAULT_255_2_778
10
11.8728069
20
2.1803691
40
1.4956034
50
230.8042959
51
269.7957236
0
ARC
8
DEFAULT_255_2_778
10
11.8711992
20
2.180901
40
1.4950003
50
194.1838407
51
230.8649331
0
ARC
8
DEFAULT_255_2_778
10
11.8748794
20
2.1657607
40
2.1969049
50
0.1698993
51
25.1490355
0
ARC
8
DEFAULT_255_2_778
10
11.8667356
20
2.1620341
40
2.2058606
50
25.1467602
51
74.6638306
0
ARC
8
DEFAULT_255_2_778
10
11.8669197
20
2.15203
40
2.2154615
50
74.7368501
51
83.1495864
0
ARC
8
DEFAULT_255_2_778
10
11.8653801
20
2.146082
40
2.2215508
50
83.1284607
51
88.9244239
0
ARC
8
DEFAULT_255_2_778
10
11.8659022
20
2.1617627
40
2.2058629
50
88.9303374
51
89.9997517
0
ARC
8
DEFAULT_255_2_778
10
11.8661994
20
2.1700776
40
2.1975479
50
90.0074989
51
120.9123573
0
ARC
8
DEFAULT_255_2_778
10
11.8658318
20
2.1647859
40
2.2019011
50
120.8334126
51
156.944513
0
ARC
8
DEFAULT_255_2_778
10
11.8777731
20
2.161664
40
2.2141119
50
156.991193
51
166.0594927
0
ARC
8
DEFAULT_255_2_778
10
11.8943334
20
2.1684078
40
2.2285847
50
166.3303383
51
169.3989624
0
ARC
8
DEFAULT_255_2_778
10
11.8701168
20
2.1726793
40
2.2039958
50
169.3922936
51
177.2774293
0
ARC
8
DEFAULT_255_2_778
10
11.8588072
20
2.1734448
40
2.1926626
50
177.2833716
51
179.9997648
0
ARC
8
DEFAULT_255_2_778
10
11.872237
20
2.1755681
40
2.2060934
50
180.0549124
51
239.4207289
0
ARC
8
DEFAULT_255_2_778
10
11.8727792
20
2.1826817
40
2.2124958
50
239.5023569
51
249.2517406
0
ARC
8
DEFAULT_255_2_778
10
11.8750083
20
2.1845815
40
2.2150625
50
249.2152304
51
257.6747881
0
ARC
8
DEFAULT_255_2_778
10
11.8702312
20
2.1643143
40
2.1942427
50
257.6836862
51
263.4143227
0
ARC
8
DEFAULT_255_2_778
10
11.8698608
20
2.1617223
40
2.1916253
50
263.4161704
51
270.0008152
0
ARC
8
DEFAULT_255_2_778
10
11.8692384
20
2.1765955
40
2.2064986
50
270.0169731
51
322.0608946
0
ARC
8
DEFAULT_255_2_778
10
11.8628855
20
2.1775316
40
2.2120867
50
322.1429406
51
332.1511275
0
ARC
8
DEFAULT_255_2_778
10
11.8663251
20
2.1749764
40
1.4917015
50
270.0364717
51
316.2887922
0
ARC
8
DEFAULT_255_2_778
10
11.8546212
20
2.1643568
40
1.4954719
50
50.0876509
51
89.5152025
0
ARC
8
DEFAULT_255_2_778
10
11.8563774
20
2.1640428
40
1.4945868
50
14.1722907
51
50.1470159
0
ARC
8
DEFAULT_255_2_778
10
11.8706573
20
2.1606424
40
1.4954087
50
126.4578979
51
165.7012541
0
ARC
8
DEFAULT_255_2_778
10
11.871633
20
2.1619197
40
1.4949619
50
90.1670371
51
126.517063
0
ARC
8
DEFAULT_255_2_778
10
20.3706635
20
2.1580339
40
2.2090324
50
47.4221883
51
62.1873352
0
ARC
8
DEFAULT_255_2_778
10
20.3763009
20
2.1646148
40
2.2005822
50
62.23721
51
86.2866825
0
ARC
8
DEFAULT_255_2_778
10
20.3739666
20
2.1472741
40
2.2180381
50
86.2555213
51
89.6285186
0
ARC
8
DEFAULT_255_2_778
10
20.3739788
20
2.1501244
40
2.2151877
50
89.6283562
51
90.0007901
0
ARC
8
DEFAULT_255_2_778
10
20.3725497
20
2.1587903
40
2.2065224
50
89.9636854
51
119.2325545
0
ARC
8
DEFAULT_255_2_778
10
20.373953
20
2.161467
40
2.2048734
50
119.2983455
51
135.0159933
0
ARC
8
DEFAULT_255_2_778
10
20.4029818
20
2.1302005
40
2.2475086
50
134.9753506
51
135.7541053
0
ARC
8
DEFAULT_255_2_778
10
20.3735717
20
2.1587831
40
2.2064974
50
135.7529274
51
150.6329962
0
ARC
8
DEFAULT_255_2_778
10
20.3681524
20
2.1642028
40
2.1991178
50
150.6868142
51
175.9705595
0
ARC
8
DEFAULT_255_2_778
10
20.3853134
20
2.1616813
40
2.2164138
50
175.9367101
51
180.0001576
0
ARC
8
DEFAULT_255_2_778
10
20.3717543
20
2.1602815
40
2.2028551
50
179.9637526
51
207.9040872
0
ARC
8
DEFAULT_255_2_778
10
20.3700642
20
2.1620282
40
2.2021801
50
207.9648264
51
223.2194104
0
ARC
8
DEFAULT_255_2_778
10
20.4023941
20
2.1903959
40
2.2451664
50
223.1819788
51
224.2060131
0
ARC
8
DEFAULT_255_2_778
10
20.375794
20
2.1645274
40
2.2080621
50
224.2060963
51
239.6155765
0
ARC
8
DEFAULT_255_2_778
10
20.3716123
20
2.1619987
40
2.2037668
50
239.6761124
51
266.7630866
0
ARC
8
DEFAULT_255_2_778
10
20.3738997
20
2.177364
40
2.2192372
50
266.7265227
51
270.0000591
0
ARC
8
DEFAULT_255_2_778
10
20.3738711
20
2.187497
40
2.2293701
50
270.0007952
51
270.3720481
0
ARC
8
DEFAULT_255_2_778
10
20.3753085
20
2.162144
40
2.2040087
50
270.3389618
51
296.3387177
0
ARC
8
DEFAULT_255_2_778
10
20.373109
20
2.1618308
40
2.2047048
50
296.3935537
51
311.5565019
0
ARC
8
DEFAULT_255_2_778
10
20.3464483
20
2.1941164
40
2.2465503
50
311.5190966
51
312.5373355
0
ARC
8
DEFAULT_255_2_778
10
20.3775862
20
2.1493648
40
1.4827897
50
239.8407579
51
270.0111471
0
ARC
8
DEFAULT_255_2_778
10
20.3804479
20
2.156406
40
1.4903157
50
188.180847
51
239.8816322
0
ARC
8
DEFAULT_255_2_778
10
20.3930754
20
2.1558399
40
1.5027358
50
180.3913724
51
188.0909725
0
ARC
8
DEFAULT_255_2_778
10
20.3988703
20
2.1550252
40
1.5085253
50
180.00013
51
180.3589292
0
ARC
8
DEFAULT_255_2_778
10
20.3684091
20
2.1570223
40
1.4780653
50
149.260202
51
180.0775449
0
ARC
8
DEFAULT_255_2_778
10
20.3790324
20
2.1522487
40
1.4896365
50
98.366546
51
149.3112461
0
ARC
8
DEFAULT_255_2_778
10
20.378479
20
2.1402067
40
1.5014715
50
90.6717939
51
98.2787925
0
ARC
8
DEFAULT_255_2_778
10
20.3790361
20
2.1258291
40
1.5158549
50
90.0004766
51
90.686475
0
ARC
8
DEFAULT_255_2_778
10
20.3810471
20
2.1640893
40
1.477596
50
59.3741452
51
90.0784677
0
ARC
8
DEFAULT_255_2_778
10
20.3758137
20
2.153197
40
1.4896353
50
8.8730808
51
59.4143575
0
ARC
8
DEFAULT_255_2_778
10
20.3619065
20
2.1530486
40
1.5034004
50
1.0071887
51
8.7969175
0
ARC
8
DEFAULT_255_2_778
10
20.3742788
20
2.1617836
40
1.4911288
50
328.1784979
51
358.7892166
0
ARC
8
DEFAULT_255_2_778
10
20.3678954
20
2.164247
40
1.4978523
50
277.4501244
51
328.2271809
0
ARC
8
DEFAULT_255_2_778
10
20.3682023
20
2.1776599
40
1.5111137
50
270.355367
51
277.3726412
0
ARC
8
DEFAULT_255_2_778
10
6.9761357
20
2.1823794
40
1.4952054
50
230.8948129
51
269.9286876
0
ARC
8
DEFAULT_255_2_778
10
6.9748668
20
2.1833895
40
1.4951897
50
194.2487526
51
230.9569588
0
ARC
8
DEFAULT_255_2_778
10
7.0967002
20
2.1776664
40
2.0802771
50
359.9093521
51
0.0033519
0
ARC
8
DEFAULT_255_2_778
10
6.9798555
20
2.1799672
40
2.1971228
50
359.9431721
51
24.8805187
0
ARC
8
DEFAULT_255_2_778
10
6.971947
20
2.1764303
40
2.2057853
50
24.8774365
51
74.5469732
0
ARC
8
DEFAULT_255_2_778
10
6.9721459
20
2.166329
40
2.2154702
50
74.6215354
51
83.0617249
0
ARC
8
DEFAULT_255_2_778
10
6.9705364
20
2.1596723
40
2.2222729
50
83.0412643
51
88.6943226
0
ARC
8
DEFAULT_255_2_778
10
6.9711101
20
2.1745387
40
2.2073972
50
88.7004173
51
89.9994878
0
ARC
8
DEFAULT_255_2_778
10
6.9714333
20
2.1843445
40
2.1975915
50
90.007913
51
120.9686776
0
ARC
8
DEFAULT_255_2_778
10
6.9709687
20
2.1791304
40
2.2018254
50
120.8884942
51
157.0682356
0
ARC
8
DEFAULT_255_2_778
10
6.9829857
20
2.1760387
40
2.2140979
50
157.1157185
51
166.2026644
0
ARC
8
DEFAULT_255_2_778
10
6.9984009
20
2.168967
40
2.2307572
50
166.1206988
51
169.516205
0
ARC
8
DEFAULT_255_2_778
10
6.9738114
20
2.1732929
40
2.205791
50
169.5104753
51
177.3892471
0
ARC
8
DEFAULT_255_2_778
10
6.9632465
20
2.1740065
40
2.1952046
50
177.3952927
51
179.9996891
0
ARC
8
DEFAULT_255_2_778
10
6.9750129
20
2.1758469
40
2.2069718
50
180.04747
51
239.337696
0
ARC
8
DEFAULT_255_2_778
10
6.9760098
20
2.1838809
40
2.2143934
50
239.4215181
51
249.1587922
0
ARC
8
DEFAULT_255_2_778
10
6.9775188
20
2.184255
40
2.2152803
50
249.1257589
51
257.6428071
0
ARC
8
DEFAULT_255_2_778
10
6.9726622
20
2.163682
40
2.1941445
50
257.6517212
51
263.4212455
0
ARC
8
DEFAULT_255_2_778
10
6.9723081
20
2.1611559
40
2.1915945
50
263.4228763
51
270.0008785
0
ARC
8
DEFAULT_255_2_778
10
6.9716861
20
2.1761487
40
2.2065872
50
270.0170245
51
322.122971
0
ARC
8
DEFAULT_255_2_778
10
6.9650479
20
2.1772998
40
2.2125359
50
322.204983
51
332.2255369
0
ARC
8
DEFAULT_255_2_778
10
6.9755384
20
2.1721364
40
1.4867618
50
269.9936297
51
316.3701259
0
LINE
8
DEFAULT_255_2_778
10
6.9753731
20
0.6853747
11
6.9742747
21
0.6853752
0
ARC
8
DEFAULT_255_2_778
10
6.9691262
20
2.1666232
40
1.4952608
50
50.802684
51
89.8027191
0
ARC
8
DEFAULT_255_2_778
10
6.9705219
20
2.1657584
40
1.4950498
50
14.186954
51
50.8650835
0
ARC
8
DEFAULT_255_2_778
10
6.9719893
20
2.1625949
40
1.4955978
50
126.3991318
51
165.6933139
0
ARC
8
DEFAULT_255_2_778
10
6.9727284
20
2.164357
40
1.4946189
50
90.0518949
51
126.4620222
0
LINE
8
DEFAULT_255_2_778
10
5.2856747
20
5.0038752
11
2.7340747
21
-0.1788248
0
LINE
8
DEFAULT_255_2_778
10
2.7340747
20
-0.1788248
11
0.1702747
21
5.0038752
0
LINE
8
DEFAULT_255_2_778
10
0.1702747
20
5.0038752
11
1.0566747
21
5.0038752
0
LINE
8
DEFAULT_255_2_778
10
1.0566747
20
5.0038752
11
2.7433747
21
1.6155752
0
LINE
8
DEFAULT_255_2_778
10
2.7433747
20
1.6155752
11
4.4165747
21
5.0038752
0
LINE
8
DEFAULT_255_2_778
10
4.4165747
20
5.0038752
11
5.2856747
21
5.0038752
0
LINE
8
DEFAULT_255_2_778
10
18.3939747
20
4.3371752
11
17.5525747
21
4.3371752
0
LINE
8
DEFAULT_255_2_778
10
17.5525747
20
4.3371752
11
16.1251747
21
1.4933752
0
LINE
8
DEFAULT_255_2_778
10
16.1251747
20
1.4933752
11
14.7016747
21
4.3368752
0
LINE
8
DEFAULT_255_2_778
10
14.7016747
20
4.3368752
11
13.8695747
21
4.3368752
0
LINE
8
DEFAULT_255_2_778
10
13.8695747
20
4.3368752
11
16.1291747
21
-0.1841248
0
LINE
8
DEFAULT_255_2_778
10
16.1291747
20
-0.1841248
11
18.3939747
21
4.3371752
0
LINE
8
DEFAULT_255_2_778
10
10.4217747
20
1.8145752
11
14.0717747
21
1.8145752
0
LINE
8
DEFAULT_255_2_778
10
14.0717747
20
1.8145752
11
14.0717747
21
2.1722752
0
LINE
8
DEFAULT_255_2_778
10
13.8187747
20
1.1441752
11
12.9445747
21
1.1441752
0
LINE
8
DEFAULT_255_2_778
10
13.3054747
20
2.5299752
11
10.4215747
21
2.5299752
0
LINE
8
DEFAULT_255_2_778
10
22.5839747
20
2.1619752
11
22.5839747
21
4.3244752
0
LINE
8
DEFAULT_255_2_778
10
22.5839747
20
4.3244752
11
21.8652747
21
4.3244752
0
LINE
8
DEFAULT_255_2_778
10
21.8652747
20
4.3244752
11
21.8652747
21
3.7846752
0
LINE
8
DEFAULT_255_2_778
10
21.8652747
20
0.5387752
11
21.8652747
21
-0.0089248
0
LINE
8
DEFAULT_255_2_778
10
21.8652747
20
-0.0089248
11
22.5836747
21
-0.0089248
0
LINE
8
DEFAULT_255_2_778
10
22.5836747
20
-0.0089248
11
22.5836747
21
2.1587752
0
LINE
8
DEFAULT_255_2_778
10
21.8650747
20
2.1794752
11
21.8650747
21
2.1302752
0
LINE
8
DEFAULT_255_2_778
10
5.5256747
20
1.8153752
11
9.1769747
21
1.8153752
0
LINE
8
DEFAULT_255_2_778
10
9.1769747
20
1.8153752
11
9.1769747
21
2.1743752
0
LINE
8
DEFAULT_255_2_778
10
8.9226747
20
1.1462752
11
8.0516747
21
1.1462752
0
LINE
8
DEFAULT_255_2_778
10
8.4199747
20
2.5321752
11
5.5227747
21
2.5321752
0
ARC
8
DEFAULT_255_2_778
10
3.9203883
20
16.7487475
40
11.7539201
50
269.7716141
51
269.7860099
0
ARC
8
DEFAULT_255_2_778
10
3.257279
20
-153.3966774
40
158.3927971
50
89.7770793
51
89.7795099
0
ARC
8
DEFAULT_255_2_778
10
2.2702917
20
-412.4380627
40
417.4360625
50
89.7808661
51
89.7845797
0
ARC
8
DEFAULT_255_2_778
10
2.1577614
20
-442.4221524
40
447.4203634
50
89.7846058
51
89.7893243
0
ARC
8
DEFAULT_255_2_778
10
1.8211331
20
-533.9876583
40
538.9864879
50
89.7893305
51
89.7937482
0
ARC
8
DEFAULT_255_2_778
10
1.3506912
20
-663.5914302
40
668.5911137
50
89.7934143
51
89.800185
0
ARC
8
DEFAULT_255_2_778
10
1.1573582
20
-719.2056036
40
724.2056231
50
89.8002339
51
89.8069312
0
ARC
8
DEFAULT_255_2_778
10
1.1064543
20
-734.1772164
40
739.1773224
50
89.806896
51
89.8153515
0
ARC
8
DEFAULT_255_2_778
10
1.1343052
20
-725.5135721
40
730.5136333
50
89.8153461
51
89.8273965
0
ARC
8
DEFAULT_255_2_778
10
1.0396365
20
-757.2115456
40
762.2117482
50
89.8274582
51
89.8315762
0
ARC
8
DEFAULT_255_2_778
10
1.2869629
20
-674.2217181
40
679.2215521
50
89.8318607
51
89.8429482
0
ARC
8
DEFAULT_255_2_778
10
1.4948569
20
-597.974551
40
602.9741017
50
89.8428432
51
89.8600694
0
ARC
8
DEFAULT_255_2_778
10
1.7436252
20
-494.7864367
40
499.7856876
50
89.8596976
51
89.8873237
0
ARC
8
DEFAULT_255_2_778
10
2.0020872
20
-360.9417316
40
365.940733
50
89.8865794
51
89.9311769
0
ARC
8
DEFAULT_255_2_778
10
2.1284706
20
-259.5410279
40
264.5399508
50
89.9321692
51
89.9619342
0
ARC
8
DEFAULT_255_2_778
10
2.1697414
20
-196.7449158
40
201.7438251
50
89.9618067
51
89.9991354
0
ARC
8
DEFAULT_255_2_778
10
2.1696717
20
-143.2750761
40
148.2739856
50
89.9987967
51
90.0465008
0
ARC
8
DEFAULT_255_2_778
10
2.1340378
20
-99.4414639
40
104.4403588
50
90.0464685
51
90.1012734
0
ARC
8
DEFAULT_255_2_778
10
2.0643172
20
-61.7679564
40
66.7667869
50
90.0985869
51
90.1992295
0
ARC
8
DEFAULT_255_2_778
10
1.9631701
20
-32.7899129
40
37.7885669
50
90.1986475
51
90.3226908
0
ARC
8
DEFAULT_255_2_778
10
1.8560146
20
-14.1683503
40
19.1666962
50
90.315883
51
90.5340168
0
ARC
8
DEFAULT_255_2_778
10
1.7558747
20
-3.4405403
40
8.4384188
50
90.5329977
51
90.8238503
0
ARC
8
DEFAULT_255_2_778
10
1.6744291
20
2.0706548
40
2.9266231
50
90.7808778
51
91.4623715
0
ARC
8
DEFAULT_255_2_778
10
1.6080752
20
4.5638494
40
0.4325557
50
91.1040887
51
93.7422476
0
ARC
8
DEFAULT_255_2_778
10
1.5794314
20
4.9877962
40
0.0076975
50
86.9340623
51
112.4697535
0
LINE
8
DEFAULT_255_2_778
10
1.5769895
20
4.9949094
11
2.7289895
21
2.6949094
0
LINE
8
DEFAULT_255_2_778
10
2.7289895
20
2.6949094
11
3.8764895
21
4.9949094
0
LINE
8
DEFAULT_255_2_778
10
1.5764895
20
4.9949094
11
1.5769895
21
4.9949094
0
ENDSEC
0
EOF