0
SECTION
2
HEADER
9
$MEASUREMENT
70
1
0
ENDSEC
0
SECTION
2
TABLES
0
TABLE
2
LTYPE
0
LTYPE
72
65
70
64
2
CONTINUOUS
3
______
73
0
40
0
0
ENDTAB
0
TABLE
2
LAYER
0
LAYER
2
DEFAULT_255_2_778
70
0
62
255
6
CONTINUOUS
0
ENDTAB
0
ENDSEC
0
SECTION
2
ENTITIES
0
ARC
8
DEFAULT_255_2_778
10
6.5455399
20
7.3808578
40
2.1205301
50
94.1837159
51
133.2442721
0
ARC
8
DEFAULT_255_2_778
10
6.6278445
20
6.926911
40
2.5797366
50
89.9834291
51
95.2713493
0
ARC
8
DEFAULT_255_2_778
10
6.6285752
20
6.8716933
40
2.6349543
50
89.0896328
51
89.9996661
0
ARC
8
DEFAULT_255_2_778
10
6.6270021
20
6.8212378
40
2.6854283
50
69.4775783
51
89.0731769
0
ARC
8
DEFAULT_255_2_778
10
6.85129
20
7.6261438
40
1.8543793
50
12.6940957
51
67.2485152
0
ARC
8
DEFAULT_255_2_778
10
5.0680451
20
7.1401129
40
3.7017548
50
359.8609783
51
13.9678945
0
ARC
8
DEFAULT_255_2_778
10
4.8292966
20
7.1311326
40
3.9404924
50
359.2780641
51
359.9999772
0
ARC
8
DEFAULT_255_2_778
10
4.476378
20
7.1563854
40
4.2937515
50
337.1282702
51
359.0004535
0
ARC
8
DEFAULT_255_2_778
10
8.0660566
20
7.1441565
40
1.6966748
50
273.8693163
51
282.4743685
0
ARC
8
DEFAULT_255_2_778
10
8.0614614
20
7.1883328
40
1.7410613
50
270.0047023
51
273.9220919
0
ARC
8
DEFAULT_255_2_778
10
8.0614534
20
7.1554815
40
1.70821
50
267.3424303
51
270.0050609
0
ARC
8
DEFAULT_255_2_778
10
8.016334
20
6.7842727
40
1.335599
50
238.8034289
51
268.5376431
0
ARC
8
DEFAULT_255_2_778
10
7.7901887
20
6.3795336
40
0.8723997
50
208.9962649
51
237.7393221
0
ARC
8
DEFAULT_255_2_778
10
-35.014103
20
16.3170511
40
43.2990137
50
346.1561858
51
346.1899719
0
ARC
8
DEFAULT_255_2_778
10
1.5193405
20
7.4543901
40
5.7072551
50
345.0434858
51
353.2655962
0
ARC
8
DEFAULT_255_2_778
10
4.6222408
20
7.0392158
40
2.5775326
50
354.3424668
51
359.8665719
0
ARC
8
DEFAULT_255_2_778
10
5.5216904
20
7.0617914
40
1.6783193
50
359.0243343
51
23.0178959
0
ARC
8
DEFAULT_255_2_778
10
5.7192359
20
7.124916
40
1.4719434
50
23.7631452
51
23.8733544
0
ARC
8
DEFAULT_255_2_778
10
6.5615019
20
7.4944238
40
0.552202
50
24.1831063
51
89.7063259
0
ARC
8
DEFAULT_255_2_778
10
6.5643247
20
7.5320673
40
0.5145512
50
89.9991652
51
91.98896
0
ARC
8
DEFAULT_255_2_778
10
6.5623404
20
7.5555657
40
0.4909994
50
91.8527163
51
114.5619706
0
ARC
8
DEFAULT_255_2_778
10
6.674784
20
7.3582077
40
0.7175244
50
116.1777168
51
165.5806527
0
ARC
8
DEFAULT_255_2_778
10
7.3243548
20
7.0978411
40
1.4143615
50
161.9156165
51
167.4776877
0
ARC
8
DEFAULT_255_2_778
10
7.6652678
20
7.0216154
40
1.7636919
50
167.4615838
51
172.188204
0
ARC
8
DEFAULT_255_2_778
10
8.9649165
20
6.9073792
40
3.0674634
50
173.3738453
51
179.9889124
0
ARC
8
DEFAULT_255_2_778
10
8.9070327
20
6.907841
40
3.0095795
50
179.9974907
51
182.1943856
0
ARC
8
DEFAULT_255_2_778
10
8.3400487
20
6.8334036
40
2.4407295
50
180.9577977
51
216.9575002
0
ARC
8
DEFAULT_255_2_778
10
7.9212356
20
6.5794232
40
1.9539756
50
218.3900256
51
223.0753987
0
ARC
8
DEFAULT_255_2_778
10
7.9995546
20
6.7017973
40
2.0950684
50
224.0572377
51
269.0531545
0
ARC
8
DEFAULT_255_2_778
10
8.0420928
20
6.9196602
40
2.3139322
50
268.0891009
51
269.9991712
0
ARC
8
DEFAULT_255_2_778
10
8.0421276
20
6.9061581
40
2.30043
50
269.9982999
51
272.6214726
0
ARC
8
DEFAULT_255_2_778
10
8.0721584
20
7.6639166
40
3.0567057
50
271.409427
51
317.5762127
0
ARC
8
DEFAULT_255_2_778
10
17.7102677
20
2.5389229
40
6.1015558
50
181.2836491
51
184.1340361
0
ARC
8
DEFAULT_255_2_778
10
13.0834114
20
2.146109
40
1.4595825
50
181.8471444
51
209.7261739
0
ARC
8
DEFAULT_255_2_778
10
12.5933158
20
1.916108
40
0.9209515
50
212.4199315
51
217.9035892
0
ARC
8
DEFAULT_255_2_778
10
12.2638689
20
1.6697474
40
0.5097178
50
218.8029797
51
271.9462777
0
ARC
8
DEFAULT_255_2_778
10
12.2810481
20
1.8225086
40
0.6621851
50
270.0114262
51
273.6114821
0
ARC
8
DEFAULT_255_2_778
10
12.2783127
20
1.8624965
40
0.7022659
50
273.6287123
51
308.1629891
0
ARC
8
DEFAULT_255_2_778
10
11.5168162
20
2.7213343
40
1.8493141
50
310.2719531
51
339.3954541
0
ARC
8
DEFAULT_255_2_778
10
8.8811643
20
3.945022
40
4.7520005
50
336.7674818
51
338.5006427
0
ARC
8
DEFAULT_255_2_778
10
5.6962063
20
5.1951982
40
8.1735336
50
338.5291498
51
339.7682058
0
ARC
8
DEFAULT_255_2_778
10
2.7498782
20
5.6581769
40
11.1135638
50
342.7828859
51
355.9959394
0
ARC
8
DEFAULT_255_2_778
10
-7.5424219
20
6.7398771
40
21.4592998
50
355.033695
51
355.7419087
0
ARC
8
DEFAULT_255_2_778
10
-13.8862209
20
7.2029569
40
27.8199729
50
355.7609
51
356.6936222
0
ARC
8
DEFAULT_255_2_778
10
17.4373061
20
3.1529841
40
2.5837129
50
111.4672341
51
148.4696879
0
ARC
8
DEFAULT_255_2_778
10
17.1597452
20
3.6829953
40
1.9899318
50
107.2290349
51
109.614442
0
ARC
8
DEFAULT_255_2_778
10
17.2416914
20
3.4651723
40
2.222295
50
91.1560192
51
107.5835851
0
ARC
8
DEFAULT_255_2_778
10
17.2329011
20
3.6210075
40
2.0663219
50
90.0013569
51
90.999505
0
ARC
8
DEFAULT_255_2_778
10
17.2753344
20
4.0741679
40
1.6137207
50
51.9026859
51
91.5085222
0
ARC
8
DEFAULT_255_2_778
10
17.4035094
20
4.2922077
40
1.363463
50
49.7297566
51
50.4880237
0
ARC
8
DEFAULT_255_2_778
10
17.0840818
20
4.0171822
40
1.781006
50
9.9039409
51
47.6076324
0
ARC
8
DEFAULT_255_2_778
10
16.1490163
20
3.7562094
40
2.7487091
50
7.0981675
51
11.9107565
0
ARC
8
DEFAULT_255_2_778
10
15.8300548
20
3.7158537
40
3.070213
50
2.8224717
51
7.1099697
0
ARC
8
DEFAULT_255_2_778
10
20.5852445
20
1.9422108
40
1.6767692
50
185.2996904
51
190.8663341
0
ARC
8
DEFAULT_255_2_778
10
19.5927124
20
1.7149478
40
0.6601769
50
187.7336614
51
224.4963742
0
ARC
8
DEFAULT_255_2_778
10
19.378912
20
1.5422706
40
0.3875701
50
228.4429949
51
250.4536839
0
ARC
8
DEFAULT_255_2_778
10
19.3940545
20
1.6287668
40
0.4743748
50
252.2257232
51
266.119901
0
ARC
8
DEFAULT_255_2_778
10
19.3929391
20
1.62002
40
0.4655727
50
266.1840127
51
270.0020043
0
ARC
8
DEFAULT_255_2_778
10
19.3522636
20
1.8167423
40
0.6635438
50
273.5158703
51
319.4448865
0
ARC
8
DEFAULT_255_2_778
10
19.069949
20
2.132955
40
1.085118
50
316.4498255
51
328.286308
0
ARC
8
DEFAULT_255_2_778
10
16.783556
20
3.464113
40
3.7305233
50
329.3538372
51
345.0377721
0
ARC
8
DEFAULT_255_2_778
10
3.2696247
20
7.4997059
40
17.8329072
50
343.7212744
51
344.910819
0
ARC
8
DEFAULT_255_2_778
10
657.428363
20
-171.2242954
40
660.301344
50
164.7121864
51
164.7138562
0
ARC
8
DEFAULT_255_2_778
10
26.8663928
20
1.2972026
40
6.5662551
50
157.5785265
51
166.0877307
0
ARC
8
DEFAULT_255_2_778
10
23.6142678
20
2.561518
40
3.0785839
50
152.8522307
51
156.2443985
0
ARC
8
DEFAULT_255_2_778
10
23.67484
20
2.7178548
40
3.065687
50
119.2674866
51
155.9702598
0
ARC
8
DEFAULT_255_2_778
10
23.247264
20
3.3462763
40
2.3093857
50
108.5691343
51
117.6355862
0
ARC
8
DEFAULT_255_2_778
10
23.4570434
20
2.6701118
40
3.0171981
50
91.0621531
51
108.2564589
0
ARC
8
DEFAULT_255_2_778
10
23.4468536
20
2.8490144
40
2.8381454
50
90.0003093
51
90.923428
0
ARC
8
DEFAULT_255_2_778
10
23.4746501
20
3.2320578
40
2.4552597
50
62.6030728
51
90.6490296
0
ARC
8
DEFAULT_255_2_778
10
23.8147259
20
3.9422244
40
1.6684437
50
0.3231909
51
61.7496088
0
ARC
8
DEFAULT_255_2_778
10
23.9011862
20
3.8588348
40
1.5846766
50
359.9961524
51
3.3572382
0
ARC
8
DEFAULT_255_2_778
10
23.7520897
20
3.8766287
40
1.7338654
50
304.5192986
51
359.408474
0
ARC
8
DEFAULT_255_2_778
10
22.8852029
20
5.1915518
40
3.308672
50
277.4715118
51
303.984427
0
ARC
8
DEFAULT_255_2_778
10
22.434242
20
7.6130554
40
5.7697721
50
273.6887585
51
278.7849749
0
ARC
8
DEFAULT_255_2_778
10
22.2547869
20
10.4390982
40
8.6015061
50
269.8471857
51
273.6705439
0
ARC
8
DEFAULT_255_2_778
10
22.231842
20
13.2583035
40
11.4206807
50
269.9142177
51
270.0000188
0
ARC
8
DEFAULT_255_2_778
10
23.3253677
20
2.4483469
40
1.2674601
50
208.8055545
51
252.4719373
0
ARC
8
DEFAULT_255_2_778
10
23.666659
20
3.6287813
40
2.4960551
50
253.1621941
51
270.1527171
0
ARC
8
DEFAULT_255_2_778
10
23.6733415
20
3.7664172
40
2.6336821
50
269.9993586
51
270.3848139
0
ARC
8
DEFAULT_255_2_778
10
23.6528594
20
3.9995141
40
2.8669737
50
270.7628499
51
304.410615
0
ARC
8
DEFAULT_255_2_778
10
23.8417463
20
2.4364374
40
2.6149511
50
276.346725
51
303.1357595
0
ARC
8
DEFAULT_255_2_778
10
23.534909
20
4.1690811
40
4.3723662
50
274.1005426
51
277.8331807
0
ARC
8
DEFAULT_255_2_778
10
23.4415288
20
5.5553421
40
5.7617589
50
269.8813899
51
274.0410157
0
ARC
8
DEFAULT_255_2_778
10
23.4306984
20
7.1315843
40
7.3379888
50
269.0828584
51
269.9914334
0
ARC
8
DEFAULT_255_2_778
10
23.386463
20
2.9844416
40
3.1907462
50
265.0610974
51
268.6850857
0
ARC
8
DEFAULT_255_2_778
10
23.3301518
20
2.7861776
40
2.9886252
50
226.2424229
51
265.8094295
0
ARC
8
DEFAULT_255_2_778
10
22.8781345
20
2.2439624
40
2.2848941
50
207.0311465
51
225.0256233
0
ARC
8
DEFAULT_255_2_778
10
18.7401195
20
1.9582164
40
2.2333776
50
292.2490326
51
340.3049102
0
ARC
8
DEFAULT_255_2_778
10
19.0164148
20
1.4170117
40
1.6286454
50
270.12017
51
290.4613734
0
ARC
8
DEFAULT_255_2_778
10
19.0198211
20
1.3759123
40
1.5875424
50
268.7700017
51
270.0003448
0
ARC
8
DEFAULT_255_2_778
10
18.9460788
20
1.2104201
40
1.4222376
50
269.9987214
51
271.5981112
0
ARC
8
DEFAULT_255_2_778
10
18.9507147
20
1.2927381
40
1.504563
50
207.8600469
51
269.8222505
0
ARC
8
DEFAULT_255_2_778
10
19.6193997
20
1.62306
40
2.2501985
50
183.3076462
51
207.339314
0
ARC
8
DEFAULT_255_2_778
10
22.8385525
20
1.9206404
40
5.4822891
50
179.6300104
51
184.471436
0
ARC
8
DEFAULT_255_2_778
10
28.9353119
20
1.9540992
40
11.5789342
50
179.6118037
51
179.9903855
0
ARC
8
DEFAULT_255_2_778
10
44.5804091
20
1.8177772
40
27.2246127
50
179.1026116
51
179.5479948
0
ARC
8
DEFAULT_255_2_778
10
-2.60878
20
2.579635
40
19.9707334
50
359.0374873
51
359.8594672
0
ARC
8
DEFAULT_255_2_778
10
10.2240614
20
2.539829
40
7.1378377
50
359.9263323
51
1.5334024
0
ARC
8
DEFAULT_255_2_778
10
21.8729673
20
2.8716669
40
4.5158207
50
179.8953761
51
181.7871276
0
ARC
8
DEFAULT_255_2_778
10
31.0077935
20
2.8522921
40
13.6506673
50
179.2033949
51
179.8840672
0
ARC
8
DEFAULT_255_2_778
10
0.644617
20
3.2630949
40
16.7152898
50
359.2423825
51
359.6995109
0
ARC
8
DEFAULT_255_2_778
10
9.857083
20
3.2054396
40
7.5026539
50
359.7708359
51
359.9968978
0
ARC
8
DEFAULT_255_2_778
10
15.3324817
20
3.2925446
40
2.0291432
50
357.528228
51
18.2053367
0
ARC
8
DEFAULT_255_2_778
10
16.1473698
20
3.5084864
40
1.18861
50
20.5900869
51
24.6293595
0
ARC
8
DEFAULT_255_2_778
10
16.8250425
20
3.803474
40
0.4498812
50
26.4467334
51
59.836118
0
ARC
8
DEFAULT_255_2_778
10
16.7520513
20
3.649748
40
0.6196289
50
61.143346
51
91.3302771
0
ARC
8
DEFAULT_255_2_778
10
16.7379679
20
3.4241226
40
0.8450874
50
90.0204503
51
93.5948822
0
ARC
8
DEFAULT_255_2_778
10
16.7477743
20
3.3168762
40
0.9527425
50
93.779058
51
113.74257
0
ARC
8
DEFAULT_255_2_778
10
16.711968
20
3.403248
40
0.8592666
50
113.8759292
51
116.0480268
0
ARC
8
DEFAULT_255_2_778
10
17.0089008
20
2.9254696
40
1.4200488
50
118.3471772
51
157.161911
0
ARC
8
DEFAULT_255_2_778
10
18.3623326
20
2.2305196
40
2.9393654
50
154.9164857
51
163.0120293
0
ARC
8
DEFAULT_255_2_778
10
19.6608034
20
1.8136652
40
4.3030147
50
162.7551774
51
165.3048699
0
ARC
8
DEFAULT_255_2_778
10
21.8436795
20
1.4900473
40
6.5010394
50
167.4268154
51
180.3858932
0
ARC
8
DEFAULT_255_2_778
10
31.544956
20
1.2421127
40
16.2034545
50
179.2781027
51
180.0230175
0
ARC
8
DEFAULT_255_2_778
10
44.7392484
20
1.2596655
40
29.3977556
50
180.046897
51
180.6358457
0
ARC
8
DEFAULT_255_2_778
10
127.9156595
20
2.1183765
40
112.5785927
50
180.6030793
51
180.6873422
0
ARC
8
DEFAULT_255_2_778
10
-24.4346063
20
0.2222345
40
39.7835157
50
0.1128315
51
0.785847
0
ARC
8
DEFAULT_255_2_778
10
1.6956749
20
0.2791432
40
13.6531741
50
358.3580662
51
0.0899576
0
ARC
8
DEFAULT_255_2_778
10
15.4069564
20
-994.2458429
40
994.1337806
50
90.003672
51
90.02596
0
ARC
8
DEFAULT_255_2_778
10
14.5061356
20
993.7953365
40
993.9076029
50
270.0036783
51
270.0259637
0
ARC
8
DEFAULT_255_2_778
10
14.5054347
20
248.5751498
40
248.6874226
50
269.8368376
51
270.0148623
0
ARC
8
DEFAULT_255_2_778
10
11.1623494
20
2.4421816
40
2.8972981
50
307.3036728
51
335.2420765
0
ARC
8
DEFAULT_255_2_778
10
11.771217
20
1.7657088
40
1.9915987
50
303.4996261
51
305.1643583
0
ARC
8
DEFAULT_255_2_778
10
11.8567709
20
1.5947318
40
1.8019501
50
269.6276059
51
304.231763
0
ARC
8
DEFAULT_255_2_778
10
11.8450593
20
1.6991024
40
1.9062825
50
269.8107371
51
269.9999997
0
ARC
8
DEFAULT_255_2_778
10
11.838058
20
1.6230208
40
1.8301906
50
242.0215378
51
270.0220478
0
ARC
8
DEFAULT_255_2_778
10
11.8419015
20
1.4256839
40
1.6604965
50
198.7252388
51
238.7081299
0
ARC
8
DEFAULT_255_2_778
10
12.8342703
20
1.8704926
40
2.7450565
50
193.1242263
51
200.8689975
0
ARC
8
DEFAULT_255_2_778
10
13.1630504
20
1.9536611
40
3.0841399
50
191.4174854
51
193.2420525
0
ARC
8
DEFAULT_255_2_778
10
17.2428598
20
2.5580905
40
7.2060766
50
178.9736272
51
189.7065135
0
ARC
8
DEFAULT_255_2_778
10
35.8402861
20
2.6561516
40
25.8023653
50
179.148904
51
179.9311212
0
ARC
8
DEFAULT_255_2_778
10
118.8884271
20
1.5268666
40
108.8581684
50
179.1206042
51
179.2038674
0
ARC
8
DEFAULT_255_2_778
10
-23.7359808
20
3.7931306
40
33.7843104
50
358.989961
51
359.8548958
0
ARC
8
DEFAULT_255_2_778
10
-2.3825325
20
3.72295
40
12.4307632
50
359.9291121
51
1.5566495
0
ARC
8
DEFAULT_255_2_778
10
7.9003608
20
7.361105
40
3.9353217
50
276.8848641
51
302.9991761
0
ARC
8
DEFAULT_255_2_778
10
7.4978604
20
9.5252856
40
6.1337479
50
274.7084895
51
278.1942953
0
ARC
8
DEFAULT_255_2_778
10
7.4026663
20
10.6818309
40
7.2942042
50
271.6181583
51
274.7079905
0
ARC
8
DEFAULT_255_2_778
10
-2.0667872
20
8.183317
40
10.7974398
50
313.7430939
51
333.6482149
0
ARC
8
DEFAULT_255_2_778
10
48.8621503
20
-47.8344007
40
64.9149544
50
132.0317482
51
132.1843147
0
ARC
8
DEFAULT_255_2_778
10
3.8856517
20
1.6522464
40
1.9589467
50
294.2419917
51
314.9904592
0
ARC
8
DEFAULT_255_2_778
10
4.3669501
20
0.6934352
40
0.8882167
50
273.3493459
51
291.3264799
0
ARC
8
DEFAULT_255_2_778
10
4.3957665
20
0.5897035
40
0.7833078
50
269.9993091
51
271.688211
0
ARC
8
DEFAULT_255_2_778
10
4.4592081
20
0.9366586
40
1.1320426
50
230.4921337
51
266.7868833
0
ARC
8
DEFAULT_255_2_778
10
6.0493212
20
3.2184736
40
3.9106206
50
230.5538092
51
233.7879074
0
ARC
8
DEFAULT_255_2_778
10
11.5051536
20
9.9267574
40
12.5573791
50
230.3920899
51
230.7774665
0
ARC
8
DEFAULT_255_2_778
10
8.3204991
20
5.54537
40
7.1595986
50
207.2657622
51
227.6723328
0
ARC
8
DEFAULT_255_2_778
10
12.5699339
20
7.9844307
40
12.0562938
50
204.9270572
51
208.3175882
0
ARC
8
DEFAULT_255_2_778
10
16.5111354
20
9.5169453
40
16.2785141
50
190.0818057
51
203.9720373
0
ARC
8
DEFAULT_255_2_778
10
27.8597972
20
11.8614022
40
27.8642023
50
188.0395682
51
190.7431641
0
ARC
8
DEFAULT_255_2_778
10
33.2762799
20
12.6710413
40
33.3407133
50
188.082396
51
188.1154381
0
ARC
8
DEFAULT_255_2_778
10
19.1069627
20
9.9552704
40
17.2958643
50
186.332946
51
197.8580221
0
ARC
8
DEFAULT_255_2_778
10
13.8089179
20
8.430805
40
11.7868708
50
198.7023049
51
199.8310495
0
ARC
8
DEFAULT_255_2_778
10
12.1034931
20
7.7510957
40
9.9521788
50
199.4807903
51
219.8147929
0
ARC
8
DEFAULT_255_2_778
10
-2.1581182
20
7.8312762
40
9.2424777
50
315.721193
51
333.6497523
0
ARC
8
DEFAULT_255_2_778
10
7.6834845
20
6.5972947
40
3.2648647
50
199.752199
51
241.4683927
0
ARC
8
DEFAULT_255_2_778
10
8.1880295
20
6.8523317
40
3.8265457
50
183.3841133
51
200.79318
0
ARC
8
DEFAULT_255_2_778
10
8.1033517
20
6.844144
40
3.7415335
50
183.0857478
51
183.3354937
0
ARC
8
DEFAULT_255_2_778
10
8.1818524
20
6.9460962
40
3.8266527
50
180.0138607
51
184.5469345
0
ARC
8
DEFAULT_255_2_778
10
8.043363
20
6.9457396
40
3.6881632
50
177.009947
51
180.008841
0
ARC
8
DEFAULT_255_2_778
10
7.226873
20
7.0445459
40
2.8681792
50
148.5660827
51
178.1303242
0
ARC
8
DEFAULT_255_2_778
10
6.5789237
20
7.3871443
40
2.1371379
50
134.0708495
51
147.3435864
0
ARC
8
DEFAULT_255_2_778
10
23.5855975
20
2.8936907
40
1.4731931
50
113.0731959
51
160.9130497
0
ARC
8
DEFAULT_255_2_778
10
24.0449639
20
2.6643667
40
1.9834097
50
158.9915972
51
172.4178252
0
ARC
8
DEFAULT_255_2_778
10
24.0288034
20
2.6655351
40
1.9672367
50
172.3894543
51
176.0066271
0
ARC
8
DEFAULT_255_2_778
10
21.932559
20
9.941512
40
7.1402298
50
271.0735954
51
274.4967574
0
ARC
8
DEFAULT_255_2_778
10
22.3576777
20
5.4704219
40
2.650585
50
272.9128465
51
295.6564299
0
ARC
8
DEFAULT_255_2_778
10
22.7291875
20
4.572405
40
1.6811181
50
297.4949999
51
305.8072596
0
ARC
8
DEFAULT_255_2_778
10
23.2483464
20
3.8699919
40
0.8077918
50
305.0923949
51
354.5934099
0
ARC
8
DEFAULT_255_2_778
10
23.4941608
20
3.8187682
40
0.5589379
50
357.4478601
51
359.9936182
0
ARC
8
DEFAULT_255_2_778
10
23.5539267
20
3.8220114
40
0.499183
50
359.6205947
51
28.9483056
0
ARC
8
DEFAULT_255_2_778
10
23.5430666
20
3.8149895
40
0.5120857
50
29.0476715
51
34.0123459
0
ARC
8
DEFAULT_255_2_778
10
23.4871325
20
3.7014086
40
0.6251528
50
39.7833826
51
89.329784
0
ARC
8
DEFAULT_255_2_778
10
23.435151
20
3.347702
40
0.9806109
50
86.5334118
51
90.0249309
0
ARC
8
DEFAULT_255_2_778
10
23.4350303
20
3.2675032
40
1.0608096
50
90.0165306
51
92.841033
0
ARC
8
DEFAULT_255_2_778
10
23.4533266
20
3.0528089
40
1.2761698
50
93.1837044
51
108.880222
0
ARC
8
DEFAULT_255_2_778
10
23.4563899
20
3.0338315
40
1.2951216
50
108.736778
51
110.2586331
0
LINE
8
DEFAULT_255_2_778
10
10.3285432
20
5.6018356
11
11.6083432
21
5.6018356
0
LINE
8
DEFAULT_255_2_778
10
11.6083432
20
5.6018356
11
11.6102432
21
2.4022356
0
LINE
8
DEFAULT_255_2_778
10
13.8874432
20
5.5984356
11
15.1998432
21
5.5976356
0
LINE
8
DEFAULT_255_2_778
10
15.1998432
20
5.5976356
11
15.2350432
21
4.5041356
0
LINE
8
DEFAULT_255_2_778
10
18.8965432
20
3.8670356
11
18.9156432
21
1.7873356
0
LINE
8
DEFAULT_255_2_778
10
25.2730432
20
1.6342356
11
25.2711432
21
0.2467356
0
LINE
8
DEFAULT_255_2_778
10
13.7972432
20
-0.1112644
11
13.7933432
21
1.2288356
0
LINE
8
DEFAULT_255_2_778
10
0.2667432
20
7.9834356
11
0.2667432
21
8.0492356
0
LINE
8
DEFAULT_255_2_778
10
0.2667432
20
8.0492356
11
1.9166432
21
8.0474356
0
LINE
8
DEFAULT_255_2_778
10
23.0079432
20
4.2488356
11
23.0082432
21
4.2490356
0
ARC
8
DEFAULT_255_2_778
10
10.9103289
20
7.2456936
40
1.1931505
50
90.0045124
51
100.150958
0
ARC
8
DEFAULT_255_2_778
10
10.9102339
20
7.2551456
40
1.1836986
50
89.1187749
51
89.9999499
0
ARC
8
DEFAULT_255_2_778
10
10.9345247
20
7.4353423
40
1.0033805
50
48.2968238
51
90.347521
0
ARC
8
DEFAULT_255_2_778
10
10.8931398
20
7.4421586
40
1.0264354
50
359.0048501
51
46.3185727
0
ARC
8
DEFAULT_255_2_778
10
10.0367503
20
7.4246385
40
1.8826702
50
359.9533118
51
359.9906624
0
ARC
8
DEFAULT_255_2_778
10
10.8914978
20
7.4066108
40
1.0280543
50
313.6601535
51
0.9192641
0
ARC
8
DEFAULT_255_2_778
10
10.9254258
20
7.4135821
40
1.0101012
50
269.3311823
51
311.9946523
0
ARC
8
DEFAULT_255_2_778
10
10.9088401
20
7.530535
40
1.1269953
50
270.0024222
51
270.2437777
0
ARC
8
DEFAULT_255_2_778
10
10.8873095
20
7.3932619
40
0.9899572
50
222.5163322
51
271.2489827
0
ARC
8
DEFAULT_255_2_778
10
10.7780203
20
7.2607505
40
0.8201964
50
210.9145196
51
220.8525112
0
ARC
8
DEFAULT_255_2_778
10
10.9922495
20
7.3973068
40
1.0741714
50
179.3936912
51
211.2929302
0
ARC
8
DEFAULT_255_2_778
10
11.1189536
20
7.4086141
40
1.2008152
50
179.8043451
51
179.9971641
0
ARC
8
DEFAULT_255_2_778
10
11.0334838
20
7.4218017
40
1.1153756
50
140.6590848
51
180.4667953
0
ARC
8
DEFAULT_255_2_778
10
10.8022645
20
7.5970001
40
0.8255637
50
103.5302669
51
139.8899968
0
ARC
8
DEFAULT_255_2_778
10
10.8099168
20
7.559229
40
0.864078
50
97.3185605
51
103.4376318
0
LINE
8
DEFAULT_255_2_778
10
10.6998454
20
8.4162675
11
10.7000454
21
8.4201675
0
ENDSEC
0
EOF