0
SECTION
2
HEADER
9
$MEASUREMENT
70
1
0
ENDSEC
0
SECTION
2
TABLES
0
TABLE
2
LTYPE
0
LTYPE
72
65
70
64
2
CONTINUOUS
3
______
73
0
40
0
0
ENDTAB
0
TABLE
2
LAYER
0
LAYER
2
DEFAULT_255_2_778
70
0
62
255
6
CONTINUOUS
0
ENDTAB
0
ENDSEC
0
SECTION
2
ENTITIES
0
ARC
8
DEFAULT_255_2_778
10
18.4951989
20
6.3963366
40
0.6673348
50
38.7324024
51
66.2119624
0
ARC
8
DEFAULT_255_2_778
10
18.4377488
20
6.3240132
40
0.7576786
50
20.3643867
51
40.2807019
0
ARC
8
DEFAULT_255_2_778
10
18.3771309
20
6.2971049
40
0.8238819
50
0.5753041
51
20.6517514
0
ARC
8
DEFAULT_255_2_778
10
18.4216616
20
6.302423
40
0.7793152
50
359.9999845
51
0.2172041
0
ARC
8
DEFAULT_255_2_778
10
18.4068093
20
6.3025659
40
0.7941675
50
355.6508866
51
359.989671
0
ARC
8
DEFAULT_255_2_778
10
18.3868976
20
6.303806
40
0.8141159
50
331.798589
51
355.6701313
0
ARC
8
DEFAULT_255_2_778
10
18.6259444
20
6.1742912
40
0.542242
50
287.1205442
51
331.9225796
0
ARC
8
DEFAULT_255_2_778
10
18.6212463
20
5.1808479
40
0.5028376
50
31.4595691
51
70.9256275
0
ARC
8
DEFAULT_255_2_778
10
18.2432039
20
5.07755
40
0.8859756
50
0.0421844
51
24.3806051
0
ARC
8
DEFAULT_255_2_778
10
18.2511513
20
5.0781981
40
0.8780281
50
356.3222588
51
0.0002758
0
ARC
8
DEFAULT_255_2_778
10
20.455327
20
4.7987152
40
1.3285998
50
178.2159751
51
180.0006624
0
ARC
8
DEFAULT_255_2_778
10
20.4921736
20
4.7995824
40
1.3654466
50
180.0370303
51
188.7919778
0
ARC
8
DEFAULT_255_2_778
10
19.3632583
20
4.6296601
40
0.2238719
50
189.9760498
51
238.7954191
0
ARC
8
DEFAULT_255_2_778
10
19.8612858
20
4.7607492
40
1.2988825
50
180.5854538
51
190.8846872
0
ARC
8
DEFAULT_255_2_778
10
18.0548022
20
5.0488661
40
0.5103445
50
354.1305685
51
355.0530298
0
ARC
8
DEFAULT_255_2_778
10
18.0541426
20
5.0489402
40
0.5110082
50
355.0511221
51
359.9997137
0
ARC
8
DEFAULT_255_2_778
10
18.0548887
20
5.0490057
40
0.5102622
50
359.9923665
51
34.8626687
0
ARC
8
DEFAULT_255_2_778
10
18.205179
20
4.9740071
40
0.4544022
50
53.7969279
51
90.0010281
0
ARC
8
DEFAULT_255_2_778
10
18.2051878
20
4.9721221
40
0.4562874
50
90.0021242
51
96.0199258
0
ARC
8
DEFAULT_255_2_778
10
18.2048099
20
4.9752888
40
0.4530984
50
96.0143965
51
96.607743
0
ARC
8
DEFAULT_255_2_778
10
18.3687743
20
5.908689
40
1.1654333
50
90.0000648
51
91.5833919
0
ARC
8
DEFAULT_255_2_778
10
18.3686302
20
5.9059983
40
1.168124
50
70.3327157
51
89.9929932
0
ARC
8
DEFAULT_255_2_778
10
18.2429082
20
6.5227451
40
0.6400262
50
267.0322204
51
270.0004252
0
ARC
8
DEFAULT_255_2_778
10
18.2423952
20
6.5302015
40
0.6474828
50
270.0458177
51
291.5735251
0
ARC
8
DEFAULT_255_2_778
10
18.3396862
20
6.196475
40
0.3030805
50
297.6787613
51
0.0314943
0
ARC
8
DEFAULT_255_2_778
10
18.337262
20
6.1966171
40
0.3055046
50
0.0045906
51
6.5521133
0
ARC
8
DEFAULT_255_2_778
10
18.300138
20
6.273107
40
0.3431677
50
353.0322823
51
359.9959979
0
ARC
8
DEFAULT_255_2_778
10
18.3027394
20
6.273295
40
0.3405662
50
359.9643417
51
57.3910841
0
ARC
8
DEFAULT_255_2_778
10
18.2566275
20
6.0496383
40
0.5598092
50
65.7814804
51
89.9973902
0
ARC
8
DEFAULT_255_2_778
10
18.256646
20
6.0505956
40
0.5588519
50
89.9992858
51
93.1978287
0
ARC
8
DEFAULT_255_2_778
10
25.3976455
20
5.2582009
40
0.5451547
50
184.6319237
51
216.0116503
0
ARC
8
DEFAULT_255_2_778
10
25.3726777
20
5.3634842
40
0.5952923
50
225.6670091
51
270.0045335
0
ARC
8
DEFAULT_255_2_778
10
25.3727092
20
5.3647076
40
0.5965156
50
270.0015031
51
276.1071366
0
ARC
8
DEFAULT_255_2_778
10
25.4657243
20
5.8052017
40
1.0340468
50
268.3622621
51
269.9995643
0
ARC
8
DEFAULT_255_2_778
10
25.465618
20
5.805934
40
1.0347791
50
270.0054519
51
286.9255043
0
ARC
8
DEFAULT_255_2_778
10
25.6932352
20
5.1206414
40
0.3134366
50
283.587574
51
0.120253
0
ARC
8
DEFAULT_255_2_778
10
25.6876437
20
5.1212902
40
0.3190274
50
0.0016306
51
1.4346006
0
ARC
8
DEFAULT_255_2_778
10
25.775891
20
5.1352069
40
0.2307564
50
358.5275364
51
0.0006023
0
ARC
8
DEFAULT_255_2_778
10
25.7763585
20
5.1350768
40
0.2302891
50
0.0329698
51
60.8387702
0
ARC
8
DEFAULT_255_2_778
10
25.2984977
20
4.2012976
40
1.2791164
50
62.5281091
51
80.233829
0
ARC
8
DEFAULT_255_2_778
10
25.5198775
20
7.3125811
40
1.8115837
50
240.7308585
51
260.5894963
0
ARC
8
DEFAULT_255_2_778
10
25.0125321
20
6.2644614
40
0.6529754
50
180.3340047
51
234.5887452
0
ARC
8
DEFAULT_255_2_778
10
24.991772
20
6.2606493
40
0.6322041
50
175.3249048
51
179.9994918
0
ARC
8
DEFAULT_255_2_778
10
25.134278
20
6.3293128
40
0.7727968
50
179.9994453
51
181.2705442
0
ARC
8
DEFAULT_255_2_778
10
25.1342265
20
6.3292148
40
0.7727453
50
130.8909158
51
179.9921818
0
ARC
8
DEFAULT_255_2_778
10
25.3289797
20
6.020292
40
1.1351007
50
89.9997436
51
128.1135084
0
ARC
8
DEFAULT_255_2_778
10
25.3289732
20
6.0192301
40
1.1361626
50
86.3414941
51
89.9994162
0
ARC
8
DEFAULT_255_2_778
10
25.4342964
20
5.9544918
40
1.1990349
50
89.9997713
51
91.5687426
0
ARC
8
DEFAULT_255_2_778
10
25.434237
20
5.9538734
40
1.1996532
50
54.20071
51
89.9969369
0
ARC
8
DEFAULT_255_2_778
10
25.6528423
20
6.2866343
40
0.8020752
50
0.0115471
51
52.9617041
0
ARC
8
DEFAULT_255_2_778
10
25.6524978
20
6.2867837
40
0.8024195
50
358.9069968
51
0.0008728
0
ARC
8
DEFAULT_255_2_778
10
25.5272182
20
6.2707365
40
0.3861537
50
0.1099217
51
63.9216573
0
ARC
8
DEFAULT_255_2_778
10
25.3863186
20
5.9428792
40
0.7427803
50
65.2771432
51
89.9949315
0
ARC
8
DEFAULT_255_2_778
10
25.3863938
20
5.9434203
40
0.7422393
50
90.0007344
51
91.8392565
0
ARC
8
DEFAULT_255_2_778
10
25.3298842
20
6.0494134
40
0.6367035
50
87.0572568
51
89.9997416
0
ARC
8
DEFAULT_255_2_778
10
25.3299622
20
6.0489934
40
0.6371235
50
90.006757
51
120.4610159
0
ARC
8
DEFAULT_255_2_778
10
25.1512082
20
6.3608099
40
0.2777545
50
121.2850779
51
180.0062148
0
ARC
8
DEFAULT_255_2_778
10
25.1531964
20
6.3607878
40
0.2797427
50
180.0016466
51
181.6613977
0
ARC
8
DEFAULT_255_2_778
10
25.1046446
20
6.3443722
40
0.2312226
50
177.9415846
51
180.0000273
0
ARC
8
DEFAULT_255_2_778
10
25.1037926
20
6.3444231
40
0.2303705
50
180.0126976
51
244.6255024
0
ARC
8
DEFAULT_255_2_778
10
25.6669665
20
7.620425
40
1.6250538
50
245.964244
51
259.2146975
0
ARC
8
DEFAULT_255_2_778
10
25.6297917
20
4.7348549
40
1.1987757
50
55.3383033
51
79.6108104
0
ARC
8
DEFAULT_255_2_778
10
25.8954236
20
5.210071
40
0.6588641
50
0.0127889
51
50.8307146
0
ARC
8
DEFAULT_255_2_778
10
25.895164
20
5.2102271
40
0.6591236
50
356.6644788
51
359.9992176
0
ARC
8
DEFAULT_255_2_778
10
25.7783525
20
5.157826
40
0.7749462
50
359.999733
51
1.0389393
0
ARC
8
DEFAULT_255_2_778
10
25.780765
20
5.1577136
40
0.7725337
50
309.2040416
51
0.0080692
0
ARC
8
DEFAULT_255_2_778
10
25.5372046
20
5.5147962
40
1.2037555
50
270.0031179
51
307.4440292
0
ARC
8
DEFAULT_255_2_778
10
25.5372725
20
5.5147629
40
1.2037221
50
266.2798562
51
269.9998847
0
ARC
8
DEFAULT_255_2_778
10
25.3832008
20
5.6301803
40
1.318793
50
270.0000991
51
273.3024124
0
ARC
8
DEFAULT_255_2_778
10
25.3831444
20
5.6290072
40
1.31762
50
234.7278979
51
270.0025517
0
ARC
8
DEFAULT_255_2_778
10
25.1105727
20
5.1798277
40
0.7943574
50
179.9898074
51
232.0689649
0
ARC
8
DEFAULT_255_2_778
10
25.1136726
20
5.1799616
40
0.7974573
50
177.5049551
51
179.9994673
0
LINE
8
DEFAULT_255_2_778
10
13.1147712
20
7.0741773
11
13.6946712
21
7.0741773
0
LINE
8
DEFAULT_255_2_778
10
13.6946712
20
7.0741773
11
12.7802712
21
4.3833773
0
LINE
8
DEFAULT_255_2_778
10
12.7802712
20
4.3833773
11
12.2511712
21
4.3833773
0
LINE
8
DEFAULT_255_2_778
10
12.2511712
20
4.3833773
11
11.3409712
21
7.0741773
0
LINE
8
DEFAULT_255_2_778
10
11.3409712
20
7.0741773
11
11.9344712
21
7.0741773
0
LINE
8
DEFAULT_255_2_778
10
11.9344712
20
7.0741773
11
12.5143712
21
5.0310773
0
LINE
8
DEFAULT_255_2_778
10
12.5143712
20
5.0310773
11
13.1147712
21
7.0741773
0
LINE
8
DEFAULT_255_2_778
10
14.8609712
20
7.0741773
11
15.4970712
21
7.0741773
0
LINE
8
DEFAULT_255_2_778
10
15.4970712
20
7.0741773
11
16.4500712
21
4.3815773
0
LINE
8
DEFAULT_255_2_778
10
16.4500712
20
4.3815773
11
15.8415712
21
4.3815773
0
LINE
8
DEFAULT_255_2_778
10
15.8415712
20
4.3815773
11
15.6637712
21
4.9363773
0
LINE
8
DEFAULT_255_2_778
10
15.6637712
20
4.9363773
11
14.6720712
21
4.9363773
0
LINE
8
DEFAULT_255_2_778
10
14.6720712
20
4.9363773
11
14.4902712
21
4.3807773
0
LINE
8
DEFAULT_255_2_778
10
14.4902712
20
4.3807773
11
13.9103712
21
4.3807773
0
LINE
8
DEFAULT_255_2_778
10
14.8284712
20
5.3975773
11
15.5184712
21
5.3975773
0
LINE
8
DEFAULT_255_2_778
10
15.5184712
20
5.3975773
11
15.1745712
21
6.4566773
0
LINE
8
DEFAULT_255_2_778
10
19.1273712
20
5.0218773
11
19.1273712
21
4.8400773
0
LINE
8
DEFAULT_255_2_778
10
19.2472712
20
4.4381773
11
19.2472712
21
4.3704773
0
LINE
8
DEFAULT_255_2_778
10
19.2472712
20
4.3704773
11
18.6228712
21
4.3704773
0
LINE
8
DEFAULT_255_2_778
10
18.6228712
20
4.3704773
11
18.5857712
21
4.5154773
0
LINE
8
DEFAULT_255_2_778
10
18.5624712
20
4.7474773
11
18.5624712
21
4.9966773
0
LINE
8
DEFAULT_255_2_778
10
18.1526712
20
5.4253773
11
17.5970712
21
5.4253773
0
LINE
8
DEFAULT_255_2_778
10
17.5970712
20
5.4253773
11
17.5970712
21
4.3669773
0
LINE
8
DEFAULT_255_2_778
10
17.5970712
20
4.3669773
11
17.0490712
21
4.3669773
0
LINE
8
DEFAULT_255_2_778
10
17.0490712
20
4.3669773
11
17.0490712
21
7.0736773
0
LINE
8
DEFAULT_255_2_778
10
17.0490712
20
7.0736773
11
18.3365712
21
7.0736773
0
LINE
8
DEFAULT_255_2_778
10
18.7617712
20
7.0059773
11
18.7643712
21
7.0069773
0
LINE
8
DEFAULT_255_2_778
10
17.6046712
20
6.6085773
11
17.6046712
21
5.8835773
0
LINE
8
DEFAULT_255_2_778
10
17.6046712
20
5.8835773
11
18.2097712
21
5.8835773
0
LINE
8
DEFAULT_255_2_778
10
18.2254712
20
6.6085773
11
17.6009712
21
6.6085773
0
LINE
8
DEFAULT_255_2_778
10
17.6009712
20
6.6085773
11
17.6046712
21
6.6085773
0
LINE
8
DEFAULT_255_2_778
10
20.0303712
20
7.0741773
11
20.6198712
21
7.0741773
0
LINE
8
DEFAULT_255_2_778
10
20.6198712
20
7.0741773
11
21.6888712
21
5.1972773
0
LINE
8
DEFAULT_255_2_778
10
21.6888712
20
5.1972773
11
21.6888712
21
7.0741773
0
LINE
8
DEFAULT_255_2_778
10
21.6888712
20
7.0741773
11
22.2126712
21
7.0741773
0
LINE
8
DEFAULT_255_2_778
10
22.2126712
20
7.0741773
11
22.2126712
21
4.3833773
0
LINE
8
DEFAULT_255_2_778
10
22.2126712
20
4.3833773
11
21.6528712
21
4.3833773
0
LINE
8
DEFAULT_255_2_778
10
21.6528712
20
4.3833773
11
20.5569712
21
6.2931773
0
LINE
8
DEFAULT_255_2_778
10
20.5569712
20
6.2931773
11
20.5569712
21
4.3833773
0
LINE
8
DEFAULT_255_2_778
10
20.5569712
20
4.3833773
11
20.0330712
21
4.3833773
0
LINE
8
DEFAULT_255_2_778
10
20.0330712
20
4.3833773
11
20.0303712
21
7.0741773
0
LINE
8
DEFAULT_255_2_778
10
23.5890712
20
4.3833773
11
23.0334712
21
4.3833773
0
LINE
8
DEFAULT_255_2_778
10
23.0334712
20
4.3833773
11
23.0334712
21
7.0741773
0
LINE
8
DEFAULT_255_2_778
10
23.0334712
20
7.0741773
11
23.5890712
21
7.0741773
0
LINE
8
DEFAULT_255_2_778
10
23.5890712
20
7.0741773
11
23.5890712
21
4.3833773
0
LINE
8
DEFAULT_255_2_778
10
25.5154712
20
5.4618773
11
25.2236712
21
5.5253773
0
LINE
8
DEFAULT_255_2_778
10
26.4547712
20
6.2714773
11
25.9133712
21
6.2714773
0
LINE
8
DEFAULT_255_2_778
10
25.3628712
20
6.0240773
11
25.8459712
21
5.9139773
0
LINE
8
DEFAULT_255_2_778
10
24.3169712
20
5.2146773
11
24.8542712
21
5.2141773
0
LINE
8
DEFAULT_255_2_778
10
27.2789712
20
4.3833773
11
27.2789712
21
7.0741773
0
LINE
8
DEFAULT_255_2_778
10
27.2789712
20
7.0741773
11
27.8345712
21
7.0741773
0
LINE
8
DEFAULT_255_2_778
10
27.8345712
20
7.0741773
11
27.8345712
21
6.0475773
0
LINE
8
DEFAULT_255_2_778
10
27.8345712
20
6.0475773
11
28.8801712
21
6.0475773
0
LINE
8
DEFAULT_255_2_778
10
28.8801712
20
6.0475773
11
28.8801712
21
7.0741773
0
LINE
8
DEFAULT_255_2_778
10
28.8801712
20
7.0741773
11
29.4358712
21
7.0741773
0
LINE
8
DEFAULT_255_2_778
10
29.4358712
20
7.0741773
11
29.4358712
21
4.3833773
0
LINE
8
DEFAULT_255_2_778
10
29.4358712
20
4.3833773
11
28.8801712
21
4.3833773
0
LINE
8
DEFAULT_255_2_778
10
28.8801712
20
4.3833773
11
28.8801712
21
5.5840773
0
LINE
8
DEFAULT_255_2_778
10
28.8801712
20
5.5840773
11
27.8363712
21
5.5840773
0
LINE
8
DEFAULT_255_2_778
10
27.8363712
20
5.5840773
11
27.8363712
21
4.3817773
0
LINE
8
DEFAULT_255_2_778
10
27.8363712
20
4.3817773
11
27.2754712
21
4.3817773
0
ARC
8
DEFAULT_255_2_778
10
13.1476811
20
2.7456475
40
0.7252529
50
7.4770482
51
53.1266941
0
ARC
8
DEFAULT_255_2_778
10
12.9808247
20
2.7042331
40
0.5766586
50
13.6198528
51
53.0745045
0
ARC
8
DEFAULT_255_2_778
10
12.9220099
20
2.5446612
40
0.7411692
50
56.8535221
51
89.9997333
0
ARC
8
DEFAULT_255_2_778
10
12.9220143
20
2.5441462
40
0.7416844
50
90.0000742
51
93.6523415
0
ARC
8
DEFAULT_255_2_778
10
12.8426103
20
2.509255
40
0.7757357
50
87.6242015
51
89.9997928
0
ARC
8
DEFAULT_255_2_778
10
12.8426995
20
2.5095534
40
0.7754375
50
90.0063832
51
134.5643366
0
ARC
8
DEFAULT_255_2_778
10
13.0109331
20
2.4583799
40
0.9337297
50
139.7227423
51
179.9975236
0
ARC
8
DEFAULT_255_2_778
10
13.01157
20
2.4584285
40
0.9343665
50
180.0005044
51
184.641175
0
ARC
8
DEFAULT_255_2_778
10
12.9924953
20
2.3422157
40
0.9131314
50
177.4511353
51
180.0002719
0
ARC
8
DEFAULT_255_2_778
10
12.9922966
20
2.3421873
40
0.9129326
50
179.9984865
51
218.5039605
0
ARC
8
DEFAULT_255_2_778
10
12.815007
20
2.2655391
40
0.7282189
50
222.4719999
51
270.0194957
0
ARC
8
DEFAULT_255_2_778
10
12.8152433
20
2.2683915
40
0.7310714
50
270.0008985
51
274.0256967
0
ARC
8
DEFAULT_255_2_778
10
12.9031398
20
2.1899272
40
0.65183
50
266.7836015
51
269.9993215
0
ARC
8
DEFAULT_255_2_778
10
12.9030225
20
2.1889245
40
0.6508273
50
270.0096432
51
321.7413448
0
ARC
8
DEFAULT_255_2_778
10
12.6970644
20
2.2996835
40
0.8820669
50
324.3769838
51
348.7449154
0
ARC
8
DEFAULT_255_2_778
10
12.9799534
20
2.2314592
40
0.913645
50
313.0608754
51
353.4679555
0
ARC
8
DEFAULT_255_2_778
10
12.8804232
20
2.3695806
40
1.0827323
50
270.0011844
51
311.9185069
0
ARC
8
DEFAULT_255_2_778
10
12.8804464
20
2.3701333
40
1.0832851
50
267.1120488
51
269.9999549
0
ARC
8
DEFAULT_255_2_778
10
12.7891407
20
2.4119692
40
1.1243452
50
269.9999482
51
271.8718989
0
ARC
8
DEFAULT_255_2_778
10
12.7892588
20
2.4126255
40
1.1250016
50
232.9522444
51
269.99393
0
ARC
8
DEFAULT_255_2_778
10
12.8261228
20
2.3466239
40
1.0967177
50
180.0286764
51
229.3353033
0
ARC
8
DEFAULT_255_2_778
10
12.826528
20
2.3460438
40
1.0971228
50
175.2537006
51
179.9983746
0
ARC
8
DEFAULT_255_2_778
10
12.8226785
20
2.4773109
40
1.0902631
50
180.000604
51
182.1281684
0
ARC
8
DEFAULT_255_2_778
10
12.8182585
20
2.4778198
40
1.0858433
50
137.5487176
51
180.0274609
0
ARC
8
DEFAULT_255_2_778
10
12.8050559
20
2.4384081
40
1.1033575
50
90.0080024
51
135.5754916
0
ARC
8
DEFAULT_255_2_778
10
12.8048919
20
2.4378955
40
1.1038699
50
86.8750743
51
89.9994875
0
ARC
8
DEFAULT_255_2_778
10
12.9337513
20
2.4655458
40
1.076771
50
90.000299
51
93.6572081
0
ARC
8
DEFAULT_255_2_778
10
12.9336977
20
2.4655705
40
1.0767463
50
53.0288034
51
89.9974416
0
LINE
8
DEFAULT_255_2_778
10
13.8667674
20
2.840024
11
13.5412674
21
2.840024
0
LINE
8
DEFAULT_255_2_778
10
13.5621674
20
2.127524
11
13.8876674
21
2.127524
0
LINE
8
DEFAULT_255_2_778
10
13.5812674
20
3.325824
11
13.5828674
21
3.325824
0
LINE
8
DEFAULT_255_2_778
10
15.3377833
20
3.4822236
11
15.7123833
21
3.4822236
0
LINE
8
DEFAULT_255_2_778
10
15.7123833
20
3.4822236
11
16.6055833
21
1.3460236
0
LINE
8
DEFAULT_255_2_778
10
16.6055833
20
1.3460236
11
16.2431833
21
1.3460236
0
LINE
8
DEFAULT_255_2_778
10
16.2431833
20
1.3460236
11
15.9877833
21
1.9810236
0
LINE
8
DEFAULT_255_2_778
10
15.9877833
20
1.9810236
11
15.0246833
21
1.9810236
0
LINE
8
DEFAULT_255_2_778
10
15.0246833
20
1.9810236
11
14.7601833
21
1.3460236
0
LINE
8
DEFAULT_255_2_778
10
14.7601833
20
1.3460236
11
14.4161833
21
1.3460236
0
LINE
8
DEFAULT_255_2_778
10
15.8898833
20
2.2228236
11
15.5115833
21
3.1652236
0
LINE
8
DEFAULT_255_2_778
10
15.5115833
20
3.1652236
11
15.0998833
21
2.2228236
0
LINE
8
DEFAULT_255_2_778
10
15.0998833
20
2.2228236
11
15.8671833
21
2.2228236
0
ARC
8
DEFAULT_255_2_778
10
18.5146812
20
2.7456475
40
0.7252529
50
7.4770482
51
53.1266941
0
ARC
8
DEFAULT_255_2_778
10
18.3478248
20
2.7042331
40
0.5766586
50
13.6198528
51
53.0745045
0
ARC
8
DEFAULT_255_2_778
10
18.28901
20
2.5446612
40
0.7411692
50
56.8535221
51
89.9997333
0
ARC
8
DEFAULT_255_2_778
10
18.2890144
20
2.5441462
40
0.7416844
50
90.0000742
51
93.6523415
0
ARC
8
DEFAULT_255_2_778
10
18.2096104
20
2.509255
40
0.7757357
50
87.6242015
51
89.9997928
0
ARC
8
DEFAULT_255_2_778
10
18.2096996
20
2.5095534
40
0.7754375
50
90.0063832
51
134.5643366
0
ARC
8
DEFAULT_255_2_778
10
18.3779332
20
2.4583799
40
0.9337297
50
139.7227423
51
179.9975236
0
ARC
8
DEFAULT_255_2_778
10
18.3785701
20
2.4584285
40
0.9343665
50
180.0005044
51
184.641175
0
ARC
8
DEFAULT_255_2_778
10
18.3594954
20
2.3422157
40
0.9131314
50
177.4511353
51
180.0002719
0
ARC
8
DEFAULT_255_2_778
10
18.3592967
20
2.3421873
40
0.9129326
50
179.9984865
51
218.5039605
0
ARC
8
DEFAULT_255_2_778
10
18.182026
20
2.2655819
40
0.7282617
50
222.4734782
51
270.0241855
0
ARC
8
DEFAULT_255_2_778
10
18.1823212
20
2.2690256
40
0.7317055
50
270.0009582
51
274.0239466
0
ARC
8
DEFAULT_255_2_778
10
18.2702231
20
2.1893312
40
0.651234
50
266.7821284
51
269.9993555
0
ARC
8
DEFAULT_255_2_778
10
18.2700424
20
2.1888838
40
0.6507866
50
270.0152701
51
321.7430805
0
ARC
8
DEFAULT_255_2_778
10
18.0640645
20
2.2996835
40
0.8820669
50
324.3769838
51
348.7449154
0
ARC
8
DEFAULT_255_2_778
10
18.3469535
20
2.2314592
40
0.913645
50
313.0608754
51
353.4679555
0
ARC
8
DEFAULT_255_2_778
10
18.2474233
20
2.3695806
40
1.0827323
50
270.0011844
51
311.9185069
0
ARC
8
DEFAULT_255_2_778
10
18.2474465
20
2.3701333
40
1.0832851
50
267.1120488
51
269.9999549
0
ARC
8
DEFAULT_255_2_778
10
18.156141
20
2.4119493
40
1.1243254
50
269.9999675
51
271.8719182
0
ARC
8
DEFAULT_255_2_778
10
18.1563353
20
2.4128535
40
1.1252297
50
232.9561333
51
269.990073
0
ARC
8
DEFAULT_255_2_778
10
18.1931229
20
2.3466239
40
1.0967177
50
180.0286764
51
229.3353033
0
ARC
8
DEFAULT_255_2_778
10
18.1935281
20
2.3460438
40
1.0971228
50
175.2537006
51
179.9983746
0
ARC
8
DEFAULT_255_2_778
10
18.1884466
20
2.4772718
40
1.0890306
50
180.0003204
51
182.1285192
0
ARC
8
DEFAULT_255_2_778
10
18.185757
20
2.4776274
40
1.0863409
50
137.5589713
51
180.0190775
0
ARC
8
DEFAULT_255_2_778
10
18.172056
20
2.4384081
40
1.1033575
50
90.0080024
51
135.5754916
0
ARC
8
DEFAULT_255_2_778
10
18.171892
20
2.4378955
40
1.1038699
50
86.8750743
51
89.9994875
0
ARC
8
DEFAULT_255_2_778
10
18.3007514
20
2.4655458
40
1.076771
50
90.000299
51
93.6572081
0
ARC
8
DEFAULT_255_2_778
10
18.3006977
20
2.4655705
40
1.0767463
50
53.0288034
51
89.9974416
0
LINE
8
DEFAULT_255_2_778
10
19.2337675
20
2.840024
11
18.9082675
21
2.840024
0
LINE
8
DEFAULT_255_2_778
10
18.9291675
20
2.127524
11
19.2546675
21
2.127524
0
LINE
8
DEFAULT_255_2_778
10
18.9482675
20
3.325824
11
18.9498675
21
3.325824
0
LINE
8
DEFAULT_255_2_778
10
19.997105
20
3.4821604
11
20.334705
21
3.4821604
0
LINE
8
DEFAULT_255_2_778
10
20.334705
20
3.4821604
11
20.334705
21
2.6010604
0
LINE
8
DEFAULT_255_2_778
10
20.334705
20
2.6010604
11
21.594105
21
2.6010604
0
LINE
8
DEFAULT_255_2_778
10
21.594105
20
2.6010604
11
21.594105
21
3.4821604
0
LINE
8
DEFAULT_255_2_778
10
21.594105
20
3.4821604
11
21.931705
21
3.4821604
0
LINE
8
DEFAULT_255_2_778
10
21.931705
20
3.4821604
11
21.931705
21
1.3459604
0
LINE
8
DEFAULT_255_2_778
10
21.931705
20
1.3459604
11
21.594105
21
1.3459604
0
LINE
8
DEFAULT_255_2_778
10
21.594105
20
1.3459604
11
21.594105
21
2.3460604
0
LINE
8
DEFAULT_255_2_778
10
21.594105
20
2.3460604
11
20.334705
21
2.3460604
0
LINE
8
DEFAULT_255_2_778
10
20.334705
20
2.3460604
11
20.334705
21
1.3459604
0
LINE
8
DEFAULT_255_2_778
10
20.334705
20
1.3459604
11
19.997105
21
1.3459604
0
LINE
8
DEFAULT_255_2_778
10
19.997105
20
1.3459604
11
19.997105
21
3.4821604
0
LINE
8
DEFAULT_255_2_778
10
22.779505
20
3.4821604
11
24.561705
21
3.4821604
0
LINE
8
DEFAULT_255_2_778
10
24.561705
20
3.4821604
11
24.561705
21
3.2186604
0
LINE
8
DEFAULT_255_2_778
10
24.561705
20
3.2186604
11
23.104605
21
3.2186604
0
LINE
8
DEFAULT_255_2_778
10
23.104605
20
3.2186604
11
23.104605
21
2.5558604
0
LINE
8
DEFAULT_255_2_778
10
23.104605
20
2.5558604
11
24.450605
21
2.5558604
0
LINE
8
DEFAULT_255_2_778
10
24.450605
20
2.5558604
11
24.450605
21
2.3089604
0
LINE
8
DEFAULT_255_2_778
10
24.450605
20
2.3089604
11
23.104605
21
2.3089604
0
LINE
8
DEFAULT_255_2_778
10
23.104605
20
2.3089604
11
23.104605
21
1.5845604
0
LINE
8
DEFAULT_255_2_778
10
23.104605
20
1.5845604
11
24.586305
21
1.5845604
0
LINE
8
DEFAULT_255_2_778
10
24.586305
20
1.5845604
11
24.586305
21
1.3292604
0
LINE
8
DEFAULT_255_2_778
10
24.586305
20
1.3292604
11
22.779205
21
1.3292604
0
LINE
8
DEFAULT_255_2_778
10
22.779205
20
1.3292604
11
22.779205
21
3.4818604
0
ARC
8
DEFAULT_255_2_778
10
7.7172303
20
7.3813339
40
2.3436535
50
180.0020397
51
180.1400521
0
ARC
8
DEFAULT_255_2_778
10
7.7045065
20
7.3811957
40
2.3309296
50
135.0002309
51
179.9986537
0
ARC
8
DEFAULT_255_2_778
10
7.7044932
20
7.3811824
40
2.3309296
50
90.0013463
51
134.9997691
0
ARC
8
DEFAULT_255_2_778
10
7.704355
20
7.3684586
40
2.3436534
50
89.8599479
51
89.9979603
0
ARC
8
DEFAULT_255_2_778
10
7.7158125
20
7.3684586
40
2.3436535
50
90.0020397
51
90.1400521
0
ARC
8
DEFAULT_255_2_778
10
7.7156743
20
7.3811824
40
2.3309296
50
45.0002309
51
89.9986537
0
ARC
8
DEFAULT_255_2_778
10
7.715661
20
7.3811957
40
2.3309296
50
0.0013463
51
44.9997691
0
ARC
8
DEFAULT_255_2_778
10
7.7029372
20
7.3813339
40
2.3436534
50
359.8599479
51
359.9979603
0
ARC
8
DEFAULT_255_2_778
10
7.7023173
20
7.3698756
40
2.3442734
50
0.0020356
51
0.1400336
0
ARC
8
DEFAULT_255_2_778
10
7.7154289
20
7.3700107
40
2.3311617
50
315.0025945
51
359.9987271
0
ARC
8
DEFAULT_255_2_778
10
7.7156743
20
7.3699279
40
2.3309296
50
270.0013463
51
314.9997691
0
ARC
8
DEFAULT_255_2_778
10
7.7158125
20
7.3826517
40
2.3436534
50
269.8599479
51
269.9979603
0
ARC
8
DEFAULT_255_2_778
10
7.704355
20
7.3826517
40
2.3436535
50
270.0020397
51
270.1400521
0
ARC
8
DEFAULT_255_2_778
10
7.7044932
20
7.3699279
40
2.3309296
50
225.0002309
51
269.9986537
0
ARC
8
DEFAULT_255_2_778
10
7.7047386
20
7.3700107
40
2.3311617
50
180.0012729
51
224.9974055
0
ARC
8
DEFAULT_255_2_778
10
7.7178502
20
7.3698756
40
2.3442732
50
179.8599664
51
179.9979644
0
ARC
8
DEFAULT_255_2_778
10
3.9338509
20
1.4766844
40
1.6106713
50
179.9969631
51
180.1308819
0
ARC
8
DEFAULT_255_2_778
10
4.0033524
20
1.4767506
40
1.6801728
50
135.0003405
51
179.9993471
0
ARC
8
DEFAULT_255_2_778
10
4.0033656
20
1.4763291
40
1.6804802
50
89.9982479
51
134.9904966
0
ARC
8
DEFAULT_255_2_778
10
4.0035022
20
1.5441153
40
1.612694
50
89.869203
51
90.0030302
0
ARC
8
DEFAULT_255_2_778
10
4.0096918
20
1.4799589
40
1.6768481
50
62.8892883
51
90.085698
0
ARC
8
DEFAULT_255_2_778
10
4.0057775
20
1.4719588
40
1.685753
50
8.7455144
51
62.894777
0
ARC
8
DEFAULT_255_2_778
10
3.9940375
20
1.4733604
40
1.6971464
50
359.981253
51
8.6384809
0
ARC
8
DEFAULT_255_2_778
10
4.0144532
20
1.4702985
40
1.6767325
50
332.8897162
51
0.0856535
0
ARC
8
DEFAULT_255_2_778
10
4.0064293
20
1.474238
40
1.6856701
50
278.743577
51
332.8948096
0
ARC
8
DEFAULT_255_2_778
10
4.0077415
20
1.4863229
40
1.6974179
50
269.9811728
51
278.6377906
0
ARC
8
DEFAULT_255_2_778
10
4.0031243
20
1.4362576
40
1.6473574
50
269.9972387
51
270.1411913
0
ARC
8
DEFAULT_255_2_778
10
4.0031954
20
1.4689672
40
1.6800672
50
225.0036276
51
269.9948649
0
ARC
8
DEFAULT_255_2_778
10
4.0033524
20
1.4689596
40
1.6801728
50
180.0006529
51
224.9996595
0
ARC
8
DEFAULT_255_2_778
10
3.9338509
20
1.4690258
40
1.6106713
50
179.8691181
51
180.0030369
0
ARC
8
DEFAULT_255_2_778
10
1.1204666
20
5.3179813
40
0.9094855
50
179.9949326
51
180.1370948
0
ARC
8
DEFAULT_255_2_778
10
1.1819329
20
5.3179212
40
0.9709518
50
134.9985485
51
179.9917048
0
ARC
8
DEFAULT_255_2_778
10
1.1819677
20
5.317956
40
0.9709518
50
90.0082952
51
135.0014515
0
ARC
8
DEFAULT_255_2_778
10
1.1819076
20
5.3794223
40
0.9094855
50
89.8629052
51
90.0050674
0
ARC
8
DEFAULT_255_2_778
10
1.1854481
20
5.3191039
40
0.9698022
50
47.0709455
51
90.0806056
0
ARC
8
DEFAULT_255_2_778
10
1.1868834
20
5.3169819
40
0.9703815
50
1.097827
51
47.2183356
0
ARC
8
DEFAULT_255_2_778
10
1.1665797
20
5.3158279
40
0.990704
50
359.9986813
51
1.1420518
0
ARC
8
DEFAULT_255_2_778
10
1.1875148
20
5.3144384
40
0.9697699
50
317.0261985
51
0.0807472
0
ARC
8
DEFAULT_255_2_778
10
1.185298
20
5.3131221
40
0.9704977
50
271.0946118
51
317.1722724
0
ARC
8
DEFAULT_255_2_778
10
1.1840865
20
5.3358606
40
0.9932554
50
269.9998422
51
271.1394261
0
ARC
8
DEFAULT_255_2_778
10
1.1826705
20
4.9767415
40
0.6341379
50
269.9574618
51
270.1276953
0
ARC
8
DEFAULT_255_2_778
10
1.182138
20
5.3139682
40
0.9713649
50
225.0087097
51
270.003637
0
ARC
8
DEFAULT_255_2_778
10
1.1821651
20
5.3136852
40
0.9711839
50
180.0081174
51
224.9957764
0
ARC
8
DEFAULT_255_2_778
10
1.1211393
20
5.3136281
40
0.9101582
50
179.8629538
51
180.0050655
0
LINE
8
DEFAULT_255_2_778
10
5.3735838
20
7.3756051
11
5.3735838
21
7.3756051
0
LINE
8
DEFAULT_255_2_778
10
2.3231838
20
1.4727051
11
2.3231838
21
1.4730051
0
LINE
8
DEFAULT_255_2_778
10
0.2109838
20
5.3158051
11
0.2109838
21
5.3158051
0
ENDSEC
0
EOF