0
SECTION
2
HEADER
9
$MEASUREMENT
70
1
0
ENDSEC
0
SECTION
2
TABLES
0
TABLE
2
LTYPE
0
LTYPE
72
65
70
64
2
CONTINUOUS
3
______
73
0
40
0
0
ENDTAB
0
TABLE
2
LAYER
0
LAYER
2
DEFAULT_255_2_778
70
0
62
255
6
CONTINUOUS
0
ENDTAB
0
ENDSEC
0
SECTION
2
ENTITIES
0
ARC
8
DEFAULT_255_2_778
10
6.3532135
20
8.1877964
40
0.7397115
50
28.2525749
51
92.0575474
0
ARC
8
DEFAULT_255_2_778
10
6.1610858
20
8.0937991
40
0.9534803
50
8.9948123
51
27.7630638
0
ARC
8
DEFAULT_255_2_778
10
5.793675
20
8.0273306
40
1.3267903
50
359.7797804
51
9.3492794
0
ARC
8
DEFAULT_255_2_778
10
3.621556
20
8.3429683
40
3.5135694
50
332.5468418
51
354.7624449
0
ARC
8
DEFAULT_255_2_778
10
5.2837719
20
8.3153198
40
1.3172564
50
182.0812271
51
185.1608015
0
ARC
8
DEFAULT_255_2_778
10
5.1092406
20
8.3084043
40
1.1425893
50
180.0185487
51
182.0525134
0
ARC
8
DEFAULT_255_2_778
10
4.7466159
20
8.3199221
40
0.780055
50
163.7366522
51
180.8731969
0
ARC
8
DEFAULT_255_2_778
10
4.4666921
20
8.3973728
40
0.4896589
50
106.2451632
51
163.263697
0
ARC
8
DEFAULT_255_2_778
10
4.655303
20
7.8895546
40
1.030704
50
95.087089
51
108.4147187
0
ARC
8
DEFAULT_255_2_778
10
4.7334493
20
7.1765051
40
1.7479351
50
89.8129574
51
95.5660787
0
ARC
8
DEFAULT_255_2_778
10
0.4971405
20
8.2775095
40
0.6470419
50
71.4864072
51
91.1056285
0
ARC
8
DEFAULT_255_2_778
10
0.544791
20
8.4637876
40
0.4554876
50
18.6251744
51
69.72956
0
ARC
8
DEFAULT_255_2_778
10
-0.0589402
20
8.2112845
40
1.1092172
50
8.6263948
51
21.0258378
0
ARC
8
DEFAULT_255_2_778
10
-0.9841416
20
8.0488499
40
2.0484321
50
5.1080634
51
9.2368725
0
ARC
8
DEFAULT_255_2_778
10
15.1909642
20
3.5034861
40
8.6229234
50
151.3056964
51
154.7758914
0
ARC
8
DEFAULT_255_2_778
10
12.8088209
20
4.8103562
40
5.9058467
50
146.9759997
51
151.3311638
0
ARC
8
DEFAULT_255_2_778
10
11.111625
20
5.9184906
40
3.8789254
50
141.0663776
51
147.0373206
0
ARC
8
DEFAULT_255_2_778
10
9.9735632
20
6.8434692
40
2.4123853
50
132.6231558
51
141.1693827
0
ARC
8
DEFAULT_255_2_778
10
9.3096062
20
7.5723955
40
1.4264191
50
119.4602286
51
132.8261755
0
ARC
8
DEFAULT_255_2_778
10
9.0182194
20
8.1064034
40
0.8181989
50
91.1958264
51
120.0852834
0
ARC
8
DEFAULT_255_2_778
10
9.004301
20
8.2126849
40
0.7117461
50
90.0036698
51
90.2541427
0
ARC
8
DEFAULT_255_2_778
10
8.5803912
20
0.6414693
40
0.755549
50
254.2414615
51
271.6430908
0
ARC
8
DEFAULT_255_2_778
10
8.4698193
20
0.2338093
40
0.333209
50
200.7903182
51
253.5024325
0
ARC
8
DEFAULT_255_2_778
10
8.8123737
20
0.3796607
40
0.7053826
50
187.1865733
51
201.9897213
0
ARC
8
DEFAULT_255_2_778
10
9.59982
20
0.4900132
40
1.5004881
50
179.6573644
51
187.6056714
0
ARC
8
DEFAULT_255_2_778
10
10.2862836
20
0.5027274
40
2.1869281
50
179.9999055
51
180.0980143
0
ARC
8
DEFAULT_255_2_778
10
26.3140238
20
-0.847554
40
18.2646493
50
166.005928
51
175.7603194
0
LINE
8
DEFAULT_255_2_778
10
8.5914554
20
3.569231
11
8.5914749
21
3.5689311
0
ARC
8
DEFAULT_255_2_778
10
9.8346116
20
3.637871
40
1.2450467
50
183.1741662
51
227.3890321
0
ARC
8
DEFAULT_255_2_778
10
9.5454203
20
3.3440999
40
0.8331701
50
228.3482153
51
269.8992601
0
ARC
8
DEFAULT_255_2_778
10
9.5413765
20
4.1609349
40
1.650006
50
270.0895521
51
282.5943524
0
ARC
8
DEFAULT_255_2_778
10
-53.7077839
20
17.1035366
40
65.2524653
50
346.8782206
51
347.1132547
0
ARC
8
DEFAULT_255_2_778
10
-34.8330552
20
12.7002834
40
45.8709274
50
346.5181843
51
346.8823593
0
ARC
8
DEFAULT_255_2_778
10
-21.8907422
20
9.5976641
40
32.5619185
50
346.0868025
51
346.5178229
0
ARC
8
DEFAULT_255_2_778
10
-13.8218815
20
7.599451
40
24.2493155
50
345.6137023
51
346.0854251
0
ARC
8
DEFAULT_255_2_778
10
-7.5418962
20
5.9850552
40
17.7651446
50
344.8441092
51
345.6248563
0
ARC
8
DEFAULT_255_2_778
10
-2.3975493
20
4.5898815
40
12.4349654
50
343.7883388
51
344.8518361
0
ARC
8
DEFAULT_255_2_778
10
1.2014738
20
3.5426543
40
8.686679
50
342.4485357
51
343.7935326
0
ARC
8
DEFAULT_255_2_778
10
3.7596684
20
2.7316032
40
6.0029953
50
340.5761712
51
342.4660844
0
ARC
8
DEFAULT_255_2_778
10
5.5926201
20
2.0838071
40
4.0589406
50
338.0375529
51
340.5955401
0
ARC
8
DEFAULT_255_2_778
10
6.9304091
20
1.5407142
40
2.6151221
50
333.922559
51
338.110922
0
ARC
8
DEFAULT_255_2_778
10
7.8433159
20
1.0913957
40
1.5976363
50
327.6752304
51
334.0042392
0
ARC
8
DEFAULT_255_2_778
10
8.3753755
20
0.752155
40
0.9666339
50
317.8543417
51
327.8036845
0
ARC
8
DEFAULT_255_2_778
10
8.6376587
20
0.5115507
40
0.6107212
50
299.3802545
51
318.0792438
0
ARC
8
DEFAULT_255_2_778
10
8.6411349
20
0.5383864
40
0.6326071
50
271.050363
51
297.9133211
0
ARC
8
DEFAULT_255_2_778
10
8.6054708
20
0.964078
40
1.0592473
50
269.9613018
51
272.5572224
0
ARC
8
DEFAULT_255_2_778
10
18.3275263
20
5.330522
40
1.0787607
50
271.0160512
51
317.1539113
0
ARC
8
DEFAULT_255_2_778
10
18.3271543
20
5.3313723
40
1.0796118
50
317.1342513
51
0.0035735
0
ARC
8
DEFAULT_255_2_778
10
18.3254
20
5.3314274
40
1.0813662
50
0.0006496
51
3.2233535
0
ARC
8
DEFAULT_255_2_778
10
18.5424214
20
5.4242006
40
0.8632262
50
357.8775601
51
359.9998865
0
ARC
8
DEFAULT_255_2_778
10
18.5433272
20
5.4241856
40
0.8623203
50
0.000887
51
44.5873561
0
ARC
8
DEFAULT_255_2_778
10
18.5432079
20
5.4247048
40
0.862041
50
44.5572108
51
89.9998543
0
ARC
8
DEFAULT_255_2_778
10
18.5432031
20
5.4242674
40
0.8624783
50
89.9995334
51
91.2787585
0
ARC
8
DEFAULT_255_2_778
10
18.5164027
20
4.7265688
40
1.5599805
50
89.7225993
51
101.4442703
0
ARC
8
DEFAULT_255_2_778
10
18.4989969
20
4.8818949
40
1.4043565
50
102.0056367
51
131.2915951
0
ARC
8
DEFAULT_255_2_778
10
19.0472693
20
4.2117509
40
2.2698788
50
130.5274565
51
138.7268057
0
ARC
8
DEFAULT_255_2_778
10
19.9384277
20
3.4190279
40
3.4625781
50
138.595483
51
143.1915091
0
ARC
8
DEFAULT_255_2_778
10
21.2676363
20
2.4175202
40
5.1268477
50
143.1304382
51
145.9283463
0
ARC
8
DEFAULT_255_2_778
10
23.3668632
20
0.9960973
40
7.6620392
50
145.9181037
51
147.9698596
0
ARC
8
DEFAULT_255_2_778
10
26.721272
20
-1.1097685
40
11.6226835
50
147.9391666
51
149.1223552
0
ARC
8
DEFAULT_255_2_778
10
32.6829386
20
-4.6734119
40
18.5682594
50
149.1254852
51
150.0139569
0
ARC
8
DEFAULT_255_2_778
10
45.4152031
20
-12.0310513
40
33.2735432
50
149.9978524
51
150.4368532
0
ARC
8
DEFAULT_255_2_778
10
81.4023294
20
-32.4485646
40
74.6492378
50
150.4337914
51
150.6402495
0
ARC
8
DEFAULT_255_2_778
10
9.994514
20
2.9231728
40
6.4643817
50
10.9521131
51
12.6855652
0
ARC
8
DEFAULT_255_2_778
10
10.9153828
20
3.1322644
40
5.520075
50
12.6672509
51
15.3042114
0
ARC
8
DEFAULT_255_2_778
10
11.5379288
20
3.299434
40
4.8754832
50
15.3403575
51
16.3536857
0
ARC
8
DEFAULT_255_2_778
10
13.1755144
20
3.8381871
40
3.1529517
50
15.3383954
51
32.0711251
0
ARC
8
DEFAULT_255_2_778
10
14.591182
20
4.7240519
40
1.482961
50
32.1100192
51
58.268072
0
ARC
8
DEFAULT_255_2_778
10
14.7965303
20
5.0116733
40
1.1305734
50
59.4529814
51
83.1799073
0
ARC
8
DEFAULT_255_2_778
10
14.7763445
20
4.8681492
40
1.2754827
50
83.0451826
51
90.0668919
0
ARC
8
DEFAULT_255_2_778
10
14.7885549
20
4.7270941
40
1.4166031
50
90.5540965
51
107.3941191
0
ARC
8
DEFAULT_255_2_778
10
15.0095
20
3.9906453
40
2.1854448
50
107.1499183
51
116.5660366
0
ARC
8
DEFAULT_255_2_778
10
15.5472453
20
2.9074224
40
3.3947975
50
116.5073233
51
123.2099839
0
ARC
8
DEFAULT_255_2_778
10
16.6286385
20
1.2468656
40
5.3764245
50
123.1595353
51
127.8230913
0
ARC
8
DEFAULT_255_2_778
10
18.8024498
20
-1.5569066
40
8.9241831
50
127.80875
51
131.0989088
0
ARC
8
DEFAULT_255_2_778
10
23.8957387
20
-7.4089673
40
16.6822864
50
131.0689049
51
132.9064786
0
ARC
8
DEFAULT_255_2_778
10
44.3091507
20
-29.3992201
40
46.6869275
50
132.8832634
51
133.5158596
0
ARC
8
DEFAULT_255_2_778
10
-27.1534031
20
45.7854065
40
57.041695
50
312.9112431
51
313.5708143
0
ARC
8
DEFAULT_255_2_778
10
-0.4412267
20
17.092565
40
17.839438
50
311.6557106
51
312.8203299
0
ARC
8
DEFAULT_255_2_778
10
4.1460994
20
11.9330665
40
10.9355274
50
309.8274127
51
311.6653798
0
ARC
8
DEFAULT_255_2_778
10
8.5335221
20
6.6077235
40
4.0359529
50
303.5247472
51
310.4140197
0
ARC
8
DEFAULT_255_2_778
10
8.798425
20
6.2100485
40
3.5581273
50
298.7095677
51
303.50541
0
ARC
8
DEFAULT_255_2_778
10
9.0989874
20
5.6503352
40
2.9228454
50
291.2197621
51
298.8126081
0
ARC
8
DEFAULT_255_2_778
10
9.3781391
20
4.9249978
40
2.1456498
50
282.2247362
51
291.2813962
0
ARC
8
DEFAULT_255_2_778
10
9.5175471
20
4.2691406
40
1.4751477
50
270.4120388
51
282.3268389
0
ARC
8
DEFAULT_255_2_778
10
9.5273635
20
3.4244039
40
0.6303734
50
213.9099041
51
270.0719809
0
ARC
8
DEFAULT_255_2_778
10
9.9120528
20
3.7226375
40
1.1164992
50
200.3812651
51
215.5982368
0
ARC
8
DEFAULT_255_2_778
10
10.5423456
20
3.9631834
40
1.7911168
50
190.1521694
51
200.5724783
0
ARC
8
DEFAULT_255_2_778
10
11.445491
20
4.1307304
40
2.70966
50
182.7018145
51
190.2733843
0
ARC
8
DEFAULT_255_2_778
10
12.2593227
20
4.1808293
40
3.5249679
50
179.9625881
51
182.8916763
0
ARC
8
DEFAULT_255_2_778
10
38.9456798
20
-3.0203625
40
31.0582427
50
166.2835277
51
166.5889799
0
ARC
8
DEFAULT_255_2_778
10
30.3858565
20
-0.9280482
40
22.246413
50
165.7669254
51
166.2911513
0
ARC
8
DEFAULT_255_2_778
10
23.8092185
20
0.7415257
40
15.4611613
50
165.0403422
51
165.7719134
0
ARC
8
DEFAULT_255_2_778
10
19.7483542
20
1.8252336
40
11.2581815
50
164.3043931
51
165.0337859
0
ARC
8
DEFAULT_255_2_778
10
16.8348285
20
2.6465579
40
8.2311043
50
163.1110023
51
164.3218851
0
ARC
8
DEFAULT_255_2_778
10
14.5572642
20
3.3384827
40
5.8507558
50
161.6142566
51
163.1149894
0
ARC
8
DEFAULT_255_2_778
10
13.4562105
20
3.7012239
40
4.6914937
50
160.9899618
51
161.5768657
0
ARC
8
DEFAULT_255_2_778
10
12.2217918
20
4.1361352
40
3.3827453
50
157.4457463
51
161.1440948
0
ARC
8
DEFAULT_255_2_778
10
10.8885292
20
4.6934565
40
1.9376927
50
151.5659385
51
157.5436758
0
ARC
8
DEFAULT_255_2_778
10
10.1406386
20
5.1022231
40
1.0853956
50
141.6167689
51
151.7427479
0
ARC
8
DEFAULT_255_2_778
10
9.783565
20
5.3898164
40
0.6269336
50
121.4925079
51
141.9570791
0
ARC
8
DEFAULT_255_2_778
10
9.7650761
20
5.3878646
40
0.6191673
50
92.3616881
51
119.9390581
0
ARC
8
DEFAULT_255_2_778
10
9.8072194
20
4.97935
40
1.0293818
50
89.925639
51
93.7685727
0
ARC
8
DEFAULT_255_2_778
10
9.8214924
20
5.34173
40
0.6671265
50
71.9372017
51
91.1111527
0
ARC
8
DEFAULT_255_2_778
10
9.8902445
20
5.5797249
40
0.419628
50
13.5907799
51
70.786272
0
ARC
8
DEFAULT_255_2_778
10
9.3624117
20
5.408614
40
0.9738081
50
2.4422025
51
16.0795611
0
ARC
8
DEFAULT_255_2_778
10
8.7449174
20
5.3623147
40
1.5928391
50
359.9358378
51
3.1596541
0
ARC
8
DEFAULT_255_2_778
10
-2.0790066
20
5.9204388
40
12.4293795
50
347.0893718
51
357.4181161
0
ARC
8
DEFAULT_255_2_778
10
9.5417453
20
4.6541211
40
1.5896315
50
288.1208227
51
295.6036259
0
ARC
8
DEFAULT_255_2_778
10
9.0740821
20
5.6399649
40
2.6807711
50
295.5120607
51
300.9241666
0
ARC
8
DEFAULT_255_2_778
10
8.2920968
20
6.9513882
40
4.2076391
50
300.8816827
51
305.1770053
0
ARC
8
DEFAULT_255_2_778
10
7.1691
20
8.5497084
40
6.161032
50
305.1501446
51
308.7828058
0
ARC
8
DEFAULT_255_2_778
10
5.9072449
20
10.128342
40
8.1820076
50
308.7466739
51
311.6868762
0
ARC
8
DEFAULT_255_2_778
10
4.8057398
20
11.3677414
40
9.8401457
50
311.6770912
51
314.8914105
0
ARC
8
DEFAULT_255_2_778
10
4.4384011
20
11.7439693
40
10.365939
50
314.8621758
51
317.2655707
0
ARC
8
DEFAULT_255_2_778
10
9.9300093
20
3.8573239
40
2.2869971
50
21.8806967
51
50.515042
0
ARC
8
DEFAULT_255_2_778
10
9.9268431
20
3.8555336
40
2.2903925
50
50.482391
51
88.6849747
0
ARC
8
DEFAULT_255_2_778
10
9.9271058
20
3.8485308
40
2.2973874
50
88.6955315
51
90.0004863
0
ARC
8
DEFAULT_255_2_778
10
9.9271234
20
3.8404864
40
2.3054318
50
90.0009237
51
92.5524023
0
ARC
8
DEFAULT_255_2_778
10
9.8707998
20
2.4011311
40
3.7427868
50
90.7094721
51
130.9449532
0
ARC
8
DEFAULT_255_2_778
10
9.9737653
20
2.1626947
40
3.9911358
50
129.8182206
51
175.259382
0
ARC
8
DEFAULT_255_2_778
10
9.5584023
20
2.2488268
40
3.5704469
50
176.0859993
51
179.9967238
0
ARC
8
DEFAULT_255_2_778
10
8.7545042
20
2.2391301
40
2.7665665
50
179.7949527
51
194.7265156
0
ARC
8
DEFAULT_255_2_778
10
8.3156552
20
2.1065256
40
2.3084852
50
194.3122544
51
240.3464866
0
ARC
8
DEFAULT_255_2_778
10
8.4316584
20
2.3232851
40
2.5542575
50
240.4907654
51
256.0045923
0
ARC
8
DEFAULT_255_2_778
10
8.5458766
20
2.7728998
40
3.0181494
50
255.9648974
51
267.423018
0
ARC
8
DEFAULT_255_2_778
10
8.5722646
20
3.1488237
40
3.3948928
50
267.263376
51
270.0116596
0
ARC
8
DEFAULT_255_2_778
10
8.5790837
20
3.9612691
40
4.2073426
50
269.9165444
51
277.1183878
0
ARC
8
DEFAULT_255_2_778
10
8.6399948
20
3.4749941
40
3.7172676
50
277.1155768
51
285.7386841
0
ARC
8
DEFAULT_255_2_778
10
8.723243
20
3.1769034
40
3.4077715
50
285.7509578
51
296.2790239
0
ARC
8
DEFAULT_255_2_778
10
8.7534697
20
3.1083688
40
3.3329389
50
296.3347308
51
309.597463
0
ARC
8
DEFAULT_255_2_778
10
8.5688735
20
3.3177374
40
3.6119364
50
309.7368921
51
326.0302355
0
ARC
8
DEFAULT_255_2_778
10
8.1477608
20
3.6061633
40
4.1223403
50
325.9760017
51
339.359445
0
ARC
8
DEFAULT_255_2_778
10
7.9738321
20
3.6796131
40
4.3110022
50
339.2607693
51
342.73521
0
ARC
8
DEFAULT_255_2_778
10
8.0003484
20
3.6720368
40
4.2834324
50
342.7267185
51
347.8453266
0
ARC
8
DEFAULT_255_2_778
10
8.1593612
20
3.6382551
40
4.1208714
50
347.8389877
51
352.2405917
0
ARC
8
DEFAULT_255_2_778
10
8.4305123
20
3.6017651
40
3.8472765
50
352.2338414
51
356.4895917
0
ARC
8
DEFAULT_255_2_778
10
8.7546225
20
3.5814934
40
3.5225332
50
356.49591
51
359.9729596
0
ARC
8
DEFAULT_255_2_778
10
7.5155548
20
3.6061252
40
4.7616732
50
359.6836074
51
359.9995508
0
ARC
8
DEFAULT_255_2_778
10
7.5784745
20
3.6070033
40
4.6987536
50
359.9888375
51
6.9446407
0
ARC
8
DEFAULT_255_2_778
10
15.3758641
20
1.3155378
40
4.2418915
50
127.1594686
51
137.6132481
0
ARC
8
DEFAULT_255_2_778
10
14.3389369
20
2.6416191
40
2.5588463
50
122.0164218
51
126.5910193
0
ARC
8
DEFAULT_255_2_778
10
13.9312446
20
3.3045466
40
1.780619
50
113.7318785
51
122.2023575
0
ARC
8
DEFAULT_255_2_778
10
13.6681784
20
3.9076548
40
1.1226391
50
102.076103
51
113.8290637
0
ARC
8
DEFAULT_255_2_778
10
13.5906941
20
4.2580135
40
0.7638272
50
90.2879485
51
101.8907652
0
ARC
8
DEFAULT_255_2_778
10
13.5753906
20
4.6713523
40
0.3506662
50
47.9589827
51
88.1264148
0
ARC
8
DEFAULT_255_2_778
10
13.2697656
20
4.2974807
40
0.8333215
50
34.775442
51
49.5674344
0
ARC
8
DEFAULT_255_2_778
10
12.5093934
20
3.7545461
40
1.767598
50
26.8585858
51
35.1733669
0
ARC
8
DEFAULT_255_2_778
10
11.1238014
20
3.0408644
40
3.3261698
50
21.9596577
51
27.0428357
0
ARC
8
DEFAULT_255_2_778
10
8.9194255
20
2.1445433
40
5.7057993
50
18.5316725
51
22.0295097
0
ARC
8
DEFAULT_255_2_778
10
5.511473
20
0.9966578
40
9.3018758
50
15.9934732
51
18.5638252
0
ARC
8
DEFAULT_255_2_778
10
0.5220419
20
-0.4411525
40
14.4943399
50
14.2178662
51
16.0228432
0
ARC
8
DEFAULT_255_2_778
10
-6.8608382
20
-2.3141493
40
22.1110998
50
12.7880629
51
14.2238727
0
ARC
8
DEFAULT_255_2_778
10
-18.0971563
20
-4.8715964
40
33.6347862
50
11.7706722
51
12.7998241
0
ARC
8
DEFAULT_255_2_778
10
16.438009
20
0.5438596
40
2.1621966
50
138.0328166
51
142.8509791
0
ARC
8
DEFAULT_255_2_778
10
18.0798087
20
-0.692349
40
4.2173605
50
142.93419
51
146.9985398
0
ARC
8
DEFAULT_255_2_778
10
21.1217959
20
-2.7022887
40
7.8633307
50
146.7886943
51
147.8064995
0
ARC
8
DEFAULT_255_2_778
10
22.3492633
20
-3.4822755
40
9.3176428
50
147.7690124
51
147.7957583
0
ARC
8
DEFAULT_255_2_778
10
26.1884701
20
-5.900099
40
13.8547541
50
147.7966369
51
147.8145486
0
ARC
8
DEFAULT_255_2_778
10
22.2122424
20
-3.3968296
40
9.1561644
50
147.8183353
51
147.8453244
0
ARC
8
DEFAULT_255_2_778
10
22.1446784
20
-3.3548899
40
9.0766433
50
147.8424756
51
147.869586
0
ARC
8
DEFAULT_255_2_778
10
24.0937847
20
-4.5793186
40
11.3784341
50
147.8682455
51
147.8897798
0
ARC
8
DEFAULT_255_2_778
10
30.9668216
20
-8.890345
40
19.4916077
50
147.8950835
51
147.9076008
0
ARC
8
DEFAULT_255_2_778
10
23.9216494
20
-4.4716385
40
11.1753936
50
147.9101222
51
147.9318608
0
ARC
8
DEFAULT_255_2_778
10
23.8359699
20
-4.4172259
40
11.073898
50
147.9350718
51
147.9569154
0
ARC
8
DEFAULT_255_2_778
10
23.0908334
20
-3.951572
40
10.1952279
50
147.9533971
51
147.9888292
0
ARC
8
DEFAULT_255_2_778
10
24.7685152
20
-5.0010472
40
12.1741201
50
147.9860823
51
148.0155621
0
ARC
8
DEFAULT_255_2_778
10
26.168014
20
-5.874488
40
13.8238157
50
148.0174416
51
148.0432337
0
ARC
8
DEFAULT_255_2_778
10
24.4878737
20
-4.8258809
40
11.8432986
50
148.0452897
51
148.0751972
0
ARC
8
DEFAULT_255_2_778
10
25.8442814
20
-5.6712356
40
13.4415685
50
148.0742915
51
148.1004688
0
ARC
8
DEFAULT_255_2_778
10
25.6846765
20
-5.5718291
40
13.2535383
50
148.1007002
51
148.1270728
0
ARC
8
DEFAULT_255_2_778
10
27.4906271
20
-6.694695
40
15.3801048
50
148.1272492
51
148.1498238
0
ARC
8
DEFAULT_255_2_778
10
27.30439
20
-6.5785873
40
15.1606392
50
148.1511397
51
148.1738877
0
ARC
8
DEFAULT_255_2_778
10
29.8373482
20
-8.1490102
40
18.1409248
50
148.178386
51
148.1972689
0
ARC
8
DEFAULT_255_2_778
10
24.1682336
20
-4.633696
40
11.4703704
50
148.1970148
51
148.2266771
0
ARC
8
DEFAULT_255_2_778
10
26.7578967
20
-6.2396084
40
14.5175508
50
148.2202281
51
148.2435053
0
ARC
8
DEFAULT_255_2_778
10
29.1692539
20
-7.731581
40
17.3531503
50
148.2451859
51
148.2645266
0
ARC
8
DEFAULT_255_2_778
10
28.9530354
20
-7.5980309
40
17.0990125
50
148.2640303
51
148.2835241
0
ARC
8
DEFAULT_255_2_778
10
28.7382833
20
-7.4647253
40
16.8462504
50
148.2852214
51
148.3048716
0
ARC
8
DEFAULT_255_2_778
10
32.3257293
20
-9.6801769
40
21.0626463
50
148.3043597
51
148.3199677
0
ARC
8
DEFAULT_255_2_778
10
28.3197509
20
-7.208106
40
16.3553118
50
148.3195397
51
148.3395005
0
ARC
8
DEFAULT_255_2_778
10
28.1130423
20
-7.0810918
40
16.112699
50
148.3381237
51
148.358244
0
ARC
8
DEFAULT_255_2_778
10
27.9106127
20
-6.9578971
40
15.8757328
50
148.3534993
51
148.3737773
0
ARC
8
DEFAULT_255_2_778
10
31.2658082
20
-9.0247354
40
19.816438
50
148.3723226
51
148.3884541
0
ARC
8
DEFAULT_255_2_778
10
-44.2772715
20
37.2267125
40
68.7610183
50
328.3266949
51
328.5615679
0
ARC
8
DEFAULT_255_2_778
10
9.8040477
20
3.8608832
40
5.2152266
50
326.2922875
51
328.3203781
0
ARC
8
DEFAULT_255_2_778
10
12.7406721
20
1.8968677
40
1.6823714
50
321.8609685
51
326.4327901
0
ARC
8
DEFAULT_255_2_778
10
13.6596203
20
1.1697811
40
0.5105957
50
312.0733266
51
322.3488394
0
ARC
8
DEFAULT_255_2_778
10
13.8630793
20
0.9510537
40
0.2119499
50
306.4339358
51
310.8675716
0
ARC
8
DEFAULT_255_2_778
10
12.5460329
20
0.6438583
40
1.4493809
50
5.4108768
51
21.7283355
0
ARC
8
DEFAULT_255_2_778
10
12.8762991
20
0.7796929
40
1.0923004
50
21.5228784
51
47.6121571
0
ARC
8
DEFAULT_255_2_778
10
12.9508194
20
0.8427351
40
0.995579
50
48.3339058
51
88.3130185
0
ARC
8
DEFAULT_255_2_778
10
12.9307847
20
0.6772221
40
1.1617089
50
87.5656264
51
90.0063771
0
ARC
8
DEFAULT_255_2_778
10
12.9898705
20
0.6953748
40
1.1450882
50
92.9642164
51
133.1006023
0
ARC
8
DEFAULT_255_2_778
10
12.9885382
20
0.6934807
40
1.1455632
50
132.9872175
51
177.1675582
0
ARC
8
DEFAULT_255_2_778
10
13.0088251
20
0.6919522
40
1.1659008
50
177.1417997
51
178.6347408
0
ARC
8
DEFAULT_255_2_778
10
12.7495399
20
0.6636773
40
0.9080163
50
176.4607681
51
179.9996621
0
ARC
8
DEFAULT_255_2_778
10
12.7487109
20
0.6637227
40
0.9071872
50
180.0025279
51
223.9654705
0
ARC
8
DEFAULT_255_2_778
10
12.7491281
20
0.6640757
40
0.9077325
50
223.9632211
51
269.9974045
0
ARC
8
DEFAULT_255_2_778
10
12.7490963
20
0.6643039
40
0.9079606
50
269.9994172
51
271.4426525
0
ARC
8
DEFAULT_255_2_778
10
12.7781824
20
1.2892431
40
1.5326248
50
269.7672103
51
280.8879572
0
ARC
8
DEFAULT_255_2_778
10
12.820517
20
1.0603499
40
1.2998565
50
280.9612552
51
299.4920348
0
ARC
8
DEFAULT_255_2_778
10
12.5862389
20
1.4159754
40
1.7249784
50
300.4502098
51
320.1994149
0
ARC
8
DEFAULT_255_2_778
10
10.9563643
20
2.8239174
40
3.8786118
50
319.6324741
51
326.5753673
0
ARC
8
DEFAULT_255_2_778
10
6.9716747
20
5.5365507
40
8.6987781
50
326.1204294
51
327.2966424
0
ARC
8
DEFAULT_255_2_778
10
6.6495728
20
5.7534927
40
9.0870359
50
327.2428974
51
327.2554019
0
ARC
8
DEFAULT_255_2_778
10
10.9137307
20
3.0120922
40
4.017685
50
327.2454501
51
327.2642537
0
LINE
8
DEFAULT_255_2_778
10
14.2933012
20
0.8394678
11
14.294013
21
0.8405749
0
LINE
8
DEFAULT_255_2_778
10
14.294013
20
0.8405749
11
14.2947235
21
0.8416801
0
LINE
8
DEFAULT_255_2_778
10
14.2947235
20
0.8416801
11
14.2954326
21
0.8427833
0
ARC
8
DEFAULT_255_2_778
10
6.7931793
20
5.6644275
40
8.9180747
50
327.2714371
51
327.284054
0
ARC
8
DEFAULT_255_2_778
10
6.8324115
20
5.6398615
40
8.871789
50
327.2805978
51
327.2932465
0
LINE
8
DEFAULT_255_2_778
10
14.2975525
20
0.8460834
11
14.2982561
21
0.8471792
0
ARC
8
DEFAULT_255_2_778
10
11.0083214
20
2.959429
40
3.909638
50
327.2981587
51
327.3172076
0
LINE
8
DEFAULT_255_2_778
10
14.2989583
20
0.848273
11
14.2996591
21
0.8493649
0
LINE
8
DEFAULT_255_2_778
10
14.2996591
20
0.8493649
11
14.3003585
21
0.850455
0
ARC
8
DEFAULT_255_2_778
10
37.6142172
20
-14.102897
40
27.6972695
50
147.3188115
51
147.3241608
0
LINE
8
DEFAULT_255_2_778
10
14.3017547
20
0.8526316
11
14.3024501
21
0.853716
0
ARC
8
DEFAULT_255_2_778
10
7.0494135
20
5.5055957
40
8.6166423
50
327.3251079
51
327.3379344
0
ARC
8
DEFAULT_255_2_778
10
7.0846308
20
5.4824715
40
8.5745141
50
327.3410173
51
327.3538722
0
LINE
8
DEFAULT_255_2_778
10
14.3045292
20
0.8569596
11
14.3052192
21
0.8580366
0
LINE
8
DEFAULT_255_2_778
10
14.3052192
20
0.8580366
11
14.3059079
21
0.8591116
0
LINE
8
DEFAULT_255_2_778
10
14.3059079
20
0.8591116
11
14.3065952
21
0.8601848
0
ARC
8
DEFAULT_255_2_778
10
7.1974899
20
5.4125608
40
8.4417714
50
327.3661876
51
327.3791396
0
ARC
8
DEFAULT_255_2_778
10
31.4293089
20
-10.0954272
40
20.3276349
50
147.376063
51
147.3823214
0
LINE
8
DEFAULT_255_2_778
10
14.3088212
20
0.8636621
11
14.3095029
21
0.8647274
0
LINE
8
DEFAULT_255_2_778
10
14.3095029
20
0.8647274
11
14.3101832
21
0.8657909
0
LINE
8
DEFAULT_255_2_778
10
14.3101832
20
0.8657909
11
14.3108623
21
0.8668525
0
ARC
8
DEFAULT_255_2_778
10
26.656617
20
-7.026539
40
14.6534394
50
147.3993682
51
147.4067464
0
ARC
8
DEFAULT_255_2_778
10
11.2343827
20
2.8362221
40
3.6528264
50
327.4047705
51
327.4244487
0
LINE
8
DEFAULT_255_2_778
10
14.3125546
20
0.8694992
11
14.3132291
21
0.8705544
0
LINE
8
DEFAULT_255_2_778
10
14.3132291
20
0.8705544
11
14.3139022
21
0.8716077
0
LINE
8
DEFAULT_255_2_778
10
14.3139022
20
0.8716077
11
14.3145741
21
0.8726592
0
LINE
8
DEFAULT_255_2_778
10
14.3145741
20
0.8726592
11
14.3152447
21
0.8737089
0
ARC
8
DEFAULT_255_2_778
10
7.5085835
20
5.2226255
40
8.077358
50
327.4246493
51
327.4378789
0
LINE
8
DEFAULT_255_2_778
10
14.3162486
20
0.8752807
11
14.3169159
21
0.8763258
0
LINE
8
DEFAULT_255_2_778
10
14.3169159
20
0.8763258
11
14.3175819
21
0.877369
0
ARC
8
DEFAULT_255_2_778
10
7.5918193
20
5.1717282
40
7.9798123
50
327.4420122
51
327.4553193
0
LINE
8
DEFAULT_255_2_778
10
14.3185791
20
0.8789313
11
14.3192419
21
0.87997
0
LINE
8
DEFAULT_255_2_778
10
14.3192419
20
0.87997
11
14.3199034
21
0.8810069
0
LINE
8
DEFAULT_255_2_778
10
14.3199034
20
0.8810069
11
14.3205637
21
0.8820419
0
LINE
8
DEFAULT_255_2_778
10
14.3205637
20
0.8820419
11
14.3212227
21
0.8830752
0
ARC
8
DEFAULT_255_2_778
10
11.3878738
20
2.7540452
40
3.4792334
50
327.4691576
51
327.4893031
0
LINE
8
DEFAULT_255_2_778
10
14.3218805
20
0.8841066
11
14.3225369
21
0.8851363
0
ARC
8
DEFAULT_255_2_778
10
7.7672701
20
5.0647885
40
7.7743821
50
327.478328
51
327.4918032
0
LINE
8
DEFAULT_255_2_778
10
14.3235198
20
0.8866781
11
14.3241731
21
0.8877032
0
LINE
8
DEFAULT_255_2_778
10
14.3241731
20
0.8877032
11
14.3248251
21
0.8887266
0
LINE
8
DEFAULT_255_2_778
10
14.3248251
20
0.8887266
11
14.325476
21
0.8897481
0
LINE
8
DEFAULT_255_2_778
10
14.325476
20
0.8897481
11
14.3261255
21
0.8907678
0
LINE
8
DEFAULT_255_2_778
10
14.3261255
20
0.8907678
11
14.3267738
21
0.8917858
0
ARC
8
DEFAULT_255_2_778
10
25.5653747
20
-6.2638062
40
13.323237
50
147.5074128
51
147.5151841
0
LINE
8
DEFAULT_255_2_778
10
14.3277444
20
0.8933101
11
14.3283896
21
0.8943235
0
LINE
8
DEFAULT_255_2_778
10
14.3283896
20
0.8943235
11
14.3290336
21
0.8953352
0
LINE
8
DEFAULT_255_2_778
10
14.3290336
20
0.8953352
11
14.3303191
21
0.8973552
0
LINE
8
DEFAULT_255_2_778
10
14.3303191
20
0.8973552
11
14.3309593
21
0.8983616
0
ARC
8
DEFAULT_255_2_778
10
31.4503237
20
-9.989169
40
20.2881975
50
147.5382525
51
147.5445574
0
LINE
8
DEFAULT_255_2_778
10
14.3321575
20
0.9002453
11
14.3327943
21
0.9012465
0
LINE
8
DEFAULT_255_2_778
10
14.3327943
20
0.9012465
11
14.3334298
21
0.902246
0
LINE
8
DEFAULT_255_2_778
10
14.3334298
20
0.902246
11
14.3346984
21
0.9042416
0
ARC
8
DEFAULT_255_2_778
10
28.9133179
20
-8.3605661
40
17.2734712
50
147.5569374
51
147.5637756
0
LINE
8
DEFAULT_255_2_778
10
14.3358042
20
0.9059815
11
14.336434
21
0.9069726
0
LINE
8
DEFAULT_255_2_778
10
14.336434
20
0.9069726
11
14.3370625
21
0.9079619
0
LINE
8
DEFAULT_255_2_778
10
14.3370625
20
0.9079619
11
14.3376899
21
0.9089495
0
ARC
8
DEFAULT_255_2_778
10
11.6534118
20
2.6142041
40
3.1801324
50
327.5732273
51
327.5942687
0
LINE
8
DEFAULT_255_2_778
10
14.338316
20
0.9099354
11
14.338941
21
0.9109195
0
LINE
8
DEFAULT_255_2_778
10
14.338941
20
0.9109195
11
14.3395647
21
0.9119018
0
ARC
8
DEFAULT_255_2_778
10
6.2040331
20
6.0782819
40
9.6373418
50
327.5828592
51
327.5949446
0
ARC
8
DEFAULT_255_2_778
10
32.6917638
20
-10.7315929
40
21.7341703
50
147.5955809
51
147.601686
0
LINE
8
DEFAULT_255_2_778
10
14.3418952
20
0.9155733
11
14.3425133
21
0.9165473
0
LINE
8
DEFAULT_255_2_778
10
14.3425133
20
0.9165473
11
14.3431303
21
0.9175197
0
ARC
8
DEFAULT_255_2_778
10
11.7396706
20
2.5694364
40
3.083315
50
327.6045345
51
327.6258944
0
LINE
8
DEFAULT_255_2_778
10
14.343746
20
0.9184903
11
14.3443606
21
0.9194592
0
LINE
8
DEFAULT_255_2_778
10
14.3443606
20
0.9194592
11
14.344974
21
0.9204264
0
LINE
8
DEFAULT_255_2_778
10
14.344974
20
0.9204264
11
14.3455863
21
0.9213918
0
ARC
8
DEFAULT_255_2_778
10
20.8579787
20
-3.206457
40
7.7104079
50
147.6146682
51
147.6316288
0
LINE
8
DEFAULT_255_2_778
10
14.3468084
20
0.9233194
11
14.3474172
21
0.9242797
0
ARC
8
DEFAULT_255_2_778
10
17.9708504
20
-1.3712334
40
4.2893646
50
147.622232
51
147.6449724
0
LINE
8
DEFAULT_255_2_778
10
14.3483286
20
0.9257177
11
14.3489344
21
0.9266737
0
ARC
8
DEFAULT_255_2_778
10
53.5480836
20
-23.9072131
40
46.4036122
50
147.6402776
51
147.644463
0
LINE
8
DEFAULT_255_2_778
10
14.3507486
20
0.9295371
11
14.3513499
21
0.9304863
0
ARC
8
DEFAULT_255_2_778
10
31.5066805
20
-9.9335305
40
20.3059654
50
147.6486725
51
147.6550021
0
LINE
8
DEFAULT_255_2_778
10
14.3525501
20
0.9323814
11
14.3537458
21
0.9342698
0
LINE
8
DEFAULT_255_2_778
10
14.3537458
20
0.9342698
11
14.3549369
21
0.9361514
0
ARC
8
DEFAULT_255_2_778
10
31.1177802
20
-9.670957
40
19.8369267
50
147.6689852
51
147.6753939
0
LINE
8
DEFAULT_255_2_778
10
14.3561235
20
0.9380262
11
14.3567145
21
0.9389602
0
LINE
8
DEFAULT_255_2_778
10
14.3567145
20
0.9389602
11
14.3578943
21
0.940825
0
ARC
8
DEFAULT_255_2_778
10
11.9702284
20
2.4516933
40
2.8255392
50
327.6751707
51
327.697461
0
LINE
8
DEFAULT_255_2_778
10
14.358482
20
0.941754
11
14.510497
21
1.1831109
0
ARC
8
DEFAULT_255_2_778
10
25.6667023
20
-5.8455516
40
13.1857125
50
146.5149992
51
147.7881417
0
ARC
8
DEFAULT_255_2_778
10
20.5209318
20
-2.4435744
40
7.0170499
50
144.1746429
51
146.5013993
0
ARC
8
DEFAULT_255_2_778
10
19.2560624
20
-1.5393091
40
5.4622108
50
143.0905798
51
144.0994722
0
ARC
8
DEFAULT_255_2_778
10
19.3702209
20
2.6542259
40
4.5737567
50
191.5170603
51
204.2411743
0
ARC
8
DEFAULT_255_2_778
10
17.5887174
20
1.8610857
40
2.6237036
50
204.4211508
51
216.7370921
0
ARC
8
DEFAULT_255_2_778
10
16.7157022
20
1.2001386
40
1.528756
50
216.4565052
51
236.2051914
0
ARC
8
DEFAULT_255_2_778
10
16.4406807
20
0.7994088
40
1.0427783
50
236.5160943
51
270.053556
0
ARC
8
DEFAULT_255_2_778
10
16.3881635
20
2.0104516
40
2.2544554
50
271.3595948
51
299.0540768
0
ARC
8
DEFAULT_255_2_778
10
15.5751414
20
3.5734841
40
4.0159215
50
298.3642398
51
312.9573465
0
ARC
8
DEFAULT_255_2_778
10
14.9476263
20
4.3063861
40
4.9800887
50
312.4950155
51
315.3427883
0
ARC
8
DEFAULT_255_2_778
10
14.8875047
20
4.3668092
40
5.065324
50
315.3346086
51
317.8117294
0
ARC
8
DEFAULT_255_2_778
10
14.9914548
20
4.2732345
40
4.9254611
50
317.8061901
51
319.9539418
0
ARC
8
DEFAULT_255_2_778
10
15.2535854
20
4.0534626
40
4.583391
50
319.9487633
51
321.9760309
0
ARC
8
DEFAULT_255_2_778
10
15.4681012
20
3.8841473
40
4.310109
50
321.9925001
51
322.130651
0
ARC
8
DEFAULT_255_2_778
10
17.6876376
20
2.2954651
40
1.4232168
50
275.3426313
51
320.1675451
0
ARC
8
DEFAULT_255_2_778
10
17.8328992
20
1.3846337
40
0.5063632
50
229.7479316
51
268.5578737
0
ARC
8
DEFAULT_255_2_778
10
18.1740179
20
1.8260552
40
1.0639654
50
216.6578255
51
231.0878809
0
ARC
8
DEFAULT_255_2_778
10
18.9621309
20
2.4259541
40
2.0543901
50
208.3192961
51
216.9567223
0
ARC
8
DEFAULT_255_2_778
10
20.3899483
20
3.2050034
40
3.6809018
50
202.690862
51
208.4512326
0
ARC
8
DEFAULT_255_2_778
10
22.6930322
20
4.1759245
40
6.180272
50
198.6841355
51
202.7588755
0
ARC
8
DEFAULT_255_2_778
10
26.1054674
20
5.3379025
40
9.7851117
50
195.809399
51
198.7284292
0
ARC
8
DEFAULT_255_2_778
10
31.0684307
20
6.747186
40
14.9442857
50
193.5374814
51
195.8242548
0
ARC
8
DEFAULT_255_2_778
10
38.1115462
20
8.4512193
40
22.1906063
50
191.9189792
51
193.5582087
0
ARC
8
DEFAULT_255_2_778
10
14.8027169
20
5.0003748
40
1.9572952
50
324.6603233
51
328.2283143
0
ARC
8
DEFAULT_255_2_778
10
12.5044121
20
6.4313167
40
4.6646523
50
328.1499501
51
330.1405562
0
ARC
8
DEFAULT_255_2_778
10
5.8536922
20
10.2578759
40
12.3376314
50
330.1063732
51
331.0369388
0
ARC
8
DEFAULT_255_2_778
10
-155.5712621
20
99.6782652
40
196.8749492
50
331.0173132
51
331.0791604
0
ARC
8
DEFAULT_255_2_778
10
38.2892904
20
-7.4554213
40
24.6189432
50
150.8014353
51
151.0284472
0
ARC
8
DEFAULT_255_2_778
10
24.888614
20
0.058587
40
9.2554419
50
149.2178231
51
150.9368787
0
ARC
8
DEFAULT_255_2_778
10
20.1764805
20
2.8645547
40
3.7711319
50
146.4416314
51
149.2042308
0
ARC
8
DEFAULT_255_2_778
10
18.4864591
20
3.9881519
40
1.7416902
50
142.0925598
51
146.5106804
0
ARC
8
DEFAULT_255_2_778
10
17.8353269
20
4.491156
40
0.9189101
50
138.4011402
51
141.8945849
0
ARC
8
DEFAULT_255_2_778
10
18.4072898
20
5.6217386
40
1.3624785
50
202.4594806
51
268.3414498
0
LINE
8
DEFAULT_255_2_778
10
8.9989554
20
8.927031
11
9.2794554
21
8.927031
0
LINE
8
DEFAULT_255_2_778
10
9.2794554
20
8.927031
11
9.3111554
21
9.051431
0
LINE
8
DEFAULT_255_2_778
10
9.3111554
20
9.051431
11
5.8583554
21
9.051431
0
LINE
8
DEFAULT_255_2_778
10
5.8583554
20
9.051431
11
5.8239554
21
8.927031
0
LINE
8
DEFAULT_255_2_778
10
5.8239554
20
8.927031
11
6.3266554
21
8.927031
0
LINE
8
DEFAULT_255_2_778
10
6.7394554
20
6.723131
11
4.5010554
21
1.775431
0
LINE
8
DEFAULT_255_2_778
10
4.5010554
20
1.775431
11
3.9718554
21
8.196831
0
LINE
8
DEFAULT_255_2_778
10
4.7391554
20
8.924431
11
5.0645554
21
8.924431
0
LINE
8
DEFAULT_255_2_778
10
5.0645554
20
8.924431
11
5.0989554
21
9.048831
0
LINE
8
DEFAULT_255_2_778
10
5.0989554
20
9.048831
11
0.2174554
21
9.048831
0
LINE
8
DEFAULT_255_2_778
10
0.2174554
20
9.048831
11
0.1724554
21
8.924431
0
LINE
8
DEFAULT_255_2_778
10
0.1724554
20
8.924431
11
0.4846554
21
8.924431
0
LINE
8
DEFAULT_255_2_778
10
1.0561554
20
8.231231
11
1.9187554
21
-0.071369
0
LINE
8
DEFAULT_255_2_778
10
1.9187554
20
-0.071369
11
3.9692554
21
-0.071369
0
LINE
8
DEFAULT_255_2_778
10
3.9692554
20
-0.071369
11
7.3902554
21
7.178231
0
LINE
8
DEFAULT_255_2_778
10
9.0042554
20
8.924431
11
8.9989554
21
8.927031
0
LINE
8
DEFAULT_255_2_778
10
8.6047554
20
-0.095169
11
8.6020554
21
-0.113769
0
LINE
8
DEFAULT_255_2_778
10
18.8705554
20
1.238331
11
18.7805554
21
1.383831
0
LINE
8
DEFAULT_255_2_778
10
18.3678554
20
4.259831
11
18.3466554
21
4.251931
0
ENDSEC
0
EOF