0
SECTION
2
HEADER
9
$MEASUREMENT
70
1
0
ENDSEC
0
SECTION
2
TABLES
0
TABLE
2
LTYPE
0
LTYPE
72
65
70
64
2
CONTINUOUS
3
______
73
0
40
0
0
ENDTAB
0
TABLE
2
LAYER
0
LAYER
2
DEFAULT_255_2_778
70
0
62
255
6
CONTINUOUS
0
ENDTAB
0
ENDSEC
0
SECTION
2
ENTITIES
0
ARC
8
DEFAULT_255_2_778
10
11.6818741
20
15.0040404
40
1.5060486
50
65.9800675
51
90.6254736
0
ARC
8
DEFAULT_255_2_778
10
11.7595078
20
15.2078503
40
1.288343
50
32.542098
51
65.4441295
0
ARC
8
DEFAULT_255_2_778
10
11.5166564
20
15.0512648
40
1.5772968
50
17.0717503
51
32.5917405
0
ARC
8
DEFAULT_255_2_778
10
11.0372029
20
14.9014582
40
2.0796047
50
5.8404971
51
17.1393353
0
ARC
8
DEFAULT_255_2_778
10
10.4606338
20
14.8345255
40
2.6600037
50
359.9003522
51
6.0109612
0
ARC
8
DEFAULT_255_2_778
10
10.3971111
20
14.8457868
40
2.7235688
50
351.2022944
51
359.6657718
0
ARC
8
DEFAULT_255_2_778
10
8.8569251
20
15.0780123
40
4.2811562
50
345.3512271
51
351.2835637
0
ARC
8
DEFAULT_255_2_778
10
6.6640959
20
15.6435213
40
6.5457234
50
341.3046899
51
345.416215
0
ARC
8
DEFAULT_255_2_778
10
3.5825534
20
16.6820279
40
9.7975519
50
338.1956126
51
341.3282704
0
ARC
8
DEFAULT_255_2_778
10
-0.8194216
20
18.4367158
40
14.5363586
50
335.9253178
51
338.2189151
0
ARC
8
DEFAULT_255_2_778
10
-4.1314316
20
19.8921771
40
18.1540074
50
335.7202803
51
335.9953867
0
ARC
8
DEFAULT_255_2_778
10
9.7817862
20
15.3874133
40
2.520344
50
182.8924819
51
184.9213111
0
ARC
8
DEFAULT_255_2_778
10
9.4954794
20
15.3729329
40
2.2336713
50
180.7678803
51
182.8921125
0
ARC
8
DEFAULT_255_2_778
10
9.3286795
20
15.3700164
40
2.0668475
50
180.0027687
51
180.7490059
0
ARC
8
DEFAULT_255_2_778
10
8.8466097
20
15.382342
40
1.5848264
50
168.8817172
51
180.44922
0
ARC
8
DEFAULT_255_2_778
10
8.2641513
20
15.5022442
40
0.990193
50
147.7960311
51
169.1903227
0
ARC
8
DEFAULT_255_2_778
10
8.1666488
20
15.5433095
40
0.8859728
50
114.8426458
51
146.6826864
0
ARC
8
DEFAULT_255_2_778
10
8.4005886
20
15.071197
40
1.4127517
50
102.5400432
51
115.4081967
0
ARC
8
DEFAULT_255_2_778
10
8.5918423
20
14.2424008
40
2.263312
50
94.519926
51
102.7107025
0
ARC
8
DEFAULT_255_2_778
10
8.691206
20
13.1020154
40
3.4079936
50
89.8616761
51
94.6743576
0
ARC
8
DEFAULT_255_2_778
10
0.8593804
20
15.1931519
40
1.3169091
50
77.4645698
51
90.5545957
0
ARC
8
DEFAULT_255_2_778
10
0.9794795
20
15.6937746
40
0.8021995
50
27.4699899
51
78.0773482
0
ARC
8
DEFAULT_255_2_778
10
0.4384786
20
15.3877815
40
1.4235226
50
15.2417962
51
28.35302
0
ARC
8
DEFAULT_255_2_778
10
-0.6409223
20
15.0815659
40
2.5454843
50
8.1538488
51
15.5046404
0
ARC
8
DEFAULT_255_2_778
10
-2.0810265
20
14.8586942
40
4.0026739
50
5.2378388
51
8.3881243
0
ARC
8
DEFAULT_255_2_778
10
28.3510649
20
6.4009596
40
16.2345076
50
152.6202544
51
154.9421967
0
ARC
8
DEFAULT_255_2_778
10
25.3758192
20
7.94388
40
12.8829876
50
149.939256
51
152.6282855
0
ARC
8
DEFAULT_255_2_778
10
22.9359885
20
9.3572617
40
10.0633385
50
146.8919025
51
149.9456313
0
ARC
8
DEFAULT_255_2_778
10
20.969481
20
10.6423735
40
7.7141563
50
143.1839662
51
146.9091089
0
ARC
8
DEFAULT_255_2_778
10
19.4031234
20
11.8179518
40
5.7557253
50
138.5648169
51
143.2087451
0
ARC
8
DEFAULT_255_2_778
10
18.2235708
20
12.8626248
40
4.180074
50
132.6718827
51
138.6004705
0
ARC
8
DEFAULT_255_2_778
10
17.4034056
20
13.7561365
40
2.967216
50
124.9531182
51
132.7220306
0
ARC
8
DEFAULT_255_2_778
10
16.8936563
20
14.4910828
40
2.0728026
50
114.0737314
51
125.0430592
0
ARC
8
DEFAULT_255_2_778
10
16.7448831
20
14.7995888
40
1.7304726
50
113.3412275
51
113.7429654
0
ARC
8
DEFAULT_255_2_778
10
16.6904424
20
14.9327728
40
1.5866209
50
106.0891774
51
113.4417283
0
ARC
8
DEFAULT_255_2_778
10
16.6276157
20
15.1538754
40
1.3567676
50
95.3209558
51
106.1275647
0
ARC
8
DEFAULT_255_2_778
10
16.6159859
20
15.2543005
40
1.2556988
50
90.0115156
51
95.2175253
0
LINE
8
DEFAULT_255_2_778
10
16.6157336
20
16.5099993
11
17.1449336
21
16.5099993
0
LINE
8
DEFAULT_255_2_778
10
17.1449336
20
16.5099993
11
17.1978336
21
16.7374993
0
LINE
8
DEFAULT_255_2_778
10
17.1978336
20
16.7374993
11
10.7949336
21
16.7374993
0
LINE
8
DEFAULT_255_2_778
10
10.7949336
20
16.7374993
11
10.7341336
21
16.5099993
0
LINE
8
DEFAULT_255_2_778
10
10.7341336
20
16.5099993
11
11.6654336
21
16.5099993
0
LINE
8
DEFAULT_255_2_778
10
12.4168336
20
12.4273993
11
8.2867336
21
3.2648993
0
LINE
8
DEFAULT_255_2_778
10
8.2867336
20
3.2648993
11
7.2707336
21
15.1711993
0
LINE
8
DEFAULT_255_2_778
10
8.6994336
20
16.5099993
11
9.3000336
21
16.5099993
0
LINE
8
DEFAULT_255_2_778
10
9.3000336
20
16.5099993
11
9.3609336
21
16.7374993
0
LINE
8
DEFAULT_255_2_778
10
9.3609336
20
16.7374993
11
0.3439336
21
16.7374993
0
LINE
8
DEFAULT_255_2_778
10
0.3439336
20
16.7374993
11
0.2645336
21
16.5099993
0
LINE
8
DEFAULT_255_2_778
10
0.2645336
20
16.5099993
11
0.8466336
21
16.5099993
0
LINE
8
DEFAULT_255_2_778
10
1.9049336
20
15.2240993
11
3.4924336
21
-0.1535007
0
LINE
8
DEFAULT_255_2_778
10
3.4924336
20
-0.1535007
11
7.2945336
21
-0.1535007
0
LINE
8
DEFAULT_255_2_778
10
7.2945336
20
-0.1535007
11
13.6445336
21
13.2767993
0
LINE
8
DEFAULT_255_2_778
10
16.6157336
20
16.5099993
11
16.6157336
21
16.5099993
0
ENDSEC
0
EOF