0
SECTION
2
HEADER
9
$MEASUREMENT
70
1
0
ENDSEC
0
SECTION
2
TABLES
0
TABLE
2
LTYPE
0
LTYPE
72
65
70
64
2
CONTINUOUS
3
______
73
0
40
0
0
ENDTAB
0
TABLE
2
LAYER
0
LAYER
2
DEFAULT_255_2_778
70
0
62
255
6
CONTINUOUS
0
ENDTAB
0
ENDSEC
0
SECTION
2
ENTITIES
0
ARC
8
DEFAULT_255_2_778
10
8.9005909
20
2.536166
40
2.2456219
50
57.1702927
51
72.5632306
0
ARC
8
DEFAULT_255_2_778
10
9.007392
20
2.7274888
40
2.0270028
50
31.1955915
51
56.7750962
0
ARC
8
DEFAULT_255_2_778
10
8.5030496
20
2.4161111
40
2.6197059
50
10.2387057
51
31.3076581
0
ARC
8
DEFAULT_255_2_778
10
7.6976561
20
2.2570556
40
3.440572
50
359.7625603
51
10.4612619
0
ARC
8
DEFAULT_255_2_778
10
7.5542889
20
2.2294723
40
3.5839344
50
350.3146288
51
0.2130287
0
ARC
8
DEFAULT_255_2_778
10
8.3132667
20
2.0953967
40
2.8132216
50
334.2473002
51
350.4057883
0
ARC
8
DEFAULT_255_2_778
10
8.5193361
20
2.0073898
40
2.5894019
50
321.9635643
51
334.020081
0
ARC
8
DEFAULT_255_2_778
10
8.9101192
20
1.6829889
40
2.081782
50
307.1969776
51
322.3686567
0
ARC
8
DEFAULT_255_2_778
10
9.1075863
20
1.4420428
40
1.7705115
50
272.8718872
51
306.8206449
0
ARC
8
DEFAULT_255_2_778
10
9.0600044
20
1.8531138
40
2.1836163
50
269.9762296
51
273.5784225
0
ARC
8
DEFAULT_255_2_778
10
9.0436701
20
1.5429238
40
1.8734898
50
249.6386597
51
270.4718423
0
ARC
8
DEFAULT_255_2_778
10
9.03684
20
1.4776278
40
1.8099708
50
229.0882807
51
249.1221668
0
ARC
8
DEFAULT_255_2_778
10
9.3968032
20
1.9001245
40
2.3650026
50
209.2971888
51
229.2011734
0
ARC
8
DEFAULT_255_2_778
10
9.9548083
20
2.2205332
40
3.0084305
50
198.5198838
51
209.4185484
0
ARC
8
DEFAULT_255_2_778
10
10.3966328
20
2.3837613
40
3.4792511
50
198.0972705
51
198.757627
0
ARC
8
DEFAULT_255_2_778
10
9.9637631
20
2.4322886
40
2.2095518
50
201.0238469
51
212.194924
0
ARC
8
DEFAULT_255_2_778
10
9.3840006
20
2.0661522
40
1.5238557
50
212.1595333
51
228.6622113
0
ARC
8
DEFAULT_255_2_778
10
9.0509481
20
1.6546022
40
0.99511
50
227.4091047
51
270.0034745
0
ARC
8
DEFAULT_255_2_778
10
9.0509896
20
1.6581562
40
0.998664
50
270.0010826
51
270.8324382
0
ARC
8
DEFAULT_255_2_778
10
9.0633192
20
1.3646648
40
0.7050707
50
270.1770926
51
314.2970794
0
ARC
8
DEFAULT_255_2_778
10
8.7339995
20
1.7330446
40
1.1989142
50
313.2664306
51
327.3385108
0
ARC
8
DEFAULT_255_2_778
10
8.3939718
20
1.9699172
40
1.6130872
50
326.7733008
51
328.4214873
0
ARC
8
DEFAULT_255_2_778
10
8.1472394
20
2.1075912
40
1.895417
50
328.7817484
51
349.0148528
0
ARC
8
DEFAULT_255_2_778
10
7.5462275
20
2.2328422
40
2.5092977
50
348.8223566
51
0.2638496
0
ARC
8
DEFAULT_255_2_778
10
7.3098104
20
2.2573845
40
2.7457188
50
359.7289965
51
8.365957
0
ARC
8
DEFAULT_255_2_778
10
8.2155324
20
2.3947947
40
1.8296468
50
8.2353788
51
20.7621362
0
ARC
8
DEFAULT_255_2_778
10
8.7441759
20
2.5953522
40
1.264238
50
20.7560168
51
37.393024
0
ARC
8
DEFAULT_255_2_778
10
8.8601832
20
2.6759495
40
1.1231448
50
37.7202907
51
73.8481903
0
ARC
8
DEFAULT_255_2_778
10
8.6850219
20
2.134276
40
1.6922554
50
73.2535446
51
86.2651016
0
ARC
8
DEFAULT_255_2_778
10
8.6318194
20
1.5473175
40
2.2814813
50
85.8920405
51
90.0607974
0
LINE
8
DEFAULT_255_2_778
10
4.2759985
20
7.6879976
11
5.7115985
21
2.8074976
0
LINE
8
DEFAULT_255_2_778
10
5.7115985
20
2.8074976
11
7.1471985
21
7.6879976
0
LINE
8
DEFAULT_255_2_778
10
7.1471985
20
7.6879976
11
11.0391985
21
7.6879976
0
LINE
8
DEFAULT_255_2_778
10
11.0391985
20
7.6879976
11
11.0391985
21
7.2026976
0
LINE
8
DEFAULT_255_2_778
10
11.0391985
20
7.2026976
11
9.5734985
21
4.6785976
0
LINE
8
DEFAULT_255_2_778
10
7.0894985
20
1.3029976
11
7.9012985
21
1.6395976
0
LINE
8
DEFAULT_255_2_778
10
8.6293985
20
3.8287976
11
8.2335985
21
3.8287976
0
LINE
8
DEFAULT_255_2_778
10
8.2335985
20
3.8287976
11
8.2335985
21
4.3039976
0
LINE
8
DEFAULT_255_2_778
10
8.2335985
20
4.3039976
11
9.6199985
21
6.6999976
0
LINE
8
DEFAULT_255_2_778
10
9.6199985
20
6.6999976
11
7.9398985
21
6.6999976
0
LINE
8
DEFAULT_255_2_778
10
7.9398985
20
6.6999976
11
7.8446985
21
6.5380976
0
LINE
8
DEFAULT_255_2_778
10
7.8446985
20
6.5380976
11
5.8099985
21
-0.3278024
0
LINE
8
DEFAULT_255_2_778
10
5.8099985
20
-0.3278024
11
5.7110985
21
-0.3278024
0
LINE
8
DEFAULT_255_2_778
10
5.7110985
20
-0.3278024
11
4.2256985
21
4.6462976
0
LINE
8
DEFAULT_255_2_778
10
4.2256985
20
4.6462976
11
2.7408985
21
-0.3278024
0
LINE
8
DEFAULT_255_2_778
10
2.7408985
20
-0.3278024
11
2.6481985
21
-0.3278024
0
LINE
8
DEFAULT_255_2_778
10
2.6481985
20
-0.3278024
11
0.2669985
21
7.6884976
0
LINE
8
DEFAULT_255_2_778
10
0.2669985
20
7.6884976
11
1.3062985
21
7.6884976
0
LINE
8
DEFAULT_255_2_778
10
1.3062985
20
7.6884976
11
2.7418985
21
2.8079976
0
LINE
8
DEFAULT_255_2_778
10
2.7418985
20
2.8079976
11
3.7123985
21
6.0887976
0
LINE
8
DEFAULT_255_2_778
10
3.7123985
20
6.0887976
11
3.2371985
21
7.6826976
0
LINE
8
DEFAULT_255_2_778
10
3.2371985
20
7.6826976
11
4.2764985
21
7.6826976
0
LINE
8
DEFAULT_255_2_778
10
4.2764985
20
7.6826976
11
4.2759985
21
7.6879976
0
ARC
8
DEFAULT_255_2_778
10
16.4285524
20
6.9655684
40
0.7224164
50
89.0570417
51
135.3697262
0
ARC
8
DEFAULT_255_2_778
10
16.4607535
20
6.9227579
40
0.7754478
50
134.7901348
51
179.4510708
0
ARC
8
DEFAULT_255_2_778
10
16.4348542
20
6.931041
40
0.7495135
50
180.0652797
51
225.1805931
0
ARC
8
DEFAULT_255_2_778
10
16.4421774
20
6.9161059
40
0.7442476
50
223.9701507
51
269.4968041
0
ARC
8
DEFAULT_255_2_778
10
16.4296391
20
6.943884
40
0.7720202
50
270.4454485
51
314.8743215
0
ARC
8
DEFAULT_255_2_778
10
16.4665892
20
6.9198965
40
0.72901
50
314.1464841
51
0.722338
0
LINE
8
DEFAULT_255_2_778
10
17.1955412
20
6.929087
11
17.1955413
21
6.9294674
0
ARC
8
DEFAULT_255_2_778
10
16.4385933
20
6.929468
40
0.756948
50
359.9999573
51
44.6559082
0
ARC
8
DEFAULT_255_2_778
10
16.4447824
20
6.9458931
40
0.7410375
50
44.0888573
51
90.0010874
0
ARC
8
DEFAULT_255_2_778
10
16.4447521
20
6.9475699
40
0.7393606
50
89.9987482
51
90.6208122
0
ARC
8
DEFAULT_255_2_778
10
16.4735885
20
6.924714
40
0.6208681
50
359.9974702
51
0.4035613
0
ARC
8
DEFAULT_255_2_778
10
16.4645533
20
6.9247077
40
0.6299033
50
314.1038326
51
359.9980788
0
ARC
8
DEFAULT_255_2_778
10
16.4330805
20
6.9456503
40
0.6668937
50
269.9943179
51
314.7932899
0
ARC
8
DEFAULT_255_2_778
10
16.433016
20
6.9471676
40
0.668411
50
269.4535494
51
269.9998603
0
ARC
8
DEFAULT_255_2_778
10
16.4309919
20
6.9244136
40
0.6456413
50
224.1638749
51
269.6139004
0
ARC
8
DEFAULT_255_2_778
10
16.4299655
20
6.939818
40
0.6557429
50
180.4308451
51
225.1919348
0
ARC
8
DEFAULT_255_2_778
10
16.4690117
20
6.9232909
40
0.6948672
50
135.4008099
51
179.043785
0
ARC
8
DEFAULT_255_2_778
10
16.4246063
20
6.9635754
40
0.6349684
50
90.0058164
51
135.1756884
0
ARC
8
DEFAULT_255_2_778
10
16.4245389
20
6.96218
40
0.6363639
50
89.2344637
51
89.9997355
0
ARC
8
DEFAULT_255_2_778
10
16.4392508
20
6.9515288
40
0.646988
50
89.9983041
51
90.5499204
0
ARC
8
DEFAULT_255_2_778
10
16.4393818
20
6.9531272
40
0.6453898
50
44.1525379
51
90.0099265
0
ARC
8
DEFAULT_255_2_778
10
16.4431427
20
6.9466774
40
0.6472248
50
358.8676573
51
44.7941278
0
ARC
8
DEFAULT_255_2_778
10
16.5906944
20
7.1242605
40
0.2245086
50
277.330783
51
2.1765328
0
ARC
8
DEFAULT_255_2_778
10
16.512639
20
7.1349028
40
0.3024096
50
359.5991328
51
0.0049332
0
ARC
8
DEFAULT_255_2_778
10
16.605787
20
7.1411901
40
0.2093554
50
358.286174
51
80.9461151
0
ARC
8
DEFAULT_255_2_778
10
16.4742588
20
6.7104432
40
0.6583692
50
75.533205
51
90.2750319
0
ARC
8
DEFAULT_255_2_778
10
16.4580025
20
6.3282016
40
1.0406855
50
89.2789744
51
90.0033791
0
ARC
8
DEFAULT_255_2_778
10
16.4401818
20
6.8575187
40
0.4157698
50
73.8480141
51
91.78359
0
ARC
8
DEFAULT_255_2_778
10
16.52492
20
7.137366
40
0.1234467
50
354.7111525
51
75.4929985
0
ARC
8
DEFAULT_255_2_778
10
16.5262642
20
7.1162505
40
0.1219662
50
269.1803695
51
4.5787625
0
ARC
8
DEFAULT_255_2_778
10
16.4430185
20
7.5494202
40
0.5610741
50
269.3078919
51
278.3522719
0
ARC
8
DEFAULT_255_2_778
10
14.0068364
20
5.2265851
40
0.8055091
50
25.5883995
51
26.8612467
0
ARC
8
DEFAULT_255_2_778
10
13.1354092
20
4.7877012
40
1.7812151
50
26.7902114
51
28.4363739
0
ARC
8
DEFAULT_255_2_778
10
12.6177569
20
4.5084028
40
2.3694081
50
28.4146842
51
30.5204673
0
ARC
8
DEFAULT_255_2_778
10
12.4301996
20
4.3987606
40
2.5866601
50
30.5027639
51
33.7757786
0
ARC
8
DEFAULT_255_2_778
10
12.5855341
20
4.5054131
40
2.3982511
50
33.7209657
51
38.8914406
0
ARC
8
DEFAULT_255_2_778
10
12.7790221
20
4.6577899
40
2.1519848
50
38.9681293
51
39.85588
0
ARC
8
DEFAULT_255_2_778
10
13.040541
20
4.8851746
40
1.8055196
50
39.6351002
51
48.3468774
0
ARC
8
DEFAULT_255_2_778
10
13.3361106
20
5.2116149
40
1.3651735
50
48.5099647
51
54.7074699
0
ARC
8
DEFAULT_255_2_778
10
12.8764399
20
4.5654537
40
2.1581546
50
54.6578565
51
59.0767645
0
ARC
8
DEFAULT_255_2_778
10
13.3426729
20
5.3498089
40
1.2457022
50
58.9336945
51
67.0947864
0
ARC
8
DEFAULT_255_2_778
10
13.4931313
20
5.6986929
40
0.8657728
50
67.2805058
51
75.5235918
0
ARC
8
DEFAULT_255_2_778
10
13.5156773
20
5.7765972
40
0.7847093
50
75.6955905
51
90.2119382
0
ARC
8
DEFAULT_255_2_778
10
13.5174409
20
5.5161428
40
1.0451688
50
90.2558025
51
98.36608
0
ARC
8
DEFAULT_255_2_778
10
13.5835866
20
5.0347505
40
1.5310695
50
98.1939554
51
101.8324113
0
ARC
8
DEFAULT_255_2_778
10
13.4348692
20
5.7458242
40
0.8046105
50
101.850079
51
111.467549
0
ARC
8
DEFAULT_255_2_778
10
13.5088842
20
5.5528247
40
1.0113099
50
111.3682541
51
117.7101252
0
ARC
8
DEFAULT_255_2_778
10
13.6948346
20
5.2203273
40
1.3921763
50
118.1222278
51
131.6737444
0
ARC
8
DEFAULT_255_2_778
10
14.0621617
20
4.8010829
40
1.9495642
50
131.5450743
51
144.2235981
0
ARC
8
DEFAULT_255_2_778
10
14.2735215
20
4.6402119
40
2.2151012
50
144.0438405
51
160.7650756
0
ARC
8
DEFAULT_255_2_778
10
14.1927753
20
4.670992
40
2.1287237
50
160.8313042
51
162.0259411
0
ARC
8
DEFAULT_255_2_778
10
18.7541932
20
3.1028111
40
6.951955
50
161.3331578
51
163.8480536
0
ARC
8
DEFAULT_255_2_778
10
17.0576067
20
3.5932538
40
5.1859032
50
163.8383051
51
166.9116829
0
ARC
8
DEFAULT_255_2_778
10
15.9271381
20
3.8562864
40
4.0252373
50
166.9145566
51
170.5205181
0
ARC
8
DEFAULT_255_2_778
10
15.4397349
20
3.9402711
40
3.5306587
50
170.5621475
51
174.7404182
0
ARC
8
DEFAULT_255_2_778
10
17.6578728
20
3.7680835
40
5.7553297
50
175.0576932
51
178.0861781
0
ARC
8
DEFAULT_255_2_778
10
-72.5732726
20
7.4348097
40
84.5504474
50
357.6386294
51
357.6448216
0
ARC
8
DEFAULT_255_2_778
10
-8.5609465
20
4.7885192
40
20.4834468
50
357.5216795
51
357.6571073
0
ARC
8
DEFAULT_255_2_778
10
16.4594758
20
3.7842366
40
4.5576767
50
178.5095025
51
179.2594599
0
ARC
8
DEFAULT_255_2_778
10
16.3719217
20
3.7853346
40
4.4701158
50
179.2590275
51
179.9986942
0
ARC
8
DEFAULT_255_2_778
10
16.1613534
20
3.7842478
40
4.2595476
50
179.9840118
51
182.4144809
0
ARC
8
DEFAULT_255_2_778
10
15.7979772
20
3.7688432
40
3.8958449
50
182.4132672
51
184.6345687
0
ARC
8
DEFAULT_255_2_778
10
15.4173342
20
3.7382142
40
3.5139715
50
184.6382734
51
186.4091224
0
ARC
8
DEFAULT_255_2_778
10
15.0155766
20
3.6929175
40
3.1096686
50
186.4060526
51
188.1055487
0
ARC
8
DEFAULT_255_2_778
10
14.5281401
20
3.6229925
40
2.6172424
50
188.0946178
51
189.9021102
0
ARC
8
DEFAULT_255_2_778
10
13.9210696
20
3.5165186
40
2.0009057
50
189.8880047
51
191.6606575
0
ARC
8
DEFAULT_255_2_778
10
13.2217857
20
3.3717554
40
1.2867952
50
191.6410717
51
193.2427398
0
ARC
8
DEFAULT_255_2_778
10
12.4662898
20
3.1932496
40
0.5104981
50
193.1650428
51
194.5398848
0
ARC
8
DEFAULT_255_2_778
10
12.4064359
20
3.2975117
40
0.4925781
50
207.1463157
51
208.1546757
0
ARC
8
DEFAULT_255_2_778
10
13.1462812
20
3.6775814
40
1.3243376
50
205.6803673
51
207.1739081
0
ARC
8
DEFAULT_255_2_778
10
13.8428903
20
4.0136663
40
2.0977823
50
204.0954889
51
205.7080243
0
ARC
8
DEFAULT_255_2_778
10
14.3691038
20
4.2498801
40
2.6745813
50
202.5697163
51
204.1126364
0
ARC
8
DEFAULT_255_2_778
10
14.7823568
20
4.4216852
40
3.1221247
50
200.7123911
51
202.5704045
0
ARC
8
DEFAULT_255_2_778
10
15.1306777
20
4.5534192
40
3.4945241
50
198.41243
51
200.712827
0
ARC
8
DEFAULT_255_2_778
10
15.3255902
20
4.6192775
40
3.7002605
50
197.3156519
51
198.4267187
0
ARC
8
DEFAULT_255_2_778
10
15.466228
20
4.6625899
40
3.847416
50
194.6114127
51
197.3080666
0
ARC
8
DEFAULT_255_2_778
10
15.5861437
20
4.6940528
40
3.9713903
50
191.4226893
51
194.6142284
0
ARC
8
DEFAULT_255_2_778
10
15.6319793
20
4.7035428
40
4.0181974
50
187.6483984
51
191.4258913
0
ARC
8
DEFAULT_255_2_778
10
15.6213951
20
4.7023164
40
4.0075443
50
183.4949067
51
187.6511597
0
ARC
8
DEFAULT_255_2_778
10
15.5890041
20
4.7003054
40
3.975091
50
180.0022472
51
183.494436
0
ARC
8
DEFAULT_255_2_778
10
15.5486177
20
4.7001901
40
3.9347047
50
179.7830754
51
180.0005906
0
ARC
8
DEFAULT_255_2_778
10
16.6348702
20
4.7417412
40
5.0209998
50
169.4360189
51
180.3041577
0
ARC
8
DEFAULT_255_2_778
10
15.3677542
20
4.9599898
40
3.7353902
50
153.7220629
51
169.163677
0
ARC
8
DEFAULT_255_2_778
10
15.4532757
20
4.917396
40
3.8309309
50
152.6707736
51
153.7171367
0
ARC
8
DEFAULT_255_2_778
10
14.1519414
20
5.5946464
40
2.3639237
50
143.3140693
51
152.7728529
0
ARC
8
DEFAULT_255_2_778
10
13.8109158
20
5.8510319
40
1.9372766
50
132.766889
51
143.3691669
0
ARC
8
DEFAULT_255_2_778
10
13.5009283
20
6.1896606
40
1.4781967
50
120.2715985
51
132.8585967
0
ARC
8
DEFAULT_255_2_778
10
13.3511151
20
6.4337979
40
1.1918446
50
115.5600244
51
119.9679668
0
ARC
8
DEFAULT_255_2_778
10
13.2738875
20
6.6013785
40
1.0073477
50
105.5787125
51
115.7098448
0
ARC
8
DEFAULT_255_2_778
10
13.2229591
20
6.7808142
40
0.8208272
50
96.1697457
51
105.5181359
0
ARC
8
DEFAULT_255_2_778
10
13.2405927
20
6.5781097
40
1.0242616
50
90.0187433
51
95.9317805
0
ARC
8
DEFAULT_255_2_778
10
13.2340678
20
6.5483097
40
1.0540798
50
64.1458507
51
89.6635428
0
ARC
8
DEFAULT_255_2_778
10
12.9415243
20
5.9631122
40
1.708295
50
48.7607169
51
63.875249
0
ARC
8
DEFAULT_255_2_778
10
13.4913999
20
6.5759331
40
0.8850466
50
48.4504823
51
49.3764775
0
ARC
8
DEFAULT_255_2_778
10
13.2070592
20
6.270648
40
1.3021511
50
40.6351023
51
47.9968249
0
ARC
8
DEFAULT_255_2_778
10
12.4101183
20
5.5797689
40
2.356861
50
35.871138
51
40.763701
0
ARC
8
DEFAULT_255_2_778
10
11.403665
20
4.8457585
40
3.6025346
50
32.5350096
51
35.9514561
0
ARC
8
DEFAULT_255_2_778
10
10.8554428
20
4.4899383
40
4.2560889
50
30.965927
51
32.6041619
0
ARC
8
DEFAULT_255_2_778
10
11.0822426
20
4.6249514
40
3.9921461
50
29.9083312
51
30.9791996
0
ARC
8
DEFAULT_255_2_778
10
11.9381935
20
5.1168978
40
3.0048959
50
29.1694985
51
29.9151531
0
ARC
8
DEFAULT_255_2_778
10
13.3578841
20
5.908489
40
1.3794308
50
28.6225104
51
29.200526
0
ARC
8
DEFAULT_255_2_778
10
13.1880807
20
3.0783667
40
2.346418
50
330.7717608
51
330.9968286
0
ARC
8
DEFAULT_255_2_778
10
10.2785695
20
4.7055455
40
5.6800296
50
330.4016425
51
330.7785785
0
ARC
8
DEFAULT_255_2_778
10
8.4928413
20
5.7188237
40
7.7332119
50
329.9103326
51
330.4086569
0
ARC
8
DEFAULT_255_2_778
10
8.1896986
20
5.8931579
40
8.0829071
50
329.0700863
51
329.9184189
0
ARC
8
DEFAULT_255_2_778
10
9.545109
20
5.0761795
40
6.500324
50
327.4855723
51
329.1065345
0
ARC
8
DEFAULT_255_2_778
10
11.3419528
20
3.9321954
40
4.3702195
50
325.9419769
51
327.47045
0
ARC
8
DEFAULT_255_2_778
10
12.8038896
20
2.9388138
40
2.6027253
50
323.0851296
51
326.035668
0
ARC
8
DEFAULT_255_2_778
10
13.8480292
20
2.1538391
40
1.2964279
50
319.2348925
51
323.1059305
0
ARC
8
DEFAULT_255_2_778
10
14.2500672
20
1.8110066
40
0.7680768
50
317.1026987
51
319.021873
0
ARC
8
DEFAULT_255_2_778
10
-6.8314893
20
21.3853258
40
29.5358714
50
316.9410194
51
317.1226249
0
ARC
8
DEFAULT_255_2_778
10
10.6514332
20
5.04584
40
5.6061544
50
315.3807757
51
316.9613123
0
ARC
8
DEFAULT_255_2_778
10
12.1208956
20
3.5948987
40
3.5410758
50
312.1645539
51
315.3909302
0
ARC
8
DEFAULT_255_2_778
10
12.956673
20
2.6530573
40
2.2819739
50
302.4695514
51
312.4841173
0
ARC
8
DEFAULT_255_2_778
10
13.3729404
20
2.0136289
40
1.5190498
50
294.0721706
51
302.170931
0
ARC
8
DEFAULT_255_2_778
10
12.6412421
20
3.6605014
40
3.3211502
50
291.0459307
51
294.0087919
0
ARC
8
DEFAULT_255_2_778
10
13.1786693
20
2.2547435
40
1.8161706
50
285.336653
51
291.1485723
0
ARC
8
DEFAULT_255_2_778
10
13.3205903
20
1.750681
40
1.2925266
50
279.3283798
51
285.179401
0
ARC
8
DEFAULT_255_2_778
10
13.3208594
20
1.7823465
40
1.3237406
50
269.8334314
51
279.0947237
0
ARC
8
DEFAULT_255_2_778
10
13.3133569
20
2.2143386
40
1.755731
50
270.0031464
51
270.1192484
0
ARC
8
DEFAULT_255_2_778
10
13.3179812
20
2.5052051
40
2.0466025
50
266.3669328
51
269.8732399
0
ARC
8
DEFAULT_255_2_778
10
13.3903424
20
3.6929467
40
3.2365439
50
264.5214789
51
266.4208765
0
ARC
8
DEFAULT_255_2_778
10
13.236462
20
1.9021014
40
1.4392979
50
247.2534656
51
263.8129096
0
ARC
8
DEFAULT_255_2_778
10
13.4210279
20
2.3920738
40
1.96262
50
242.4732505
51
247.8151356
0
ARC
8
DEFAULT_255_2_778
10
13.4666499
20
2.4833182
40
2.0646207
50
238.9976292
51
242.5207686
0
ARC
8
DEFAULT_255_2_778
10
13.3702116
20
2.3242107
40
1.8785697
50
236.3395162
51
239.019276
0
ARC
8
DEFAULT_255_2_778
10
13.0980698
20
1.9177543
40
1.3894216
50
233.6453221
51
236.390104
0
ARC
8
DEFAULT_255_2_778
10
12.6000724
20
1.2395418
40
0.5480113
50
233.4529515
51
233.5445869
0
ARC
8
DEFAULT_255_2_778
10
13.4154263
20
2.3299575
40
1.9095541
50
230.9416799
51
233.2817523
0
ARC
8
DEFAULT_255_2_778
10
14.2979989
20
3.4242799
40
3.3154225
50
228.9897401
51
231.0146544
0
ARC
8
DEFAULT_255_2_778
10
14.6346655
20
3.8155552
40
3.8315954
50
226.3901849
51
229.0302133
0
ARC
8
DEFAULT_255_2_778
10
14.4457113
20
3.6164559
40
3.557107
50
225.3603296
51
226.3818984
0
ARC
8
DEFAULT_255_2_778
10
13.7511665
20
2.932838
40
2.5827039
50
218.9010678
51
225.6676938
0
ARC
8
DEFAULT_255_2_778
10
12.9450527
20
2.2693785
40
1.5387562
50
215.3917308
51
218.5248527
0
ARC
8
DEFAULT_255_2_778
10
14.09731
20
3.0764564
40
2.9455345
50
213.3886323
51
215.2087629
0
ARC
8
DEFAULT_255_2_778
10
16.0617217
20
4.3724485
40
5.2989381
50
211.9860406
51
213.4000106
0
ARC
8
DEFAULT_255_2_778
10
17.8753792
20
5.5136429
40
7.4417496
50
211.6907939
51
212.0416122
0
ARC
8
DEFAULT_255_2_778
10
19.1368898
20
6.2916381
40
8.9238714
50
211.2023643
51
211.6861517
0
ARC
8
DEFAULT_255_2_778
10
21.7840807
20
7.8898702
40
12.0161119
50
210.3210108
51
211.1815114
0
ARC
8
DEFAULT_255_2_778
10
24.4708692
20
9.4664592
40
15.1313084
50
209.88111
51
210.3381203
0
ARC
8
DEFAULT_255_2_778
10
25.1340565
20
9.8487735
40
15.896802
50
209.6111633
51
209.8850338
0
ARC
8
DEFAULT_255_2_778
10
23.7869271
20
9.0843695
40
14.3479088
50
209.3216301
51
209.6153962
0
ARC
8
DEFAULT_255_2_778
10
20.0076709
20
6.9615575
40
10.0132686
50
209.1617738
51
209.3210516
0
ARC
8
DEFAULT_255_2_778
10
15.2287278
20
4.2954336
40
4.5409278
50
209.0441699
51
209.1678834
0
ARC
8
DEFAULT_255_2_778
10
15.5057691
20
3.182529
40
4.3821679
50
203.8219905
51
215.6093485
0
ARC
8
DEFAULT_255_2_778
10
15.4384968
20
3.2341078
40
4.358262
50
216.6756353
51
218.007253
0
ARC
8
DEFAULT_255_2_778
10
14.7455646
20
2.6917243
40
3.4782993
50
217.9960355
51
220.4687869
0
ARC
8
DEFAULT_255_2_778
10
14.3271402
20
2.3340658
40
2.9278467
50
220.4585983
51
224.1338453
0
ARC
8
DEFAULT_255_2_778
10
14.1451951
20
2.1607522
40
2.6765783
50
224.1831938
51
224.7866732
0
ARC
8
DEFAULT_255_2_778
10
13.8960006
20
1.9029542
40
2.3181175
50
224.6033173
51
233.4966104
0
ARC
8
DEFAULT_255_2_778
10
13.5799146
20
1.4701957
40
1.78223
50
233.3886409
51
247.9945744
0
ARC
8
DEFAULT_255_2_778
10
13.4798336
20
1.2384589
40
1.5298875
50
248.2177625
51
259.8771327
0
ARC
8
DEFAULT_255_2_778
10
13.5094228
20
1.4113338
40
1.7052723
50
259.9193283
51
264.3847635
0
ARC
8
DEFAULT_255_2_778
10
13.503276
20
1.3493992
40
1.6430335
50
264.3867581
51
269.2138856
0
ARC
8
DEFAULT_255_2_778
10
13.5026022
20
1.3242558
40
1.6178832
50
269.2255296
51
269.9996614
0
ARC
8
DEFAULT_255_2_778
10
13.5029921
20
1.3011319
40
1.5947594
50
269.9856488
51
277.9125718
0
ARC
8
DEFAULT_255_2_778
10
13.5032365
20
1.2968401
40
1.5904749
50
277.9251346
51
285.2913957
0
ARC
8
DEFAULT_255_2_778
10
13.4978319
20
1.3165212
40
1.6108845
50
285.2922065
51
291.4027052
0
ARC
8
DEFAULT_255_2_778
10
13.4931653
20
1.3288523
40
1.624068
50
291.3972317
51
294.2057211
0
ARC
8
DEFAULT_255_2_778
10
13.4914968
20
1.3325698
40
1.6281429
50
294.2056369
51
297.8111532
0
ARC
8
DEFAULT_255_2_778
10
13.4837528
20
1.3470059
40
1.6445245
50
297.8151329
51
300.4268522
0
ARC
8
DEFAULT_255_2_778
10
13.4077522
20
1.475649
40
1.7939401
50
300.4391092
51
302.0226485
0
ARC
8
DEFAULT_255_2_778
10
12.3405418
20
3.1740454
40
3.7998015
50
302.0865791
51
302.6389787
0
ARC
8
DEFAULT_255_2_778
10
12.5142587
20
2.6319236
40
3.2528782
50
305.2133297
51
316.3856907
0
ARC
8
DEFAULT_255_2_778
10
12.9873259
20
2.1324487
40
2.5660825
50
317.1738458
51
322.4857571
0
ARC
8
DEFAULT_255_2_778
10
11.5797989
20
3.2270232
40
4.3491004
50
322.3396173
51
325.0857136
0
ARC
8
DEFAULT_255_2_778
10
9.8139256
20
4.4663808
40
6.5064819
50
325.0365195
51
326.1959709
0
ARC
8
DEFAULT_255_2_778
10
6.2274938
20
6.8763043
40
10.8273837
50
326.157929
51
326.3521174
0
LINE
8
DEFAULT_255_2_778
10
16.4367412
20
7.686887
11
16.4404412
21
7.687887
0
LINE
8
DEFAULT_255_2_778
10
17.0902412
20
6.933887
11
17.0944412
21
6.929087
0
LINE
8
DEFAULT_255_2_778
10
16.4568412
20
7.378887
11
16.1330412
21
7.378887
0
LINE
8
DEFAULT_255_2_778
10
16.1330412
20
7.378887
11
16.1330412
21
6.520087
0
LINE
8
DEFAULT_255_2_778
10
16.1330412
20
6.520087
11
16.2949412
21
6.520087
0
LINE
8
DEFAULT_255_2_778
10
16.2949412
20
6.520087
11
16.2949412
21
6.876187
0
LINE
8
DEFAULT_255_2_778
10
16.2949412
20
6.876187
11
16.4552412
21
6.876187
0
LINE
8
DEFAULT_255_2_778
10
16.4552412
20
6.876187
11
16.6298412
21
6.509987
0
LINE
8
DEFAULT_255_2_778
10
16.6298412
20
6.509987
11
16.8108412
21
6.509987
0
LINE
8
DEFAULT_255_2_778
10
16.8108412
20
6.509987
11
16.6193412
21
6.901587
0
LINE
8
DEFAULT_255_2_778
10
16.4579412
20
7.368887
11
16.4568412
21
7.378887
0
LINE
8
DEFAULT_255_2_778
10
16.4362412
20
6.988387
11
16.2986412
21
6.988387
0
LINE
8
DEFAULT_255_2_778
10
16.2986412
20
6.988387
11
16.2986412
21
7.267787
0
LINE
8
DEFAULT_255_2_778
10
16.2986412
20
7.267787
11
16.4309412
21
7.267787
0
LINE
8
DEFAULT_255_2_778
10
16.4309412
20
7.267787
11
16.4272412
21
7.273087
0
LINE
8
DEFAULT_255_2_778
10
15.1609412
20
7.738687
11
15.3291412
21
6.714787
0
LINE
8
DEFAULT_255_2_778
10
15.3291412
20
6.714787
11
14.7333412
21
5.574487
0
LINE
8
DEFAULT_255_2_778
10
14.5687412
20
6.569287
11
15.1545412
21
7.739787
0
LINE
8
DEFAULT_255_2_778
10
15.1545412
20
7.739787
11
15.1609412
21
7.738687
0
LINE
8
DEFAULT_255_2_778
10
11.2588412
20
2.090887
11
11.4969412
21
1.412587
0
LINE
8
DEFAULT_255_2_778
10
15.2408412
20
0.876987
11
15.3921412
21
1.148987
0
LINE
8
DEFAULT_255_2_778
10
15.3921412
20
1.148987
11
15.2408412
21
1.939087
0
LINE
8
DEFAULT_255_2_778
10
15.2408412
20
1.939087
11
15.2402412
21
1.940687
0
ENDSEC
0
EOF