0
SECTION
2
HEADER
9
$MEASUREMENT
70
1
0
ENDSEC
0
SECTION
2
TABLES
0
TABLE
2
LTYPE
0
LTYPE
72
65
70
64
2
CONTINUOUS
3
______
73
0
40
0
0
ENDTAB
0
TABLE
2
LAYER
0
LAYER
2
DEFAULT_255_2_778
70
0
62
255
6
CONTINUOUS
0
ENDTAB
0
ENDSEC
0
SECTION
2
ENTITIES
0
ARC
8
DEFAULT_255_2_778
10
8.7267195
20
8.1523085
40
8.6486591
50
89.9700952
51
99.6454371
0
ARC
8
DEFAULT_255_2_778
10
8.6936957
20
8.3535341
40
8.444745
50
99.6532977
51
111.7270645
0
ARC
8
DEFAULT_255_2_778
10
8.6833446
20
8.3854822
40
8.4112349
50
111.742125
51
131.0805867
0
ARC
8
DEFAULT_255_2_778
10
8.6875893
20
8.3774127
40
8.420107
50
131.0662766
51
155.7651686
0
ARC
8
DEFAULT_255_2_778
10
8.6958473
20
8.376689
40
8.4279348
50
155.7837264
51
168.5918409
0
ARC
8
DEFAULT_255_2_778
10
8.868518
20
8.3431676
40
8.6038246
50
168.6004621
51
178.5997543
0
ARC
8
DEFAULT_255_2_778
10
9.0540635
20
8.3343956
40
8.7895299
50
178.5721458
51
180.000842
0
ARC
8
DEFAULT_255_2_778
10
8.9128724
20
8.3297538
40
8.64834
50
179.9701038
51
189.6456153
0
ARC
8
DEFAULT_255_2_778
10
8.7117628
20
8.2967501
40
8.4445436
50
189.6534821
51
201.727358
0
ARC
8
DEFAULT_255_2_778
10
8.6799443
20
8.2864529
40
8.4111739
50
201.742435
51
221.0808727
0
ARC
8
DEFAULT_255_2_778
10
8.6880927
20
8.2907648
40
8.4201496
50
221.0665536
51
245.7652592
0
ARC
8
DEFAULT_255_2_778
10
8.6888165
20
8.2990214
40
8.4279764
50
245.7838122
51
258.5918595
0
ARC
8
DEFAULT_255_2_778
10
8.7223342
20
8.4716768
40
8.6038506
50
258.6004849
51
268.5997467
0
ARC
8
DEFAULT_255_2_778
10
8.7311044
20
8.6571964
40
8.7895299
50
268.5721458
51
270.000842
0
ARC
8
DEFAULT_255_2_778
10
8.735745
20
8.5160332
40
8.648368
50
269.9701117
51
279.6455918
0
ARC
8
DEFAULT_255_2_778
10
8.7687464
20
8.3149276
40
8.4445758
50
279.653469
51
291.7272965
0
ARC
8
DEFAULT_255_2_778
10
8.7790389
20
8.2831235
40
8.4112212
50
291.742366
51
311.0806647
0
ARC
8
DEFAULT_255_2_778
10
8.7747783
20
8.2912203
40
8.4201245
50
311.0663142
51
335.7649262
0
ARC
8
DEFAULT_255_2_778
10
8.7666617
20
8.2918768
40
8.4277958
50
335.7835067
51
348.5916504
0
ARC
8
DEFAULT_255_2_778
10
8.594122
20
8.3253703
40
8.6035517
50
348.600285
51
358.5997069
0
ARC
8
DEFAULT_255_2_778
10
8.4086571
20
8.3341374
40
8.7891764
50
358.5721174
51
0.000841
0
ARC
8
DEFAULT_255_2_778
10
8.4545931
20
8.2589439
40
8.7435649
50
0.4935878
51
10.3322754
0
ARC
8
DEFAULT_255_2_778
10
8.6332215
20
8.2903012
40
8.562209
50
10.3402337
51
22.6852243
0
ARC
8
DEFAULT_255_2_778
10
8.6659739
20
8.3025639
40
8.5272611
50
22.6940776
51
41.3348802
0
ARC
8
DEFAULT_255_2_778
10
8.7211763
20
8.3594543
40
8.4482404
50
41.2924387
51
68.2074817
0
ARC
8
DEFAULT_255_2_778
10
8.7571654
20
8.4286023
40
8.370677
50
68.2605026
51
81.0681455
0
ARC
8
DEFAULT_255_2_778
10
8.7345646
20
8.2784215
40
8.5225455
50
81.0748031
51
90.0223941
0
ARC
8
DEFAULT_255_2_778
10
8.6943614
20
8.3312364
40
7.4768728
50
348.455123
51
0.0232191
0
ARC
8
DEFAULT_255_2_778
10
8.7321377
20
8.3265571
40
7.4389248
50
332.4749649
51
348.4322033
0
ARC
8
DEFAULT_255_2_778
10
8.6552005
20
8.3650776
40
7.5249554
50
291.7197842
51
332.4855881
0
ARC
8
DEFAULT_255_2_778
10
8.7068555
20
8.2661983
40
7.413989
50
278.3523733
51
291.631717
0
ARC
8
DEFAULT_255_2_778
10
8.6904815
20
8.3826721
40
7.531606
50
269.9813778
51
278.346906
0
ARC
8
DEFAULT_255_2_778
10
8.6837951
20
8.3359758
40
7.4849105
50
259.8202179
51
270.0324449
0
ARC
8
DEFAULT_255_2_778
10
8.6580857
20
8.1831214
40
7.3299187
50
246.0279459
51
259.8068477
0
ARC
8
DEFAULT_255_2_778
10
8.7297507
20
8.3018462
40
7.4675396
50
204.4183984
51
245.8956192
0
ARC
8
DEFAULT_255_2_778
10
8.8074381
20
8.3473353
40
7.5570887
50
190.7869778
51
204.4889421
0
ARC
8
DEFAULT_255_2_778
10
8.9501167
20
8.3731847
40
7.7020841
50
179.97038
51
190.7772264
0
ARC
8
DEFAULT_255_2_778
10
8.7247617
20
8.3801994
40
7.4767288
50
168.4605812
51
180.0232425
0
ARC
8
DEFAULT_255_2_778
10
8.6866204
20
8.3849507
40
7.4384085
50
152.4784572
51
168.4376682
0
ARC
8
DEFAULT_255_2_778
10
8.7637136
20
8.3462976
40
7.5246387
50
111.7193108
51
152.4886942
0
ARC
8
DEFAULT_255_2_778
10
8.7123745
20
8.4445391
40
7.4143818
50
98.3522225
51
111.6316851
0
ARC
8
DEFAULT_255_2_778
10
8.7287869
20
8.327829
40
7.5322379
50
89.9813891
51
98.3467857
0
ARC
8
DEFAULT_255_2_778
10
8.656344
20
8.3160079
40
7.5444302
50
78.1406232
51
89.4312461
0
ARC
8
DEFAULT_255_2_778
10
8.6689678
20
8.3879567
40
7.4714232
50
62.7463842
51
78.1219738
0
ARC
8
DEFAULT_255_2_778
10
8.6366962
20
8.3268733
40
7.5405038
50
21.6934922
51
62.7409347
0
ARC
8
DEFAULT_255_2_778
10
8.6905361
20
8.3573308
40
7.4792234
50
8.5068027
51
21.6291513
0
ARC
8
DEFAULT_255_2_778
10
8.5514502
20
8.3370184
40
7.619784
50
359.9793068
51
8.503151
0
ARC
8
DEFAULT_255_2_778
10
11.8720916
20
11.1876299
40
0.2238647
50
293.8006889
51
313.656754
0
LINE
8
DEFAULT_255_2_778
10
11.9624336
20
10.9828039
11
11.9622086
21
10.9826914
0
ARC
8
DEFAULT_255_2_778
10
12.0531229
20
10.7765343
40
0.2253135
50
113.7972505
51
133.4277323
0
ARC
8
DEFAULT_255_2_778
10
12.3115925
20
10.5422458
40
0.5737652
50
136.0901817
51
180.803101
0
LINE
8
DEFAULT_255_2_778
10
11.7378836
20
10.5342037
11
11.7378836
21
10.5339414
0
ARC
8
DEFAULT_255_2_778
10
12.3111069
20
10.5255977
40
0.5732841
50
179.1660693
51
223.9298366
0
ARC
8
DEFAULT_255_2_778
10
12.238992
20
10.4509849
40
0.4695975
50
223.4779409
51
246.6113726
0
ARC
8
DEFAULT_255_2_778
10
12.1564525
20
10.2740945
40
0.2745321
50
247.7672788
51
269.6829983
0
ARC
8
DEFAULT_255_2_778
10
12.3155836
20
10.7953886
40
0.8118752
50
258.5872645
51
269.8848364
0
ARC
8
DEFAULT_255_2_778
10
12.3256309
20
10.5963186
40
0.612915
50
268.9081561
51
298.5811752
0
ARC
8
DEFAULT_255_2_778
10
12.4026733
20
10.4372731
40
0.436475
50
299.6883472
51
314.8564605
0
LINE
8
DEFAULT_255_2_778
10
12.7105336
20
10.1278664
11
12.7114273
21
10.1287601
0
ARC
8
DEFAULT_255_2_778
10
12.2160315
20
10.6472201
40
0.7170897
50
313.6968013
51
322.8426537
0
ARC
8
DEFAULT_255_2_778
10
12.3325997
20
10.5466862
40
0.563548
50
323.830489
51
332.4872804
0
ARC
8
DEFAULT_255_2_778
10
12.2168975
20
10.6100973
40
0.6954632
50
332.25728
51
333.415577
0
ARC
8
DEFAULT_255_2_778
10
12.3234625
20
10.3280359
40
0.7959837
50
279.7980259
51
288.7659988
0
ARC
8
DEFAULT_255_2_778
10
12.3346065
20
10.2811443
40
0.7478855
50
275.6689909
51
279.5680689
0
ARC
8
DEFAULT_255_2_778
10
12.2753605
20
11.1276163
40
1.5962606
50
269.0659462
51
274.7838423
0
ARC
8
DEFAULT_255_2_778
10
12.240425
20
38.9104879
40
29.3789215
50
269.994166
51
270.0173842
0
ARC
8
DEFAULT_255_2_778
10
12.2452375
20
10.4787599
40
0.9472256
50
224.2568154
51
269.5279508
0
ARC
8
DEFAULT_255_2_778
10
12.2431779
20
10.4799369
40
0.9465746
50
180.4582396
51
224.3948435
0
ARC
8
DEFAULT_255_2_778
10
13.0318005
20
10.4900291
40
1.7352568
50
176.4819354
51
180.5832081
0
ARC
8
DEFAULT_255_2_778
10
12.1874109
20
10.5337256
40
0.889815
50
174.3441628
51
175.9539018
0
ARC
8
DEFAULT_255_2_778
10
11.7392241
20
10.5917033
40
0.4383048
50
155.8011707
51
176.1124992
0
ARC
8
DEFAULT_255_2_778
10
9.9829936
20
8.6290976
40
2.5355957
50
57.6588614
51
78.8353579
0
ARC
8
DEFAULT_255_2_778
10
9.9832769
20
8.6388106
40
2.5260122
50
78.7990045
51
82.1960609
0
ARC
8
DEFAULT_255_2_778
10
9.9918187
20
8.7095776
40
2.454741
50
82.1693042
51
89.9641656
0
ARC
8
DEFAULT_255_2_778
10
9.9926541
20
8.8298234
40
2.3344949
50
89.9828224
51
94.730425
0
ARC
8
DEFAULT_255_2_778
10
9.789096
20
3.0197928
40
8.1365811
50
89.9222765
51
93.5150461
0
ARC
8
DEFAULT_255_2_778
10
9.6686426
20
4.9479846
40
6.2046319
50
93.4965021
51
97.9112581
0
ARC
8
DEFAULT_255_2_778
10
9.4569485
20
6.4554769
40
4.6823503
50
97.8844686
51
103.4512301
0
ARC
8
DEFAULT_255_2_778
10
9.1819939
20
7.5948303
40
3.5102929
50
103.4124091
51
110.6781808
0
ARC
8
DEFAULT_255_2_778
10
8.8780605
20
8.3944754
40
2.6548381
50
110.6353617
51
120.3518356
0
ARC
8
DEFAULT_255_2_778
10
8.5991673
20
8.8685223
40
2.1048379
50
120.3211341
51
134.5022676
0
ARC
8
DEFAULT_255_2_778
10
8.7197877
20
8.8134087
40
2.2291975
50
135.7206057
51
168.3445041
0
ARC
8
DEFAULT_255_2_778
10
10.6869918
20
8.3164039
40
4.2571834
50
167.142172
51
176.4537692
0
ARC
8
DEFAULT_255_2_778
10
13.680755
20
8.0972421
40
7.2588478
50
176.1888223
51
180.1545159
0
ARC
8
DEFAULT_255_2_778
10
3.5448717
20
7.7842618
40
2.891984
50
0.1096945
51
5.8229291
0
ARC
8
DEFAULT_255_2_778
10
4.5082005
20
7.7494575
40
1.9290717
50
331.7896613
51
1.1982673
0
ARC
8
DEFAULT_255_2_778
10
5.1803808
20
7.4010235
40
1.1720749
50
278.4373258
51
331.2666019
0
ARC
8
DEFAULT_255_2_778
10
5.2320617
20
7.2047697
40
0.970619
50
270.0239581
51
277.1193193
0
ARC
8
DEFAULT_255_2_778
10
5.232287
20
7.1744229
40
0.9402722
50
264.3204627
51
270.0110005
0
ARC
8
DEFAULT_255_2_778
10
5.144668
20
6.8598178
40
0.6210751
50
264.7567353
51
269.4986565
0
ARC
8
DEFAULT_255_2_778
10
5.2228936
20
7.7484723
40
1.5131636
50
261.5071234
51
264.8821047
0
ARC
8
DEFAULT_255_2_778
10
5.3664054
20
8.7340106
40
2.509092
50
258.6294395
51
261.5896188
0
ARC
8
DEFAULT_255_2_778
10
5.4167571
20
9.0011749
40
2.7809414
50
255.7302957
51
258.6976138
0
ARC
8
DEFAULT_255_2_778
10
5.1812004
20
8.1291179
40
1.8777764
50
248.2691172
51
256.1372905
0
ARC
8
DEFAULT_255_2_778
10
4.7603697
20
7.0746312
40
0.7424175
50
238.0910469
51
248.3079003
0
ARC
8
DEFAULT_255_2_778
10
4.4956066
20
6.6569293
40
0.2479205
50
217.9623037
51
239.0084463
0
ARC
8
DEFAULT_255_2_778
10
4.380132
20
6.5636295
40
0.0995178
50
195.0631618
51
216.5080344
0
ARC
8
DEFAULT_255_2_778
10
4.3727899
20
7.755898
40
1.2181359
50
269.8468354
51
308.5501679
0
ARC
8
DEFAULT_255_2_778
10
4.3414116
20
7.7898697
40
1.2642633
50
308.7028349
51
345.8102732
0
ARC
8
DEFAULT_255_2_778
10
4.2444885
20
7.8180716
40
1.3651471
50
345.6599177
51
0.1005111
0
ARC
8
DEFAULT_255_2_778
10
5.0275858
20
6.8248451
40
1.3376225
50
90.7047334
51
144.2333295
0
ARC
8
DEFAULT_255_2_778
10
2.8152335
20
6.6168476
40
1.4999569
50
41.2921097
51
66.4669317
0
ARC
8
DEFAULT_255_2_778
10
2.8176077
20
6.6657034
40
1.4543196
50
65.7841547
51
89.4946931
0
ARC
8
DEFAULT_255_2_778
10
3.5291043
20
7.8626678
40
1.2976709
50
179.969152
51
222.0696293
0
ARC
8
DEFAULT_255_2_778
10
3.578157
20
7.9063418
40
1.3633474
50
222.0508705
51
257.3153669
0
ARC
8
DEFAULT_255_2_778
10
3.5981596
20
7.9827906
40
1.4423253
50
257.2070212
51
270.0664978
0
ARC
8
DEFAULT_255_2_778
10
4.4258684
20
6.5442166
40
0.6122463
50
180.3509508
51
187.7964786
0
ARC
8
DEFAULT_255_2_778
10
4.7232246
20
6.5832861
40
0.9121552
50
187.6941336
51
194.2778939
0
ARC
8
DEFAULT_255_2_778
10
4.9795226
20
6.6476087
40
1.1764003
50
194.2353351
51
200.5973801
0
ARC
8
DEFAULT_255_2_778
10
5.1958151
20
6.7283119
40
1.4072578
50
200.5751031
51
206.7963843
0
ARC
8
DEFAULT_255_2_778
10
5.3902511
20
6.8262369
40
1.6249609
50
206.7876876
51
212.9523101
0
ARC
8
DEFAULT_255_2_778
10
5.580634
20
6.9494308
40
1.8517257
50
212.9466752
51
218.8669308
0
ARC
8
DEFAULT_255_2_778
10
5.7754434
20
7.1061372
40
2.1017409
50
218.8605761
51
224.326064
0
ARC
8
DEFAULT_255_2_778
10
5.9599118
20
7.2850708
40
2.3587334
50
224.3044217
51
228.462196
0
ARC
8
DEFAULT_255_2_778
10
6.1699035
20
7.5242033
40
2.6769772
50
228.4919352
51
233.8393092
0
ARC
8
DEFAULT_255_2_778
10
6.4323954
20
7.8832735
40
3.1217618
50
233.8382656
51
238.8429489
0
ARC
8
DEFAULT_255_2_778
10
6.7136306
20
8.3479501
40
3.664917
50
238.8390301
51
243.4111937
0
ARC
8
DEFAULT_255_2_778
10
7.003609
20
8.9262696
40
4.3118643
50
243.4050284
51
247.498289
0
ARC
8
DEFAULT_255_2_778
10
7.2908665
20
9.6179757
40
5.0608462
50
247.4907662
51
251.0955665
0
ARC
8
DEFAULT_255_2_778
10
7.5722283
20
10.4385547
40
5.928322
50
251.0924225
51
254.4037544
0
ARC
8
DEFAULT_255_2_778
10
7.841827
20
11.4018778
40
6.9286591
50
254.3981618
51
257.3448243
0
ARC
8
DEFAULT_255_2_778
10
8.090298
20
12.5059768
40
8.0603713
50
257.3409471
51
260.006548
0
ARC
8
DEFAULT_255_2_778
10
8.2996728
20
13.6849087
40
9.2577501
50
259.9965754
51
262.1338382
0
ARC
8
DEFAULT_255_2_778
10
8.4792046
20
14.9878153
40
10.5729677
50
262.1363996
51
264.3091446
0
ARC
8
DEFAULT_255_2_778
10
8.6293093
20
16.4853148
40
12.0779711
50
264.3050108
51
266.2147581
0
ARC
8
DEFAULT_255_2_778
10
8.7396824
20
18.1539477
40
13.7502504
50
266.2148648
51
268.0633128
0
ARC
8
DEFAULT_255_2_778
10
8.8009246
20
19.9148009
40
15.5121675
50
268.0570377
51
269.5375161
0
ARC
8
DEFAULT_255_2_778
10
8.81394
20
21.0925205
40
16.6899542
50
269.5254709
51
270.001351
0
ARC
8
DEFAULT_255_2_778
10
8.8190775
20
17.3474004
40
12.9448348
50
269.9790025
51
271.0670181
0
ARC
8
DEFAULT_255_2_778
10
8.8651685
20
14.9071534
40
10.5041528
50
271.0635221
51
272.5728076
0
ARC
8
DEFAULT_255_2_778
10
8.9550284
20
12.9738197
40
8.5687349
50
272.5528536
51
275.0646377
0
ARC
8
DEFAULT_255_2_778
10
9.116672
20
11.203399
40
6.790958
50
275.0248096
51
279.2132182
0
ARC
8
DEFAULT_255_2_778
10
9.6375679
20
8.5283438
40
4.0679191
50
278.0035866
51
301.0696177
0
ARC
8
DEFAULT_255_2_778
10
10.2823958
20
7.3490861
40
2.7256352
50
302.252535
51
319.8228734
0
ARC
8
DEFAULT_255_2_778
10
10.2963956
20
7.3256183
40
2.699813
50
320.0117206
51
331.3050552
0
ARC
8
DEFAULT_255_2_778
10
10.0152705
20
7.4782892
40
3.0197171
50
331.3251678
51
340.2860596
0
ARC
8
DEFAULT_255_2_778
10
9.5127455
20
7.6588781
40
3.5537055
50
340.2781517
51
347.5207483
0
ARC
8
DEFAULT_255_2_778
10
8.8087663
20
7.8159037
40
4.2749839
50
347.5047239
51
353.400771
0
ARC
8
DEFAULT_255_2_778
10
7.910459
20
7.9211115
40
5.1794303
50
353.3866793
51
358.2971785
0
ARC
8
DEFAULT_255_2_778
10
7.1530638
20
7.9505608
40
5.93737
50
358.2303044
51
0.0116342
0
ARC
8
DEFAULT_255_2_778
10
9.2117358
20
7.6506496
40
3.8903686
50
4.4391676
51
10.354457
0
ARC
8
DEFAULT_255_2_778
10
9.146587
20
7.6402273
40
3.9563299
50
10.3333547
51
10.7270072
0
ARC
8
DEFAULT_255_2_778
10
9.5757372
20
7.7512978
40
3.5141272
50
10.2500661
51
30.0213907
0
ARC
8
DEFAULT_255_2_778
10
10.3175988
20
8.136856
40
2.6791512
50
30.8199505
51
32.4975532
0
LINE
8
DEFAULT_255_2_778
10
8.7312336
20
16.8009664
11
8.7312336
21
16.8009664
0
LINE
8
DEFAULT_255_2_778
10
16.1712336
20
8.3342664
11
16.1712336
21
8.3342664
0
LINE
8
DEFAULT_255_2_778
10
12.8362336
20
10.3011664
11
13.0928336
21
10.8144664
0
LINE
8
DEFAULT_255_2_778
10
13.0928336
20
10.8144664
11
13.9051336
21
12.1374664
0
LINE
8
DEFAULT_255_2_778
10
13.9051336
20
12.1374664
11
12.0266336
21
11.0256664
0
LINE
8
DEFAULT_255_2_778
10
12.8388336
20
10.2988664
11
12.8362336
21
10.3011664
0
LINE
8
DEFAULT_255_2_778
10
4.2840336
20
6.5377664
11
4.3695336
21
6.5377664
0
LINE
8
DEFAULT_255_2_778
10
5.6096336
20
7.8204664
11
5.6096336
21
8.1623664
0
LINE
8
DEFAULT_255_2_778
10
5.6096336
20
8.1623664
11
5.0111336
21
8.1623664
0
LINE
8
DEFAULT_255_2_778
10
2.8304336
20
8.1199664
11
2.2314336
21
8.1199664
0
LINE
8
DEFAULT_255_2_778
10
2.2314336
20
8.1199664
11
2.2314336
21
7.8633664
0
LINE
8
DEFAULT_255_2_778
10
3.5998336
20
6.5404664
11
3.8136336
21
6.5404664
0
LINE
8
DEFAULT_255_2_778
10
12.5772336
20
9.5762664
11
12.5795336
21
9.5743664
0
ENDSEC
0
EOF