0
SECTION
2
HEADER
9
$MEASUREMENT
70
1
0
ENDSEC
0
SECTION
2
TABLES
0
TABLE
2
LTYPE
0
LTYPE
72
65
70
64
2
CONTINUOUS
3
______
73
0
40
0
0
ENDTAB
0
TABLE
2
LAYER
0
LAYER
2
DEFAULT_255_2_778
70
0
62
255
6
CONTINUOUS
0
ENDTAB
0
ENDSEC
0
SECTION
2
ENTITIES
0
ARC
8
DEFAULT_255_2_778
10
20.9511125
20
2.3382059
40
2.118927
50
90.4029086
51
103.4553649
0
ARC
8
DEFAULT_255_2_778
10
20.9519506
20
2.3363852
40
2.1207536
50
89.9999691
51
90.4252066
0
ARC
8
DEFAULT_255_2_778
10
20.9519681
20
2.3426403
40
2.1144984
50
88.6180834
51
90.0004409
0
ARC
8
DEFAULT_255_2_778
10
20.9968051
20
2.7013797
40
1.7551549
50
53.4104726
51
89.7989897
0
ARC
8
DEFAULT_255_2_778
10
21.2083384
20
3.0418222
40
1.3561179
50
37.3508734
51
52.012511
0
ARC
8
DEFAULT_255_2_778
10
20.9756836
20
2.899233
40
1.6278088
50
17.4785893
51
36.3722781
0
ARC
8
DEFAULT_255_2_778
10
18.9778918
20
2.2365311
40
3.732541
50
13.6073086
51
17.9708638
0
ARC
8
DEFAULT_255_2_778
10
21.0329769
20
2.9620086
40
0.7456158
50
11.4459733
51
53.9831809
0
ARC
8
DEFAULT_255_2_778
10
20.9184137
20
2.8151886
40
0.9317576
50
53.5939156
51
88.4888955
0
ARC
8
DEFAULT_255_2_778
10
20.9188422
20
2.8394552
40
0.9074883
50
88.4755331
51
89.9988091
0
ARC
8
DEFAULT_255_2_778
10
20.9058416
20
2.9619814
40
0.7850701
50
89.0497726
51
130.9291992
0
ARC
8
DEFAULT_255_2_778
10
20.8753271
20
3.0119626
40
0.7273821
50
131.6924725
51
133.3986871
0
ARC
8
DEFAULT_255_2_778
10
21.3895166
20
2.6742572
40
1.3335767
50
139.4929149
51
177.9093129
0
ARC
8
DEFAULT_255_2_778
10
21.9999188
20
2.58352
40
1.9480844
50
175.8969117
51
178.6535612
0
ARC
8
DEFAULT_255_2_778
10
22.085244
20
2.5811433
40
2.0334419
50
178.6431046
51
180.0032776
0
ARC
8
DEFAULT_255_2_778
10
22.2633236
20
2.5845743
40
2.2115243
50
180.0919035
51
188.3538244
0
ARC
8
DEFAULT_255_2_778
10
22.8089935
20
2.8338713
40
2.7926441
50
191.7898388
51
195.5522265
0
ARC
8
DEFAULT_255_2_778
10
21.2736
20
2.3520156
40
1.1854385
50
193.0115566
51
223.6477167
0
ARC
8
DEFAULT_255_2_778
10
20.8753225
20
2.0196899
40
0.6687542
50
226.5988363
51
247.9224768
0
ARC
8
DEFAULT_255_2_778
10
20.9099026
20
2.1634676
40
0.8152835
50
249.468465
51
265.0862163
0
ARC
8
DEFAULT_255_2_778
10
20.9119059
20
2.1804256
40
0.832351
50
265.0488127
51
265.534716
0
ARC
8
DEFAULT_255_2_778
10
20.9121279
20
2.1844858
40
0.836416
50
265.5412071
51
270.0057397
0
ARC
8
DEFAULT_255_2_778
10
20.9182787
20
2.2050398
40
0.8569915
50
269.5943769
51
348.4960099
0
ARC
8
DEFAULT_255_2_778
10
20.9712408
20
2.1729308
40
0.7989631
50
349.9950753
51
352.89231
0
ARC
8
DEFAULT_255_2_778
10
20.5106548
20
2.313228
40
2.1260407
50
351.074354
51
353.4136857
0
ARC
8
DEFAULT_255_2_778
10
20.9877313
20
2.187057
40
1.6359491
50
314.0517046
51
352.8476204
0
ARC
8
DEFAULT_255_2_778
10
21.3724996
20
1.8536704
40
1.1296938
50
293.2568902
51
311.7824089
0
ARC
8
DEFAULT_255_2_778
10
20.9538856
20
2.8279969
40
2.1901416
50
281.5102796
51
293.2538021
0
ARC
8
DEFAULT_255_2_778
10
20.92616
20
2.9412006
40
2.3066056
50
270.8947622
51
281.6240174
0
ARC
8
DEFAULT_255_2_778
10
20.9285403
20
2.8782447
40
2.2436207
50
270.0010816
51
270.8590914
0
ARC
8
DEFAULT_255_2_778
10
20.904856
20
2.5437297
40
1.909253
50
244.6538113
51
270.7120422
0
ARC
8
DEFAULT_255_2_778
10
20.6867882
20
2.0636796
40
1.3820875
50
213.5383714
51
244.304465
0
ARC
8
DEFAULT_255_2_778
10
20.6772649
20
2.0500377
40
1.366626
50
209.1877319
51
213.282245
0
ARC
8
DEFAULT_255_2_778
10
111.4143779
20
-18.6044298
40
94.0780762
50
167.6977133
51
167.7333385
0
ARC
8
DEFAULT_255_2_778
10
16.4479494
20
2.2138221
40
3.145156
50
345.7705964
51
357.9891057
0
ARC
8
DEFAULT_255_2_778
10
18.0434125
20
2.1035458
40
1.5477559
50
359.9968284
51
0.9243193
0
ARC
8
DEFAULT_255_2_778
10
18.2879933
20
2.1134027
40
1.3030612
50
0.664451
51
12.0875405
0
ARC
8
DEFAULT_255_2_778
10
17.5351399
20
1.9555139
40
2.0722884
50
11.9973025
51
25.2326937
0
ARC
8
DEFAULT_255_2_778
10
44.3460285
20
13.4363154
40
27.094747
50
203.0149844
51
203.0244296
0
ARC
8
DEFAULT_255_2_778
10
22.7942042
20
4.3279634
40
3.6975296
50
199.6205585
51
203.6782985
0
ARC
8
DEFAULT_255_2_778
10
20.410297
20
3.0905646
40
1.098941
50
180.0000405
51
180.2186215
0
ARC
8
DEFAULT_255_2_778
10
20.6439946
20
3.0409897
40
1.3335602
50
122.2389812
51
177.8695794
0
ARC
8
DEFAULT_255_2_778
10
20.7712853
20
2.9347002
40
1.4922371
50
102.0105096
51
124.1962488
0
LINE
8
DEFAULT_255_2_778
10
22.605664
20
3.1146714
11
21.763764
21
3.1099714
0
LINE
8
DEFAULT_255_2_778
10
21.764064
20
2.0740714
11
22.622664
21
2.0693714
0
LINE
8
DEFAULT_255_2_778
10
20.460764
20
4.3942714
11
20.458064
21
4.3989714
0
ARC
8
DEFAULT_255_2_778
10
2.0863328
20
5.462082
40
11.8165714
50
342.3792015
51
348.1720362
0
LINE
8
DEFAULT_255_2_778
10
13.6520085
20
3.0399947
11
13.6563201
21
3.0590304
0
ARC
8
DEFAULT_255_2_778
10
29.8410163
20
-0.4577022
40
16.562361
50
164.7195113
51
167.7409043
0
ARC
8
DEFAULT_255_2_778
10
14.5614649
20
3.7125633
40
0.7239446
50
162.4337882
51
164.4023174
0
ARC
8
DEFAULT_255_2_778
10
14.3808868
20
3.8046843
40
0.525043
50
109.6301779
51
166.0729079
0
ARC
8
DEFAULT_255_2_778
10
14.291094
20
3.9594636
40
0.3506104
50
89.9096205
51
104.2989526
0
ARC
8
DEFAULT_255_2_778
10
14.2915811
20
3.9372712
40
0.3728025
50
86.6015344
51
89.9898558
0
ARC
8
DEFAULT_255_2_778
10
14.3584515
20
3.9429808
40
0.3691622
50
90.0399846
51
96.9658003
0
ARC
8
DEFAULT_255_2_778
10
14.3281265
20
3.8762296
40
0.4369492
50
20.9855327
51
86.0542324
0
ARC
8
DEFAULT_255_2_778
10
14.1212766
20
3.7402832
40
0.68082
50
14.6656298
51
25.4376772
0
ARC
8
DEFAULT_255_2_778
10
14.1455526
20
3.746847
40
0.6556732
50
12.0490566
51
14.6478204
0
ARC
8
DEFAULT_255_2_778
10
-2.8662554
20
6.9355682
40
18.8405922
50
344.4882574
51
349.8126549
0
ARC
8
DEFAULT_255_2_778
10
714.9453738
20
-133.2532162
40
712.53458
50
168.9226802
51
168.9263897
0
ARC
8
DEFAULT_255_2_778
10
58.8962041
20
-4.7113549
40
44.0113061
50
168.1821319
51
169.0501837
0
ARC
8
DEFAULT_255_2_778
10
13.774672
20
1.8286392
40
2.2168182
50
342.6914674
51
345.8448072
0
ARC
8
DEFAULT_255_2_778
10
15.085555
20
1.3658382
40
0.8292269
50
308.7849413
51
346.2752757
0
ARC
8
DEFAULT_255_2_778
10
15.3196035
20
1.1320893
40
0.5017062
50
288.8596652
51
304.6676926
0
ARC
8
DEFAULT_255_2_778
10
15.3733022
20
1.12483
40
0.4799322
50
270.8621703
51
283.0633782
0
ARC
8
DEFAULT_255_2_778
10
15.3739239
20
1.1103026
40
0.4653974
50
269.9971139
51
270.8125534
0
ARC
8
DEFAULT_255_2_778
10
15.4114486
20
1.2377733
40
0.5940559
50
196.8743566
51
266.3761299
0
ARC
8
DEFAULT_255_2_778
10
15.4483993
20
1.2729476
40
0.6400368
50
194.6181063
51
198.9278357
0
ARC
8
DEFAULT_255_2_778
10
13.1814617
20
1.2935171
40
0.6835462
50
345.0841869
51
346.9970309
0
ARC
8
DEFAULT_255_2_778
10
13.2153814
20
1.2626518
40
0.6431707
50
290.0289198
51
346.9636767
0
ARC
8
DEFAULT_255_2_778
10
13.3250355
20
1.0563226
40
0.4130335
50
270.0106261
51
285.535969
0
ARC
8
DEFAULT_255_2_778
10
13.3255149
20
1.0694328
40
0.4261438
50
259.6537062
51
269.9458455
0
ARC
8
DEFAULT_255_2_778
10
13.3315696
20
1.1700459
40
0.5263477
50
202.9632282
51
260.9724455
0
ARC
8
DEFAULT_255_2_778
10
13.8207145
20
1.4610166
40
1.092971
50
197.572698
51
207.007158
0
ARC
8
DEFAULT_255_2_778
10
14.0593563
20
1.5413164
40
1.3447278
50
193.6085968
51
197.7645541
0
LINE
8
DEFAULT_255_2_778
10
11.9199807
20
4.3046181
11
12.8422807
21
4.3094181
0
LINE
8
DEFAULT_255_2_778
10
12.8422807
20
4.3094181
11
13.3484807
21
1.8850181
0
LINE
8
DEFAULT_255_2_778
10
14.7867807
20
3.8837181
11
15.2880807
21
1.8969181
0
LINE
8
DEFAULT_255_2_778
10
15.8177807
20
4.3022181
11
16.7165807
21
4.3022181
0
LINE
8
DEFAULT_255_2_778
10
16.7165807
20
4.3022181
11
15.9241807
21
1.2865181
0
LINE
8
DEFAULT_255_2_778
10
14.8290807
20
1.1114181
11
14.3157807
21
2.9420181
0
LINE
8
DEFAULT_255_2_778
10
14.3157807
20
2.9420181
11
13.8474807
21
1.1397181
0
LINE
8
DEFAULT_255_2_778
10
12.7523807
20
1.2249181
11
11.9244807
21
4.2996181
0
LINE
8
DEFAULT_255_2_778
10
11.9244807
20
4.2996181
11
11.9199807
21
4.3046181
0
ARC
8
DEFAULT_255_2_778
10
23.8109847
20
5.7762313
40
2.3806066
50
266.2132519
51
270.1789786
0
ARC
8
DEFAULT_255_2_778
10
23.7746488
20
10.0663579
40
6.6708651
50
270.3759613
51
272.5498
0
ARC
8
DEFAULT_255_2_778
10
25.1369639
20
-24.2962722
40
27.7188575
50
92.0775167
51
92.2030561
0
ARC
8
DEFAULT_255_2_778
10
24.345737
20
-1.9869123
40
5.3955085
50
90.2147355
51
92.2691107
0
ARC
8
DEFAULT_255_2_778
10
24.3841341
20
1.9911849
40
1.4185851
50
67.8252221
51
92.3682452
0
ARC
8
DEFAULT_255_2_778
10
24.528337
20
2.4387661
40
0.9503408
50
61.0833322
51
65.6907847
0
ARC
8
DEFAULT_255_2_778
10
24.4407654
20
2.3185686
40
1.0980531
50
359.968711
51
60.1162178
0
ARC
8
DEFAULT_255_2_778
10
24.3834696
20
2.2984305
40
1.1555139
50
0.0012393
51
0.9688553
0
ARC
8
DEFAULT_255_2_778
10
24.3939292
20
2.2984553
40
1.1450543
50
359.648075
51
0.0000091
0
ARC
8
DEFAULT_255_2_778
10
24.384282
20
2.241415
40
0.3486867
50
356.9104762
51
0.0071368
0
ARC
8
DEFAULT_255_2_778
10
24.3771461
20
2.2414417
40
0.3558227
50
0.0026971
51
1.475633
0
ARC
8
DEFAULT_255_2_778
10
24.370929
20
2.249436
40
0.3619237
50
0.1850223
51
79.8736983
0
ARC
8
DEFAULT_255_2_778
10
24.0836403
20
-0.4301967
40
3.056133
50
83.4064459
51
90.4830392
0
ARC
8
DEFAULT_255_2_778
10
24.1031097
20
-7.8380906
40
10.4640161
50
90.2476812
51
91.7176896
0
ARC
8
DEFAULT_255_2_778
10
23.3093827
20
20.2955829
40
17.6808782
50
271.0408548
51
271.5558814
0
ARC
8
DEFAULT_255_2_778
10
24.0460034
20
2.6714558
40
5.8596437
50
359.9133364
51
1.9762024
0
ARC
8
DEFAULT_255_2_778
10
14.0091198
20
2.7180094
40
15.8966171
50
358.6306221
51
359.8002627
0
ARC
8
DEFAULT_255_2_778
10
45.8963769
20
1.9573394
40
15.9997115
50
178.6362983
51
179.809713
0
ARC
8
DEFAULT_255_2_778
10
34.4833589
20
1.9707789
40
4.5867768
50
179.5041111
51
186.4662943
0
ARC
8
DEFAULT_255_2_778
10
30.2939377
20
1.8025878
40
0.5068649
50
223.4163659
51
265.600613
0
ARC
8
DEFAULT_255_2_778
10
30.7915832
20
4.4618603
40
3.2098025
50
260.377703
51
261.4946884
0
ARC
8
DEFAULT_255_2_778
10
33.43017
20
21.8292868
40
20.776515
50
261.3818796
51
261.4310419
0
ARC
8
DEFAULT_255_2_778
10
30.1327855
20
-0.2585227
40
1.5563419
50
75.8837438
51
82.5539095
0
ARC
8
DEFAULT_255_2_778
10
30.8330966
20
-14.2608877
40
14.8931158
50
91.2432393
51
91.7224512
0
ARC
8
DEFAULT_255_2_778
10
30.1225835
20
8.598676
40
7.9775089
50
270.2548482
51
271.8882247
0
ARC
8
DEFAULT_255_2_778
10
30.158136
20
4.7129651
40
4.091719
50
269.8329038
51
269.9990312
0
ARC
8
DEFAULT_255_2_778
10
30.1036681
20
2.3823558
40
1.7616059
50
255.6332159
51
271.3835718
0
ARC
8
DEFAULT_255_2_778
10
29.8327064
20
1.3370606
40
0.681774
50
212.1719382
51
255.8954785
0
ARC
8
DEFAULT_255_2_778
10
29.8801575
20
1.3575584
40
0.732896
50
205.0432278
51
211.5531148
0
ARC
8
DEFAULT_255_2_778
10
31.3976199
20
1.7377216
40
2.2881019
50
178.4406448
51
197.5618164
0
ARC
8
DEFAULT_255_2_778
10
33.6965378
20
1.8060437
40
4.5861764
50
179.9999972
51
180.0756726
0
ARC
8
DEFAULT_255_2_778
10
37.8432135
20
1.7577686
40
8.7329853
50
177.4006893
51
179.6832711
0
ARC
8
DEFAULT_255_2_778
10
123.2795345
20
-1.6124976
40
94.2356154
50
177.6857787
51
177.7094491
0
ARC
8
DEFAULT_255_2_778
10
19.5237375
20
2.644799
40
9.6076819
50
357.3030002
51
359.6067946
0
ARC
8
DEFAULT_255_2_778
10
25.7049909
20
2.5913763
40
3.426225
50
359.7907697
51
4.3243477
0
LINE
8
DEFAULT_255_2_778
10
22.806862
20
4.3043221
11
23.634762
21
4.3067221
0
LINE
8
DEFAULT_255_2_778
10
23.634762
20
4.3067221
11
23.653762
21
3.4008221
0
LINE
8
DEFAULT_255_2_778
10
25.538962
20
2.2914221
11
25.538962
21
0.6499221
0
LINE
8
DEFAULT_255_2_778
10
25.538962
20
0.6499221
11
24.734862
21
0.6475221
0
LINE
8
DEFAULT_255_2_778
10
24.734862
20
0.6475221
11
24.732462
21
2.2226221
0
LINE
8
DEFAULT_255_2_778
10
23.630562
20
2.6176221
11
23.630562
21
0.6475221
0
LINE
8
DEFAULT_255_2_778
10
23.630562
20
0.6475221
11
22.807362
21
0.6475221
0
LINE
8
DEFAULT_255_2_778
10
22.807362
20
0.6475221
11
22.807362
21
4.3041221
0
LINE
8
DEFAULT_255_2_778
10
22.807362
20
4.3041221
11
22.806862
21
4.3043221
0
LINE
8
DEFAULT_255_2_778
10
29.128862
20
4.3043221
11
29.909362
21
4.3043221
0
LINE
8
DEFAULT_255_2_778
10
29.909362
20
4.3043221
11
29.909362
21
3.4812221
0
LINE
8
DEFAULT_255_2_778
10
29.909362
20
3.4812221
11
30.536162
21
3.4812221
0
LINE
8
DEFAULT_255_2_778
10
30.536162
20
3.4812221
11
30.536162
21
2.8735221
0
LINE
8
DEFAULT_255_2_778
10
30.536162
20
2.8735221
11
29.902162
21
2.8735221
0
LINE
8
DEFAULT_255_2_778
10
30.512362
20
1.2508221
11
30.509962
21
0.6287221
0
LINE
8
DEFAULT_255_2_778
10
29.121462
20
2.8497221
11
28.518462
21
2.8544221
0
LINE
8
DEFAULT_255_2_778
10
28.518462
20
2.8544221
11
28.518462
21
3.4812221
0
LINE
8
DEFAULT_255_2_778
10
28.518462
20
3.4812221
11
29.128562
21
3.4812221
0
LINE
8
DEFAULT_255_2_778
10
29.128562
20
3.4812221
11
29.128562
21
4.3091221
0
LINE
8
DEFAULT_255_2_778
10
29.128562
20
4.3091221
11
29.128862
21
4.3043221
0
ARC
8
DEFAULT_255_2_778
10
16.2221232
20
1.9568148
40
3.0642477
50
358.4344446
51
359.993391
0
ARC
8
DEFAULT_255_2_778
10
16.5236088
20
1.9594767
40
2.7627638
50
359.9374654
51
4.7515383
0
ARC
8
DEFAULT_255_2_778
10
17.5773718
20
2.0978136
40
1.7019148
50
3.048723
51
32.5729035
0
ARC
8
DEFAULT_255_2_778
10
18.095476
20
2.3870029
40
1.1101723
50
34.3914776
51
55.9096506
0
ARC
8
DEFAULT_255_2_778
10
17.8966771
20
1.9921804
40
1.5496094
50
58.0051405
51
76.9249548
0
ARC
8
DEFAULT_255_2_778
10
17.8513386
20
1.8330311
40
1.714909
50
76.6523523
51
88.8045753
0
ARC
8
DEFAULT_255_2_778
10
17.8521091
20
1.8550997
40
1.6928293
50
88.8150664
51
89.9992091
0
ARC
8
DEFAULT_255_2_778
10
17.8322891
20
2.0839046
40
1.4641589
50
89.2234597
51
119.7725594
0
ARC
8
DEFAULT_255_2_778
10
17.6700023
20
2.3936253
40
1.1148103
50
120.4370569
51
147.8415265
0
ARC
8
DEFAULT_255_2_778
10
18.3068875
20
2.0590326
40
1.8329228
50
149.5839076
51
177.9696098
0
ARC
8
DEFAULT_255_2_778
10
18.2393573
20
2.0623803
40
1.7653168
50
178.0005425
51
179.9975511
0
ARC
8
DEFAULT_255_2_778
10
17.9312717
20
2.0306306
40
1.4575785
50
178.7488901
51
220.5897281
0
ARC
8
DEFAULT_255_2_778
10
17.7922897
20
1.9451138
40
1.2966472
50
221.7159921
51
222.0946163
0
ARC
8
DEFAULT_255_2_778
10
17.8049531
20
1.976082
40
1.3268828
50
222.7203421
51
264.8096493
0
ARC
8
DEFAULT_255_2_778
10
17.8875332
20
2.3943297
40
1.7514492
50
263.3568652
51
270.0433776
0
ARC
8
DEFAULT_255_2_778
10
17.88879
20
2.4778575
40
1.8349764
50
270.0021598
51
271.5460544
0
ARC
8
DEFAULT_255_2_778
10
17.8833884
20
2.572203
40
1.9294354
50
271.6308089
51
291.9034888
0
ARC
8
DEFAULT_255_2_778
10
17.9231234
20
2.4641982
40
1.8144073
50
292.0116105
51
293.414302
0
ARC
8
DEFAULT_255_2_778
10
18.1936773
20
1.7653864
40
1.0660329
50
294.9955424
51
337.1049987
0
ARC
8
DEFAULT_255_2_778
10
16.8629206
20
2.4953699
40
2.5805915
50
333.6670293
51
337.9083936
0
ARC
8
DEFAULT_255_2_778
10
16.0931167
20
2.8175109
40
3.4150447
50
337.7577967
51
338.1950193
0
ARC
8
DEFAULT_255_2_778
10
17.8912207
20
2.0480929
40
0.7804816
50
269.9750373
51
320.704433
0
ARC
8
DEFAULT_255_2_778
10
17.890876
20
2.0471834
40
0.7795721
50
266.4708217
51
270.0003455
0
ARC
8
DEFAULT_255_2_778
10
17.8909279
20
2.0464394
40
0.7788327
50
244.1568007
51
266.4636418
0
ARC
8
DEFAULT_255_2_778
10
17.7934103
20
1.7801584
40
0.4974797
50
194.0899002
51
240.8945626
0
ARC
8
DEFAULT_255_2_778
10
19.2736644
20
2.3459434
40
2.0794897
50
197.1640723
51
199.2880969
0
ARC
8
DEFAULT_255_2_778
10
27.0003188
20
4.7363307
40
10.1674522
50
196.7819958
51
197.185052
0
ARC
8
DEFAULT_255_2_778
10
14.0858442
20
0.8430414
40
3.321112
50
16.7589905
51
18.0213332
0
ARC
8
DEFAULT_255_2_778
10
17.935398
20
2.2100194
40
0.7389002
50
120.4064739
51
163.336649
0
ARC
8
DEFAULT_255_2_778
10
17.7844042
20
2.4196881
40
0.4822503
50
89.8808744
51
117.5412972
0
ARC
8
DEFAULT_255_2_778
10
17.7847592
20
2.3710261
40
0.5309116
50
81.5475904
51
89.9301095
0
ARC
8
DEFAULT_255_2_778
10
17.7797679
20
2.3323821
40
0.56987
50
80.784953
51
81.6222962
0
ARC
8
DEFAULT_255_2_778
10
17.954064
20
2.3950588
40
0.5066891
50
91.2677355
51
99.4322636
0
ARC
8
DEFAULT_255_2_778
10
17.9528308
20
2.4231272
40
0.4786007
50
90.0023515
51
91.1944745
0
ARC
8
DEFAULT_255_2_778
10
17.9253255
20
2.3591963
40
0.5432274
50
25.4420272
51
87.0997738
0
ARC
8
DEFAULT_255_2_778
10
17.6082749
20
2.1365988
40
0.927425
50
17.916127
51
29.4489602
0
LINE
8
DEFAULT_255_2_778
10
19.2638271
20
1.5489974
11
18.4952271
21
1.5537974
0
LINE
8
DEFAULT_255_2_778
10
17.2440271
20
1.8704974
11
19.2852271
21
1.8775974
0
LINE
8
DEFAULT_255_2_778
10
19.2852271
20
1.8775974
11
19.2852271
21
1.8730974
0
LINE
8
DEFAULT_255_2_778
10
18.4907271
20
2.4218974
11
17.2254271
21
2.4218974
0
LINE
8
DEFAULT_255_2_778
10
17.2254271
20
2.4218974
11
17.2275271
21
2.4218974
0
ARC
8
DEFAULT_255_2_778
10
27.3908775
20
2.4914171
40
0.998431
50
4.4239371
51
76.1197083
0
ARC
8
DEFAULT_255_2_778
10
27.3599226
20
2.4721142
40
1.0249116
50
74.6984817
51
83.6469415
0
ARC
8
DEFAULT_255_2_778
10
27.0266388
20
-0.3724819
40
3.888953
50
83.4043032
51
89.2214232
0
ARC
8
DEFAULT_255_2_778
10
27.0546858
20
0.5935967
40
2.9226205
50
89.5138607
51
89.9990554
0
ARC
8
DEFAULT_255_2_778
10
27.0052703
20
1.7141435
40
1.8027526
50
88.4277291
51
112.2088419
0
ARC
8
DEFAULT_255_2_778
10
26.7936768
20
2.3162598
40
1.1657579
50
113.766773
51
126.4281021
0
ARC
8
DEFAULT_255_2_778
10
26.6219214
20
2.6230249
40
0.8181255
50
129.5086873
51
168.7127654
0
ARC
8
DEFAULT_255_2_778
10
28.0346383
20
2.1712851
40
2.2979753
50
164.5578887
51
165.4941184
0
ARC
8
DEFAULT_255_2_778
10
29.7154563
20
1.7484641
40
4.0311369
50
165.6599599
51
167.5091737
0
ARC
8
DEFAULT_255_2_778
10
26.9829562
20
2.4562247
40
0.5096598
50
131.7110761
51
161.7855151
0
ARC
8
DEFAULT_255_2_778
10
27.0529987
20
2.347502
40
0.6377424
50
88.5267005
51
129.909097
0
ARC
8
DEFAULT_255_2_778
10
27.0693629
20
2.1983108
40
0.7867227
50
87.7816396
51
89.9976124
0
ARC
8
DEFAULT_255_2_778
10
27.0743952
20
2.21871
40
0.7661557
50
57.3683595
51
88.0986397
0
ARC
8
DEFAULT_255_2_778
10
27.174986
20
2.5637495
40
0.4333538
50
2.1458346
51
43.8438477
0
ARC
8
DEFAULT_255_2_778
10
20.1239908
20
1.4609503
40
7.5672417
50
8.2902505
51
8.5039486
0
ARC
8
DEFAULT_255_2_778
10
29.1407642
20
2.7587349
40
1.5425158
50
187.7001748
51
191.5407525
0
ARC
8
DEFAULT_255_2_778
10
27.4764873
20
6.720712
40
4.2733183
50
269.8841398
51
272.0511138
0
ARC
8
DEFAULT_255_2_778
10
27.5006102
20
15.2179733
40
12.7706128
50
268.9972775
51
269.8530025
0
ARC
8
DEFAULT_255_2_778
10
26.9862323
20
-15.4656481
40
17.9173257
50
89.0697445
51
89.5080937
0
ARC
8
DEFAULT_255_2_778
10
27.0836271
20
-5.04679
40
7.4980196
50
89.5687851
51
89.9884806
0
ARC
8
DEFAULT_255_2_778
10
27.0058347
20
0.2986721
40
2.1540176
50
87.8901868
51
106.3732414
0
ARC
8
DEFAULT_255_2_778
10
26.7599236
20
1.2732272
40
1.1503182
50
108.3053021
51
123.0761478
0
ARC
8
DEFAULT_255_2_778
10
26.5707987
20
1.5313939
40
0.8309588
50
121.8638096
51
176.7773897
0
ARC
8
DEFAULT_255_2_778
10
26.7593762
20
1.4876488
40
1.0222326
50
174.923223
51
180.0057559
0
ARC
8
DEFAULT_255_2_778
10
26.7736401
20
1.4875774
40
1.0364965
50
180.0017306
51
180.3681871
0
ARC
8
DEFAULT_255_2_778
10
26.7096656
20
1.4804784
40
0.9725008
50
179.9741722
51
211.05306
0
ARC
8
DEFAULT_255_2_778
10
26.4453795
20
1.3961957
40
0.7055339
50
216.2676293
51
263.5895782
0
ARC
8
DEFAULT_255_2_778
10
26.612926
20
2.0998031
40
1.4261626
50
260.0543058
51
264.4536899
0
ARC
8
DEFAULT_255_2_778
10
26.6660368
20
2.7014774
40
2.0301602
50
264.6029815
51
270.2172292
0
ARC
8
DEFAULT_255_2_778
10
26.827967
20
1.4727819
40
0.2915838
50
179.8795929
51
194.9354722
0
ARC
8
DEFAULT_255_2_778
10
27.1464566
20
1.4317934
40
0.6114895
50
152.9250907
51
176.0990079
0
ARC
8
DEFAULT_255_2_778
10
24.7545895
20
2.5231153
40
2.0183695
50
336.2466586
51
338.7819848
0
ARC
8
DEFAULT_255_2_778
10
27.3691144
20
-1.6758254
40
3.5450606
50
90.5062224
51
101.9326107
0
ARC
8
DEFAULT_255_2_778
10
27.447516
20
-3.80703
40
5.6771872
50
89.9847964
51
91.1074212
0
ARC
8
DEFAULT_255_2_778
10
27.4453043
20
-5.1856241
40
7.0557821
50
88.696323
51
89.9698068
0
ARC
8
DEFAULT_255_2_778
10
27.4927468
20
-0.6037994
40
1.8062746
50
86.4104828
51
90.2048634
0
ARC
8
DEFAULT_255_2_778
10
27.5151378
20
-4.3411594
40
5.5436983
50
90.2981688
51
91.9636579
0
ARC
8
DEFAULT_255_2_778
10
27.0210701
20
11.079464
40
9.8848598
50
271.2324399
51
271.762994
0
ARC
8
DEFAULT_255_2_778
10
27.1583068
20
4.7935379
40
3.5974366
50
270.054987
51
271.2005173
0
ARC
8
DEFAULT_255_2_778
10
27.1158187
20
2.2764565
40
1.0813299
50
249.8622739
51
272.4349607
0
ARC
8
DEFAULT_255_2_778
10
26.9676992
20
1.8041692
40
0.587392
50
223.4735937
51
247.5661384
0
LINE
8
DEFAULT_255_2_778
10
25.7797339
20
2.6203317
11
26.4988339
21
2.6155317
0
LINE
8
DEFAULT_255_2_778
10
26.6737339
20
0.6713317
11
28.3908339
21
0.6713317
0
LINE
8
DEFAULT_255_2_778
10
28.3908339
20
0.6713317
11
28.3861339
21
2.5872317
0
LINE
8
DEFAULT_255_2_778
10
28.3861339
20
2.5872317
11
28.3863339
21
2.5684317
0
LINE
8
DEFAULT_255_2_778
10
27.6058339
20
1.8683317
11
27.6058339
21
1.1989317
0
LINE
8
DEFAULT_255_2_778
10
26.5414339
20
1.4000317
11
26.5462339
21
1.3976317
0
ARC
8
DEFAULT_255_2_778
10
4.844265
20
2.819592
40
4.2078467
50
61.2520811
51
81.0748494
0
ARC
8
DEFAULT_255_2_778
10
4.8436697
20
2.8164252
40
4.2110674
50
81.0735336
51
89.9998458
0
ARC
8
DEFAULT_255_2_778
10
4.8436752
20
2.8172814
40
4.2102114
50
89.9999199
51
91.3709635
0
ARC
8
DEFAULT_255_2_778
10
4.8435042
20
2.8204924
40
4.2069971
50
91.3696825
51
107.4848476
0
ARC
8
DEFAULT_255_2_778
10
4.8456252
20
2.8134507
40
4.2143505
50
107.4835873
51
109.8102165
0
ARC
8
DEFAULT_255_2_778
10
4.7791299
20
3.112419
40
3.9107314
50
110.3781232
51
130.7109369
0
ARC
8
DEFAULT_255_2_778
10
4.2701002
20
3.7005471
40
3.1329141
50
130.6698426
51
148.1861664
0
ARC
8
DEFAULT_255_2_778
10
3.9438622
20
3.9083489
40
2.7461473
50
148.2821998
51
179.6469464
0
ARC
8
DEFAULT_255_2_778
10
3.4947973
20
3.9251189
40
2.2970303
50
179.9962196
51
180.0718276
0
ARC
8
DEFAULT_255_2_778
10
3.6211914
20
3.9203669
40
2.4234233
50
179.9557333
51
194.6781669
0
ARC
8
DEFAULT_255_2_778
10
4.2260088
20
4.0766497
40
3.0481033
50
194.6392211
51
233.8119261
0
ARC
8
DEFAULT_255_2_778
10
4.6593361
20
4.5353455
40
3.6750087
50
232.5817315
51
236.5653221
0
ARC
8
DEFAULT_255_2_778
10
4.884504
20
5.3565994
40
4.5194421
50
252.1630629
51
269.9979688
0
ARC
8
DEFAULT_255_2_778
10
4.8843385
20
5.3533218
40
4.5161646
50
270.0000671
51
271.7639939
0
ARC
8
DEFAULT_255_2_778
10
7.514521
20
1.6693693
40
2.6258166
50
180.0022335
51
198.4284157
0
ARC
8
DEFAULT_255_2_778
10
7.5122427
20
1.6692727
40
2.6235383
50
178.4743728
51
180.0001259
0
ARC
8
DEFAULT_255_2_778
10
7.5111237
20
1.6693091
40
2.6224187
50
171.2310566
51
178.4745164
0
ARC
8
DEFAULT_255_2_778
10
7.5002835
20
1.5920247
40
2.6246476
50
131.7652431
51
169.5273385
0
ARC
8
DEFAULT_255_2_778
10
8.0862837
20
0.9515041
40
3.4927378
50
93.0718566
51
131.9366338
0
ARC
8
DEFAULT_255_2_778
10
8.1764171
20
0.4668347
40
3.9820557
50
91.7184892
51
93.9932095
0
ARC
8
DEFAULT_255_2_778
10
8.1767705
20
0.4566362
40
3.9922603
50
89.999922
51
91.7191693
0
ARC
8
DEFAULT_255_2_778
10
8.1768765
20
0.4618178
40
3.9870786
50
85.9617251
51
90.001446
0
ARC
8
DEFAULT_255_2_778
10
5.4092975
20
3.7427248
40
3.1268669
50
12.8661486
51
59.7062303
0
ARC
8
DEFAULT_255_2_778
10
5.229303
20
3.5379906
40
3.3948405
50
58.8261878
51
61.1329931
0
ARC
8
DEFAULT_255_2_778
10
3.5819976
20
5.0379184
40
0.5208435
50
289.1501861
51
344.6903597
0
ARC
8
DEFAULT_255_2_778
10
3.582353
20
5.0361343
40
0.5190417
50
272.5784007
51
289.1777251
0
ARC
8
DEFAULT_255_2_778
10
3.5822797
20
5.0372977
40
0.5202071
50
270.0000166
51
272.5807016
0
ARC
8
DEFAULT_255_2_778
10
3.5822951
20
5.0382542
40
0.5211636
50
233.5769392
51
269.9983249
0
ARC
8
DEFAULT_255_2_778
10
3.6042031
20
5.020278
40
0.5204768
50
180.0327492
51
230.4598727
0
ARC
8
DEFAULT_255_2_778
10
3.6026418
20
5.0199629
40
0.5189153
50
172.4694338
51
179.9980599
0
ARC
8
DEFAULT_255_2_778
10
3.6045138
20
5.019736
40
0.520801
50
170.7002452
51
172.4716754
0
ARC
8
DEFAULT_255_2_778
10
3.6043787
20
5.0202696
40
0.5205818
50
111.0543528
51
170.7557917
0
ARC
8
DEFAULT_255_2_778
10
3.5751094
20
5.0103446
40
0.5202463
50
93.8483061
51
107.6513808
0
ARC
8
DEFAULT_255_2_778
10
3.5750508
20
5.0107461
40
0.5198418
50
89.9999277
51
93.8448283
0
ARC
8
DEFAULT_255_2_778
10
3.5751179
20
5.0103593
40
0.5202285
50
47.8903259
51
90.0073165
0
ARC
8
DEFAULT_255_2_778
10
3.5756304
20
5.010588
40
0.519715
50
0.0130269
51
47.9153339
0
ARC
8
DEFAULT_255_2_778
10
3.5769642
20
5.0107111
40
0.5183811
50
353.8170455
51
359.9994569
0
ARC
8
DEFAULT_255_2_778
10
3.5756712
20
5.0108619
40
0.5196829
50
348.0319549
51
353.8158711
0
ARC
8
DEFAULT_255_2_778
10
6.0893397
20
5.0404221
40
0.5200398
50
294.4711025
51
355.7626576
0
ARC
8
DEFAULT_255_2_778
10
6.0887222
20
5.0405815
40
0.520441
50
271.9798594
51
294.5256982
0
ARC
8
DEFAULT_255_2_778
10
6.0887511
20
5.0410683
40
0.5209265
50
270.0010797
51
271.9748392
0
ARC
8
DEFAULT_255_2_778
10
6.0886924
20
5.0402307
40
0.5200889
50
233.2702861
51
270.0075398
0
ARC
8
DEFAULT_255_2_778
10
6.0400483
20
4.9880147
40
0.4492155
50
192.4057518
51
234.2600131
0
ARC
8
DEFAULT_255_2_778
10
6.1191269
20
5.0114498
40
0.5315151
50
179.9145879
51
193.041678
0
ARC
8
DEFAULT_255_2_778
10
6.1397706
20
5.0122412
40
0.5521582
50
178.8625698
51
179.9998958
0
ARC
8
DEFAULT_255_2_778
10
6.0856176
20
5.0295786
40
0.4979374
50
110.9823583
51
180.7337736
0
ARC
8
DEFAULT_255_2_778
10
6.0479229
20
5.0774566
40
0.4401069
50
106.9714246
51
108.6317065
0
ARC
8
DEFAULT_255_2_778
10
6.0874823
20
5.0050568
40
0.5211689
50
92.7288689
51
108.8080703
0
ARC
8
DEFAULT_255_2_778
10
6.0874402
20
5.0054148
40
0.5208092
50
89.9997655
51
92.726113
0
ARC
8
DEFAULT_255_2_778
10
6.0875745
20
5.0061411
40
0.5200829
50
54.0563016
51
90.014563
0
ARC
8
DEFAULT_255_2_778
10
6.0873237
20
5.0059626
40
0.5203747
50
359.9914971
51
54.04548
0
ARC
8
DEFAULT_255_2_778
10
6.0862994
20
5.0058718
40
0.5213988
50
359.2884992
51
0.0014922
0
LINE
8
DEFAULT_255_2_778
10
2.634458
20
1.4684973
11
2.279658
21
0.4040973
0
LINE
8
DEFAULT_255_2_778
10
2.279658
20
0.4040973
11
3.500158
21
1.0543973
0
LINE
8
DEFAULT_255_2_778
10
6.868258
20
6.5109973
11
6.868058
21
6.5087973
0
LINE
8
DEFAULT_255_2_778
10
4.084058
20
4.9030973
11
4.084358
21
4.9003973
0
LINE
8
DEFAULT_255_2_778
10
6.607658
20
4.9993973
11
6.607958
21
5.0019973
0
ARC
8
DEFAULT_255_2_778
10
8.5821433
20
1.4801741
40
2.6514623
50
24.2319959
51
64.0990468
0
ARC
8
DEFAULT_255_2_778
10
8.4117854
20
1.2106395
40
2.9685499
50
63.413686
51
63.994072
0
ARC
8
DEFAULT_255_2_778
10
8.1375312
20
0.7018552
40
3.546147
50
63.6159602
51
81.3693908
0
ARC
8
DEFAULT_255_2_778
10
8.1370861
20
0.6986007
40
3.5494314
50
81.3701712
51
89.9326573
0
ARC
8
DEFAULT_255_2_778
10
8.1370561
20
0.5696769
40
3.6783553
50
89.9345503
51
90
0
ARC
8
DEFAULT_255_2_778
10
8.1367584
20
0.7015476
40
3.5464848
50
89.9951905
51
112.5640889
0
ARC
8
DEFAULT_255_2_778
10
8.1391414
20
0.6962415
40
3.5522991
50
112.5667432
51
116.8090626
0
ARC
8
DEFAULT_255_2_778
10
7.7347753
20
1.4428299
40
2.7036895
50
116.296697
51
160.5032381
0
ARC
8
DEFAULT_255_2_778
10
7.2326212
20
1.6869333
40
2.1497674
50
162.1695175
51
168.0183942
0
ARC
8
DEFAULT_255_2_778
10
7.1057225
20
1.668661
40
2.0299081
50
166.7702064
51
179.4304753
0
ARC
8
DEFAULT_255_2_778
10
7.1876354
20
1.6652443
40
2.1118525
50
179.3598726
51
179.9995005
0
ARC
8
DEFAULT_255_2_778
10
7.3750713
20
1.6820501
40
2.2993498
50
180.4183165
51
211.4539333
0
ARC
8
DEFAULT_255_2_778
10
7.9208651
20
2.1071949
40
2.9878055
50
212.9474131
51
247.1084357
0
ARC
8
DEFAULT_255_2_778
10
8.0623506
20
2.3367495
40
3.254576
50
246.3857716
51
259.7494323
0
ARC
8
DEFAULT_255_2_778
10
8.0933515
20
2.163077
40
3.0898026
50
258.6105692
51
270.192144
0
ARC
8
DEFAULT_255_2_778
10
8.1036677
20
2.533841
40
3.4605492
50
270.0007541
51
270.5087144
0
ARC
8
DEFAULT_255_2_778
10
8.0441793
20
3.4777826
40
4.4052782
50
271.1734115
51
286.431403
0
ARC
8
DEFAULT_255_2_778
10
7.5390718
20
-4.9485204
40
4.5513359
50
59.2477132
51
67.3705539
0
ARC
8
DEFAULT_255_2_778
10
-59.3735373
20
-123.3496093
40
140.5506601
50
60.4699421
51
60.4862404
0
ARC
8
DEFAULT_255_2_778
10
13.464559
20
5.0904372
40
7.1054697
50
239.8999513
51
243.4907556
0
ARC
8
DEFAULT_255_2_778
10
8.4081561
20
1.9958498
40
2.8758111
50
303.8295162
51
331.8324755
0
ARC
8
DEFAULT_255_2_778
10
8.9598753
20
1.6589372
40
2.230691
50
332.7718964
51
359.5287539
0
ARC
8
DEFAULT_255_2_778
10
8.923592
20
1.6642438
40
2.2670221
50
359.4021825
51
0.0004683
0
ARC
8
DEFAULT_255_2_778
10
9.0235412
20
1.6723853
40
2.1670882
50
359.7852361
51
24.3477786
0
ARC
8
DEFAULT_255_2_778
10
7.2129014
20
2.4863922
40
0.4010911
50
269.8028561
51
339.9101208
0
ARC
8
DEFAULT_255_2_778
10
7.1979006
20
2.5286095
40
0.4435153
50
270.0020732
51
271.7598795
0
ARC
8
DEFAULT_255_2_778
10
7.1892311
20
2.4583125
40
0.3733191
50
223.3555768
51
271.3331451
0
ARC
8
DEFAULT_255_2_778
10
7.1698266
20
2.4753251
40
0.3717783
50
178.6314521
51
227.3181472
0
ARC
8
DEFAULT_255_2_778
10
7.2418678
20
2.4841946
40
0.4437135
50
178.0943451
51
179.9987382
0
ARC
8
DEFAULT_255_2_778
10
7.2022447
20
2.498933
40
0.4038449
50
109.9597736
51
179.9976165
0
ARC
8
DEFAULT_255_2_778
10
7.2005983
20
2.5578892
40
0.3483637
50
99.4132951
51
113.0167335
0
ARC
8
DEFAULT_255_2_778
10
7.199467
20
2.5635459
40
0.3425981
50
98.9464009
51
99.3813791
0
ARC
8
DEFAULT_255_2_778
10
7.2002259
20
2.5581887
40
0.3480082
50
89.9784335
51
98.9326609
0
ARC
8
DEFAULT_255_2_778
10
7.1827217
20
2.4689261
40
0.4376262
50
2.6889509
51
87.6905085
0
ARC
8
DEFAULT_255_2_778
10
7.2784479
20
2.4893274
40
0.3414181
50
350.8024052
51
0.0217167
0
ARC
8
DEFAULT_255_2_778
10
7.2770167
20
2.4898868
40
0.3429205
50
336.6810865
51
350.7483656
0
ARC
8
DEFAULT_255_2_778
10
7.2651157
20
2.4945327
40
0.3556887
50
335.8162904
51
336.7526952
0
ARC
8
DEFAULT_255_2_778
10
9.2295939
20
2.4823035
40
0.3953672
50
269.5214167
51
334.2792483
0
ARC
8
DEFAULT_255_2_778
10
9.2144498
20
2.5368854
40
0.4500912
50
270.0012202
51
271.5075994
0
ARC
8
DEFAULT_255_2_778
10
9.2052873
20
2.4654191
40
0.3787359
50
224.5720998
51
271.3877084
0
ARC
8
DEFAULT_255_2_778
10
9.2477732
20
2.5061128
40
0.4375613
50
192.4255088
51
224.4636904
0
ARC
8
DEFAULT_255_2_778
10
13.6378684
20
3.8425305
40
5.0253295
50
196.0362727
51
196.5392095
0
ARC
8
DEFAULT_255_2_778
10
6.8782588
20
1.9016672
40
2.0073996
50
15.9798841
51
17.4107203
0
ARC
8
DEFAULT_255_2_778
10
9.547882
20
2.3136803
40
0.7774274
50
163.8427645
51
165.9572388
0
ARC
8
DEFAULT_255_2_778
10
9.2788446
20
2.4311637
40
0.4878044
50
110.507923
51
168.3079088
0
ARC
8
DEFAULT_255_2_778
10
9.1983225
20
2.5527935
40
0.3472266
50
92.3825041
51
105.0862667
0
ARC
8
DEFAULT_255_2_778
10
9.229698
20
2.5603876
40
0.3424105
50
90.0004976
51
97.6884568
0
ARC
8
DEFAULT_255_2_778
10
9.2052333
20
2.4748343
40
0.4286624
50
1.2335499
51
86.7286222
0
ARC
8
DEFAULT_255_2_778
10
9.2755919
20
2.484035
40
0.3582045
50
357.0928367
51
0.0043953
0
ARC
8
DEFAULT_255_2_778
10
9.2913038
20
2.4826507
40
0.342443
50
333.0313912
51
357.1908169
0
ARC
8
DEFAULT_255_2_778
10
9.2814524
20
2.4874728
40
0.35341
50
329.540681
51
333.0589384
0
LINE
8
DEFAULT_255_2_778
10
10.2930881
20
-1.2679801
11
10.0091881
21
-0.3930801
0
LINE
8
DEFAULT_255_2_778
10
10.9978881
20
2.5658199
11
10.9999881
21
2.5684199
0
LINE
8
DEFAULT_255_2_778
10
7.5895881
20
2.3488199
11
7.5895881
21
2.3486199
0
LINE
8
DEFAULT_255_2_778
10
9.5860881
20
2.3083199
11
9.5857881
21
2.3107199
0
ENDSEC
0
EOF