0
SECTION
2
HEADER
9
$MEASUREMENT
70
1
0
ENDSEC
0
SECTION
2
TABLES
0
TABLE
2
LTYPE
0
LTYPE
72
65
70
64
2
CONTINUOUS
3
______
73
0
40
0
0
ENDTAB
0
TABLE
2
LAYER
0
LAYER
2
DEFAULT_255_2_778
70
0
62
255
6
CONTINUOUS
0
ENDTAB
0
ENDSEC
0
SECTION
2
ENTITIES
0
ARC
8
DEFAULT_255_2_778
10
0.75176
20
5.6162672
40
0.3120242
50
41.8597929
51
65.2780099
0
ARC
8
DEFAULT_255_2_778
10
0.4196188
20
5.3098147
40
0.7639236
50
29.3169352
51
42.3547002
0
ARC
8
DEFAULT_255_2_778
10
-0.19122
20
4.9496292
40
1.4729663
50
24.2607175
51
29.8989958
0
ARC
8
DEFAULT_255_2_778
10
-0.8848181
20
4.6351074
40
2.2345438
50
19.7948371
51
24.3056588
0
ARC
8
DEFAULT_255_2_778
10
-1.3187568
20
4.474094
40
2.6973731
50
17.5764901
51
19.8913712
0
ARC
8
DEFAULT_255_2_778
10
-1.112418
20
4.5383244
40
2.4812712
50
16.1184132
51
17.6013854
0
ARC
8
DEFAULT_255_2_778
10
-0.4137174
20
4.740382
40
1.7539405
50
15.3172293
51
16.1138722
0
ARC
8
DEFAULT_255_2_778
10
0.5291527
20
4.9980872
40
0.776487
50
14.7203486
51
15.3556311
0
ARC
8
DEFAULT_255_2_778
10
4.0919048
20
0.3355113
40
1.3816516
50
194.4819984
51
213.5203073
0
ARC
8
DEFAULT_255_2_778
10
4.0324604
20
0.3272474
40
1.3277832
50
214.6396227
51
269.6626802
0
ARC
8
DEFAULT_255_2_778
10
4.078376
20
0.6148831
40
1.6162894
50
268.0948814
51
270.0027454
0
ARC
8
DEFAULT_255_2_778
10
7.3985414
20
-0.8411706
40
0.1631291
50
243.3037826
51
259.1926094
0
ARC
8
DEFAULT_255_2_778
10
7.4265701
20
-0.7813299
40
0.2291905
50
238.1908714
51
243.7645674
0
ARC
8
DEFAULT_255_2_778
10
7.5227505
20
-0.6407384
40
0.3994351
50
222.2679205
51
237.0962918
0
ARC
8
DEFAULT_255_2_778
10
7.8933858
20
-0.2962508
40
0.9054274
50
213.9361211
51
222.6244995
0
ARC
8
DEFAULT_255_2_778
10
8.663567
20
0.2262364
40
1.8361077
50
208.0125715
51
214.04594
0
ARC
8
DEFAULT_255_2_778
10
9.7075656
20
0.7914365
40
3.0232634
50
204.651207
51
208.1765762
0
ARC
8
DEFAULT_255_2_778
10
10.275146
20
1.057304
40
3.6500114
50
203.0619708
51
204.7281779
0
ARC
8
DEFAULT_255_2_778
10
10.1032925
20
0.9850864
40
3.4636028
50
201.9955629
51
203.0764207
0
ARC
8
DEFAULT_255_2_778
10
9.326688
20
0.6717708
40
2.6261775
50
201.2541935
51
202.0033122
0
ARC
8
DEFAULT_255_2_778
10
7.9947751
20
0.1544926
40
1.1973432
50
200.7034905
51
201.2892712
0
ARC
8
DEFAULT_255_2_778
10
2.8051801
20
4.1704522
40
2.5194845
50
16.608402
51
23.8405095
0
ARC
8
DEFAULT_255_2_778
10
3.665152
20
4.5545509
40
1.5776452
50
23.7050006
51
34.8240713
0
ARC
8
DEFAULT_255_2_778
10
4.1108347
20
4.8686167
40
1.0324354
50
34.6404493
51
54.3397279
0
ARC
8
DEFAULT_255_2_778
10
4.109399
20
4.8176701
40
1.0750447
50
55.8606751
51
85.5726337
0
ARC
8
DEFAULT_255_2_778
10
3.9934174
20
3.9535615
40
1.9461433
50
84.1319374
51
90.193249
0
ARC
8
DEFAULT_255_2_778
10
14.7025046
20
4.1665864
40
1.7332327
50
89.310779
51
101.6304014
0
ARC
8
DEFAULT_255_2_778
10
14.5388892
20
4.9220039
40
0.9603737
50
101.1551632
51
143.5316824
0
ARC
8
DEFAULT_255_2_778
10
14.9390787
20
4.6158041
40
1.4642228
50
143.2038636
51
155.0944553
0
ARC
8
DEFAULT_255_2_778
10
15.7557495
20
4.230055
40
2.3674014
50
154.9502997
51
162.5609836
0
ARC
8
DEFAULT_255_2_778
10
16.4818631
20
3.9853379
40
3.1335198
50
162.2709904
51
163.2082329
0
ARC
8
DEFAULT_255_2_778
10
10.8729986
20
0.0787388
40
1.0035662
50
339.2169785
51
339.7199514
0
ARC
8
DEFAULT_255_2_778
10
9.5429233
20
0.5829145
40
2.4259913
50
338.3858902
51
339.2307018
0
ARC
8
DEFAULT_255_2_778
10
8.7021325
20
0.9150636
40
3.330011
50
337.2911601
51
338.4016158
0
ARC
8
DEFAULT_255_2_778
10
8.5095959
20
0.9947075
40
3.5383684
50
335.7315667
51
337.3050638
0
ARC
8
DEFAULT_255_2_778
10
9.0048698
20
0.7671782
40
2.993347
50
332.2850799
51
335.8054307
0
ARC
8
DEFAULT_255_2_778
10
9.4943484
20
0.5155568
40
2.4430079
50
331.8656808
51
332.1704043
0
ARC
8
DEFAULT_255_2_778
10
10.2596106
20
0.0870478
40
1.566199
50
323.0734717
51
332.4885697
0
ARC
8
DEFAULT_255_2_778
10
11.0183304
20
-0.4810924
40
0.6183424
50
310.9949712
51
322.9199661
0
ARC
8
DEFAULT_255_2_778
10
11.2422384
20
-0.7383412
40
0.2772974
50
294.7546859
51
310.9443441
0
ARC
8
DEFAULT_255_2_778
10
11.2911918
20
-0.839754
40
0.1647171
50
281.3023786
51
294.0624542
0
ARC
8
DEFAULT_255_2_778
10
11.2964393
20
-0.8617236
40
0.1421476
50
280.0124507
51
280.9637888
0
ARC
8
DEFAULT_255_2_778
10
14.6075835
20
0.4339519
40
1.4357522
50
269.3443181
51
299.8145606
0
ARC
8
DEFAULT_255_2_778
10
14.686454
20
0.2703117
40
1.2546243
50
300.4050482
51
332.3562486
0
ARC
8
DEFAULT_255_2_778
10
14.5226196
20
0.3587979
40
1.4408142
50
332.2619711
51
345.1566285
0
ARC
8
DEFAULT_255_2_778
10
18.158097
20
4.9796692
40
0.7768281
50
164.6422783
51
165.254383
0
ARC
8
DEFAULT_255_2_778
10
19.2279216
20
4.6864412
40
1.8861104
50
163.6368145
51
164.6599027
0
ARC
8
DEFAULT_255_2_778
10
19.8935218
20
4.4918719
40
2.5795658
50
162.306409
51
163.6552043
0
ARC
8
DEFAULT_255_2_778
10
20.0303886
20
4.4491971
40
2.7229284
50
160.0448109
51
162.3262155
0
ARC
8
DEFAULT_255_2_778
10
19.5817294
20
4.61576
40
2.244364
50
155.8440026
51
160.1326744
0
ARC
8
DEFAULT_255_2_778
10
18.6055191
20
5.0707583
40
1.1675456
50
143.7909509
51
156.6129651
0
ARC
8
DEFAULT_255_2_778
10
18.0112814
20
5.5042958
40
0.4319715
50
125.8833586
51
143.6279691
0
ARC
8
DEFAULT_255_2_778
10
17.8857639
20
5.6717614
40
0.2227466
50
109.29713
51
124.9732727
0
LINE
8
DEFAULT_255_2_778
10
1.2801534
20
5.1953937
11
2.7541534
21
-0.0100063
0
LINE
8
DEFAULT_255_2_778
10
4.0784534
20
-1.0014063
11
7.3679534
21
-1.0014063
0
LINE
8
DEFAULT_255_2_778
10
6.8747534
20
-0.2688063
11
5.2195534
21
4.8905937
0
LINE
8
DEFAULT_255_2_778
10
3.9868534
20
5.8996937
11
0.8822534
21
5.8996937
0
LINE
8
DEFAULT_255_2_778
10
13.4819534
20
4.8905937
11
11.8143534
21
-0.2691063
0
LINE
8
DEFAULT_255_2_778
10
11.3211534
20
-1.0017063
11
14.5911534
21
-1.0017063
0
LINE
8
DEFAULT_255_2_778
10
15.9153534
20
-0.0103063
11
17.4068534
21
5.1773937
0
LINE
8
DEFAULT_255_2_778
10
17.8121534
20
5.8819937
11
14.7233534
21
5.8996937
0
LINE
8
DEFAULT_255_2_778
10
7.5351534
20
5.8644937
11
7.5351534
21
-0.9996063
0
LINE
8
DEFAULT_255_2_778
10
7.5351534
20
-0.9996063
11
11.1750534
21
-0.9996063
0
LINE
8
DEFAULT_255_2_778
10
11.1750534
20
-0.9996063
11
11.1750534
21
5.8626937
0
LINE
8
DEFAULT_255_2_778
10
11.1750534
20
5.8626937
11
7.5351534
21
5.8644937
0
ENDSEC
0
EOF