0
SECTION
2
HEADER
9
$MEASUREMENT
70
1
0
ENDSEC
0
SECTION
2
TABLES
0
TABLE
2
LTYPE
0
LTYPE
72
65
70
64
2
CONTINUOUS
3
______
73
0
40
0
0
ENDTAB
0
TABLE
2
LAYER
0
LAYER
2
DEFAULT_255_2_778
70
0
62
255
6
CONTINUOUS
0
ENDTAB
0
ENDSEC
0
SECTION
2
ENTITIES
0
ARC
8
DEFAULT_255_2_778
10
-0.7097164
20
0.2085608
40
5.1472924
50
75.9883147
51
76.2548761
0
ARC
8
DEFAULT_255_2_778
10
0.2365786
20
3.894223
40
1.3424225
50
68.0717011
51
77.088165
0
ARC
8
DEFAULT_255_2_778
10
0.4887478
20
4.5445197
40
0.6450638
50
47.1465901
51
67.2788944
0
ARC
8
DEFAULT_255_2_778
10
0.4172765
20
4.4624201
40
0.7538681
50
46.1340155
51
47.4082428
0
ARC
8
DEFAULT_255_2_778
10
0.2986632
20
4.344324
40
0.9212141
50
38.5122681
51
45.9052434
0
ARC
8
DEFAULT_255_2_778
10
-0.0614492
20
4.0554081
40
1.3828971
50
33.7791611
51
38.5882474
0
ARC
8
DEFAULT_255_2_778
10
-0.6666149
20
3.6492715
40
2.1117123
50
30.2724117
51
33.8092048
0
ARC
8
DEFAULT_255_2_778
10
-1.2827742
20
3.2832057
40
2.8283948
50
29.4109575
51
30.3845421
0
ARC
8
DEFAULT_255_2_778
10
-57.9694588
20
-27.5264936
40
67.3464228
50
28.248259
51
28.5616889
0
ARC
8
DEFAULT_255_2_778
10
-63.3542084
20
-30.4198953
40
73.4593028
50
27.9581371
51
28.248453
0
ARC
8
DEFAULT_255_2_778
10
-78.1326183
20
-38.2219105
40
90.1707277
50
27.0257045
51
27.934587
0
ARC
8
DEFAULT_255_2_778
10
-124.3923044
20
-61.738276
40
142.0646075
50
26.0137397
51
26.9968664
0
ARC
8
DEFAULT_255_2_778
10
-197.7587658
20
-97.7415231
40
223.7888468
50
25.8875918
51
26.059355
0
ARC
8
DEFAULT_255_2_778
10
3.8498355
20
0.3108592
40
0.4417874
50
231.2643936
51
270.2625686
0
ARC
8
DEFAULT_255_2_778
10
3.9492191
20
1.5313971
40
1.6651693
50
266.6481205
51
270.2710634
0
ARC
8
DEFAULT_255_2_778
10
3.9811313
20
0.8199327
40
0.953989
50
268.5563602
51
280.7675235
0
ARC
8
DEFAULT_255_2_778
10
4.0757989
20
0.2861952
40
0.4120173
50
281.7012914
51
309.0549759
0
ARC
8
DEFAULT_255_2_778
10
-34.2096183
20
-18.6138741
40
45.894402
50
28.3061514
51
28.5137871
0
ARC
8
DEFAULT_255_2_778
10
-45.1002546
20
-24.478078
40
58.2635105
50
28.0733011
51
28.3050191
0
ARC
8
DEFAULT_255_2_778
10
-57.0225258
20
-30.837962
40
71.7760483
50
27.8555069
51
28.0740912
0
ARC
8
DEFAULT_255_2_778
10
-67.774595
20
-36.5200391
40
83.9371746
50
27.5949356
51
27.8554075
0
ARC
8
DEFAULT_255_2_778
10
-73.5862888
20
-39.56056
40
90.4961795
50
27.2717815
51
27.5965599
0
ARC
8
DEFAULT_255_2_778
10
-71.44151
20
-38.4550757
40
88.0832619
50
27.1510198
51
27.2718863
0
ARC
8
DEFAULT_255_2_778
10
-63.206237
20
-34.2414794
40
78.8326386
50
26.7458383
51
27.1573986
0
ARC
8
DEFAULT_255_2_778
10
-47.1076768
20
-26.128476
40
60.8053132
50
26.3624492
51
26.7457311
0
ARC
8
DEFAULT_255_2_778
10
-33.4975964
20
-19.3820257
40
45.6148926
50
26.0001822
51
26.3608038
0
ARC
8
DEFAULT_255_2_778
10
-23.6591404
20
-14.5820243
40
34.6679649
50
25.6643839
51
25.9980625
0
ARC
8
DEFAULT_255_2_778
10
-14.7930282
20
-10.3269405
40
24.8336549
50
25.1127307
51
25.6749939
0
ARC
8
DEFAULT_255_2_778
10
-6.5384851
20
-6.4606152
40
15.7185057
50
24.3629014
51
25.1213848
0
ARC
8
DEFAULT_255_2_778
10
-2.2196162
20
-4.4987574
40
10.9749343
50
24.0062638
51
24.3338778
0
ARC
8
DEFAULT_255_2_778
10
8.0797336
20
0.3001651
40
0.4317794
50
230.6561013
51
271.0313086
0
ARC
8
DEFAULT_255_2_778
10
8.1708415
20
1.4321888
40
1.565952
50
266.9494094
51
270.2032656
0
ARC
8
DEFAULT_255_2_778
10
8.2030848
20
0.7881647
40
0.9223044
50
268.3418533
51
282.4237431
0
ARC
8
DEFAULT_255_2_778
10
8.3199933
20
0.2345597
40
0.3565455
50
283.2162796
51
311.1895062
0
ARC
8
DEFAULT_255_2_778
10
112.0772178
20
-47.4392914
40
113.8603384
50
154.9781989
51
155.3957572
0
ARC
8
DEFAULT_255_2_778
10
108.440237
20
-45.7404676
40
109.8461598
50
154.5419329
51
154.9787597
0
ARC
8
DEFAULT_255_2_778
10
96.3827466
20
-39.9528535
40
96.4716514
50
153.0677243
51
154.567305
0
ARC
8
DEFAULT_255_2_778
10
81.3740168
20
-32.3717545
40
79.65698
50
152.4450872
51
153.0395738
0
ARC
8
DEFAULT_255_2_778
10
18.669122
20
0.4850769
40
8.8661605
50
152.5365521
51
153.2375187
0
ARC
8
DEFAULT_255_2_778
10
14.926434
20
2.4325314
40
4.6471219
50
151.1916555
51
152.560271
0
ARC
8
DEFAULT_255_2_778
10
13.115622
20
3.4310881
40
2.5792376
50
148.5900242
51
151.2444236
0
ARC
8
DEFAULT_255_2_778
10
12.4314188
20
3.8449225
40
1.7796276
50
147.0878922
51
148.480979
0
ARC
8
DEFAULT_255_2_778
10
11.8117043
20
4.2624325
40
1.0326112
50
135.5687294
51
147.8524423
0
ARC
8
DEFAULT_255_2_778
10
11.5940705
20
4.4588005
40
0.7398323
50
110.1602567
51
134.6292388
0
ARC
8
DEFAULT_255_2_778
10
11.8554093
20
3.7906412
40
1.4572023
50
103.0453027
51
110.7519399
0
ARC
8
DEFAULT_255_2_778
10
12.1776932
20
2.4673108
40
2.8191678
50
100.4244366
51
103.3554922
0
ARC
8
DEFAULT_255_2_778
10
11.6763729
20
5.4811003
40
0.3018449
50
317.4664624
51
355.3431808
0
ARC
8
DEFAULT_255_2_778
10
11.5514449
20
5.5060214
40
0.4286359
50
353.3783387
51
359.5091524
0
ARC
8
DEFAULT_255_2_778
10
11.5401488
20
5.5063068
40
0.4399339
50
359.484585
51
0.0028536
0
ARC
8
DEFAULT_255_2_778
10
11.5939131
20
5.5125965
40
0.3862207
50
359.07014
51
29.3727218
0
ARC
8
DEFAULT_255_2_778
10
11.7721053
20
5.6129472
40
0.1817146
50
29.3572456
51
64.1986946
0
ARC
8
DEFAULT_255_2_778
10
11.0233969
20
15.4488147
40
9.7076271
50
272.3263005
51
274.8917327
0
ARC
8
DEFAULT_255_2_778
10
10.7315805
20
22.4616056
40
16.7264849
50
270.625046
51
272.3500168
0
ARC
8
DEFAULT_255_2_778
10
10.5986327
20
32.3201552
40
26.5859104
50
269.9794492
51
270.6797731
0
ARC
8
DEFAULT_255_2_778
10
10.598547
20
27.4618656
40
21.7276211
50
266.4368279
51
269.9750802
0
ARC
8
DEFAULT_255_2_778
10
9.3308216
20
5.5960092
40
0.1982734
50
114.6277425
51
164.3700475
0
ARC
8
DEFAULT_255_2_778
10
9.5545083
20
5.509074
40
0.4377399
50
161.2986745
51
179.0094471
0
ARC
8
DEFAULT_255_2_778
10
9.6272642
20
5.5033433
40
0.5106033
50
178.507617
51
180.0012238
0
ARC
8
DEFAULT_255_2_778
10
9.567721
20
5.4989679
40
0.4510812
50
179.4456206
51
199.1579226
0
ARC
8
DEFAULT_255_2_778
10
9.3408407
20
5.4182662
40
0.2102895
50
198.6739632
51
222.2971188
0
ARC
8
DEFAULT_255_2_778
10
9.0632815
20
3.2312277
40
2.0324917
50
74.0142211
51
78.6322487
0
ARC
8
DEFAULT_255_2_778
10
9.3471271
20
4.2095188
40
1.0138661
50
66.8662321
51
74.2091434
0
ARC
8
DEFAULT_255_2_778
10
9.5952183
20
4.7788738
40
0.3928484
50
53.1878584
51
67.5159225
0
ARC
8
DEFAULT_255_2_778
10
9.723635
20
4.9564963
40
0.1737343
50
43.2950527
51
51.9942022
0
ARC
8
DEFAULT_255_2_778
10
9.7878276
20
5.0135928
40
0.0878932
50
16.4270379
51
44.9013033
0
ARC
8
DEFAULT_255_2_778
10
9.8166522
20
5.0239462
40
0.0573449
50
0.1002568
51
14.6488967
0
ARC
8
DEFAULT_255_2_778
10
9.2378277
20
5.0387742
40
0.6363397
50
348.0814695
51
358.6738057
0
ARC
8
DEFAULT_255_2_778
10
8.2631701
20
5.2287803
40
1.6292985
50
342.7099127
51
348.6222234
0
ARC
8
DEFAULT_255_2_778
10
7.09157
20
5.5873685
40
2.8545384
50
338.1022177
51
342.8268597
0
ARC
8
DEFAULT_255_2_778
10
6.4233277
20
5.8455937
40
3.5708861
50
337.4665085
51
338.2566993
0
ARC
8
DEFAULT_255_2_778
10
45.4793771
20
-9.8272108
40
38.5127703
50
158.1968705
51
158.4097663
0
ARC
8
DEFAULT_255_2_778
10
57.59635
20
-14.6288913
40
51.5464629
50
158.4029236
51
158.4115838
0
ARC
8
DEFAULT_255_2_778
10
57.2823653
20
-14.5038541
40
51.2084983
50
158.4124113
51
158.4210981
0
ARC
8
DEFAULT_255_2_778
10
138.2908496
20
-46.5370539
40
138.3204976
50
158.4233427
51
158.4265475
0
ARC
8
DEFAULT_255_2_778
10
56.6540014
20
-14.2563288
40
50.5331399
50
158.4288223
51
158.4375639
0
ARC
8
DEFAULT_255_2_778
10
47.0048248
20
-10.4450625
40
40.1585383
50
158.4351793
51
158.4461409
0
ARC
8
DEFAULT_255_2_778
10
46.7580608
20
-10.3497696
40
39.8940216
50
158.4432314
51
158.4542272
0
ARC
8
DEFAULT_255_2_778
10
55.7258701
20
-13.8927336
40
49.5363342
50
158.4518912
51
158.4607158
0
ARC
8
DEFAULT_255_2_778
10
-106.0603483
20
49.565917
40
124.2504193
50
338.2857488
51
338.6317768
0
ARC
8
DEFAULT_255_2_778
10
-12.7791599
20
12.4574935
40
23.8591439
50
336.6872153
51
338.1975149
0
ARC
8
DEFAULT_255_2_778
10
-6.9834953
20
9.9718668
40
17.5529638
50
334.7660852
51
336.6515008
0
ARC
8
DEFAULT_255_2_778
10
-5.9027764
20
9.4689116
40
16.3609564
50
334.033917
51
334.7458933
0
ARC
8
DEFAULT_255_2_778
10
37.0486298
20
17.2713233
40
31.9623198
50
207.5230532
51
207.9197874
0
ARC
8
DEFAULT_255_2_778
10
42.7529935
20
20.2416882
40
38.393714
50
206.9970478
51
207.5203313
0
ARC
8
DEFAULT_255_2_778
10
47.3034255
20
22.5629935
40
43.5020291
50
206.5193511
51
207.0006151
0
ARC
8
DEFAULT_255_2_778
10
48.4349698
20
23.1299741
40
44.7676733
50
206.0991398
51
206.5220264
0
ARC
8
DEFAULT_255_2_778
10
44.6327085
20
21.2776906
40
40.5382467
50
205.2302089
51
206.1122822
0
ARC
8
DEFAULT_255_2_778
10
36.3989153
20
17.3931417
40
31.4341242
50
204.6108689
51
205.2224328
0
ARC
8
DEFAULT_255_2_778
10
29.0896954
20
14.0482122
40
23.3958883
50
203.8521101
51
204.6179269
0
ARC
8
DEFAULT_255_2_778
10
24.1896439
20
11.2332071
40
17.7859071
50
201.4703102
51
201.9410951
0
ARC
8
DEFAULT_255_2_778
10
9.7579108
20
5.5689488
40
2.2824304
50
198.3323547
51
201.7486724
0
ARC
8
DEFAULT_255_2_778
10
8.1534302
20
5.043942
40
0.594284
50
185.8908968
51
198.9391119
0
ARC
8
DEFAULT_255_2_778
10
8.0233394
20
5.02359
40
0.4628427
50
179.9434849
51
185.0376062
0
ARC
8
DEFAULT_255_2_778
10
7.6346321
20
5.0111133
40
0.0752548
50
113.6674751
51
170.1040641
0
ARC
8
DEFAULT_255_2_778
10
7.8658769
20
4.6371251
40
0.5143255
50
107.8617907
51
120.5535888
0
ARC
8
DEFAULT_255_2_778
10
8.2762188
20
3.4449873
40
1.7750368
50
103.2965759
51
108.6658203
0
ARC
8
DEFAULT_255_2_778
10
8.8968509
20
0.8833186
40
4.410799
50
100.590266
51
103.489247
0
ARC
8
DEFAULT_255_2_778
10
9.4484406
20
-1.9534385
40
7.3006398
50
100.0828961
51
100.7538401
0
ARC
8
DEFAULT_255_2_778
10
8.3512768
20
5.3738933
40
0.1191404
50
300.6965711
51
336.0776923
0
ARC
8
DEFAULT_255_2_778
10
8.134802
20
5.482244
40
0.3611308
50
334.2904538
51
351.7541491
0
ARC
8
DEFAULT_255_2_778
10
7.9489307
20
5.51776
40
0.5502398
50
350.8699581
51
0.0394086
0
ARC
8
DEFAULT_255_2_778
10
8.0815988
20
5.5272182
40
0.4176699
50
358.7567043
51
22.0349248
0
ARC
8
DEFAULT_255_2_778
10
8.3457184
20
5.6424803
40
0.1298314
50
18.6115551
51
81.6837066
0
ARC
8
DEFAULT_255_2_778
10
5.6192854
20
95.172539
40
89.4437304
50
270.0009441
51
271.7588012
0
ARC
8
DEFAULT_255_2_778
10
5.6191811
20
95.2374993
40
89.5086909
50
269.8993841
51
270.0010102
0
ARC
8
DEFAULT_255_2_778
10
2.1474315
20
64.0399729
40
58.3110266
50
269.7446398
51
270.0061563
0
ARC
8
DEFAULT_255_2_778
10
2.0761964
20
49.11831
40
43.3891948
50
269.2533312
51
269.7508866
0
ARC
8
DEFAULT_255_2_778
10
1.9735226
20
41.0310122
40
35.3012458
50
268.6604301
51
269.2489097
0
ARC
8
DEFAULT_255_2_778
10
1.945462
20
39.6509663
40
33.9209213
50
267.9278943
51
268.6533199
0
ARC
8
DEFAULT_255_2_778
10
2.1160598
20
44.3303832
40
38.6034469
50
267.4267253
51
267.9259771
0
ARC
8
DEFAULT_255_2_778
10
2.3725343
20
50.1581055
40
44.436808
50
267.2831198
51
267.4337284
0
ARC
8
DEFAULT_255_2_778
10
0.3608425
20
5.5731281
40
0.2195648
50
115.5348461
51
169.3594264
0
ARC
8
DEFAULT_255_2_778
10
0.5464818
20
5.512126
40
0.4140728
50
165.8044094
51
180.2403161
0
ARC
8
DEFAULT_255_2_778
10
0.5850019
20
5.5103893
40
0.452589
50
180.0000053
51
180.4695836
0
ARC
8
DEFAULT_255_2_778
10
0.5370199
20
5.5049961
40
0.4045953
50
179.7615318
51
206.0486196
0
ARC
8
DEFAULT_255_2_778
10
0.3760835
20
5.4299724
40
0.2270848
50
206.8736234
51
224.1684447
0
ARC
8
DEFAULT_255_2_778
10
4.2636387
20
-1.9118288
40
7.1203515
50
86.9184789
51
90.2650759
0
ARC
8
DEFAULT_255_2_778
10
4.4927667
20
2.2081216
40
2.9940503
50
79.8752477
51
87.0585877
0
ARC
8
DEFAULT_255_2_778
10
4.8987909
20
4.5899061
40
0.5782929
50
49.1057953
51
77.9926952
0
ARC
8
DEFAULT_255_2_778
10
4.5731617
20
4.1906061
40
1.0934158
50
29.6399896
51
49.9053468
0
ARC
8
DEFAULT_255_2_778
10
4.6554185
20
4.2274233
40
1.0037519
50
21.391536
51
30.1354835
0
ARC
8
DEFAULT_255_2_778
10
4.9913244
20
4.3572055
40
0.6436522
50
11.6170353
51
21.5407828
0
ARC
8
DEFAULT_255_2_778
10
5.27543
20
4.4157036
40
0.3535868
50
0.606518
51
11.6024945
0
ARC
8
DEFAULT_255_2_778
10
3.7319008
20
4.3912267
40
1.8973059
50
354.6279367
51
0.8522282
0
ARC
8
DEFAULT_255_2_778
10
4.1642952
20
4.3666655
40
1.4645989
50
346.5813946
51
354.0008763
0
ARC
8
DEFAULT_255_2_778
10
3.8969452
20
4.4255257
40
1.7383164
50
345.6994306
51
346.7392373
0
ARC
8
DEFAULT_255_2_778
10
4.6118698
20
4.2929961
40
1.0139538
50
338.412173
51
342.9764734
0
ARC
8
DEFAULT_255_2_778
10
3.0584044
20
4.8990554
40
2.6814486
50
336.0721297
51
338.5834304
0
ARC
8
DEFAULT_255_2_778
10
0.2814602
20
6.1252905
40
5.7170801
50
334.4903355
51
336.1266671
0
ARC
8
DEFAULT_255_2_778
10
-4.0327943
20
8.1789321
40
10.4951785
50
333.3404422
51
334.5151955
0
ARC
8
DEFAULT_255_2_778
10
-10.6078655
20
11.4830482
40
17.8537612
50
332.1346781
51
333.3318018
0
ARC
8
DEFAULT_255_2_778
10
-14.6362378
20
13.5949111
40
22.4021178
50
332.1097915
51
332.1752181
0
ARC
8
DEFAULT_255_2_778
10
-15.2280409
20
13.9091183
40
23.0721599
50
331.7811307
51
332.1076118
0
ARC
8
DEFAULT_255_2_778
10
-16.0219113
20
14.3345424
40
23.9728351
50
331.2335489
51
331.7823567
0
ARC
8
DEFAULT_255_2_778
10
-14.4327167
20
13.4609771
40
22.1593702
50
330.8135316
51
331.2360638
0
ARC
8
DEFAULT_255_2_778
10
-10.7725395
20
11.4139778
40
17.9656728
50
330.281491
51
330.8205749
0
ARC
8
DEFAULT_255_2_778
10
-6.0936634
20
8.7424992
40
12.5778457
50
329.7159971
51
330.2842252
0
ARC
8
DEFAULT_255_2_778
10
-1.8321552
20
6.2515139
40
7.6417083
50
328.9335286
51
329.731257
0
ARC
8
DEFAULT_255_2_778
10
8.9533045
20
4.9282524
40
4.984067
50
210.5460382
51
211.7151336
0
ARC
8
DEFAULT_255_2_778
10
11.7610567
20
6.5896941
40
8.2465585
50
209.8605447
51
210.5730184
0
ARC
8
DEFAULT_255_2_778
10
16.0379103
20
9.0418182
40
13.1765063
50
209.0735941
51
209.8482571
0
ARC
8
DEFAULT_255_2_778
10
22.0565987
20
12.3939939
40
20.0657498
50
208.5829088
51
209.0881909
0
ARC
8
DEFAULT_255_2_778
10
29.8000309
20
16.6096168
40
28.8823372
50
208.0044962
51
208.5772691
0
ARC
8
DEFAULT_255_2_778
10
38.320959
20
21.1466187
40
38.5358644
50
207.5573447
51
208.0116982
0
ARC
8
DEFAULT_255_2_778
10
42.5064565
20
23.3361325
40
43.2594583
50
207.3828356
51
207.5636323
0
ARC
8
DEFAULT_255_2_778
10
43.5144965
20
23.8588428
40
44.3949629
50
206.9241729
51
207.3834946
0
ARC
8
DEFAULT_255_2_778
10
39.3304237
20
21.7359527
40
39.7031484
50
206.5599202
51
206.9267866
0
ARC
8
DEFAULT_255_2_778
10
32.6310663
20
18.3868685
40
32.2133051
50
206.243107
51
206.559673
0
ARC
8
DEFAULT_255_2_778
10
25.0890128
20
14.6716041
40
23.8058231
50
205.8102889
51
206.2494466
0
ARC
8
DEFAULT_255_2_778
10
17.8053169
20
11.1493832
40
15.7151948
50
205.3222883
51
205.8118285
0
ARC
8
DEFAULT_255_2_778
10
12.086937
20
8.4458246
40
9.3899207
50
204.6324474
51
205.3345838
0
ARC
8
DEFAULT_255_2_778
10
5.5394234
20
5.4839685
40
2.2040455
50
199.4383437
51
205.5851633
0
ARC
8
DEFAULT_255_2_778
10
4.6810012
20
5.1849136
40
1.2950351
50
192.5014635
51
199.6006044
0
ARC
8
DEFAULT_255_2_778
10
3.8865104
20
5.0134442
40
0.4822861
50
181.5324265
51
193.0449975
0
ARC
8
DEFAULT_255_2_778
10
3.5197131
20
5.0083423
40
0.1155794
50
180.0232591
51
183.8674893
0
ARC
8
DEFAULT_255_2_778
10
3.530697
20
5.000496
40
0.1268032
50
112.0345741
51
176.4736584
0
ARC
8
DEFAULT_255_2_778
10
3.7221609
20
4.6514333
40
0.5242686
50
101.6548764
51
117.1255775
0
ARC
8
DEFAULT_255_2_778
10
3.9401046
20
3.6907901
40
1.5092581
50
95.1921325
51
102.3908008
0
ARC
8
DEFAULT_255_2_778
10
4.1352821
20
1.6877242
40
3.5217922
50
91.3757416
51
95.4053788
0
ARC
8
DEFAULT_255_2_778
10
4.2238239
20
-1.1699218
40
6.3807713
50
89.9454676
51
91.5544981
0
ARC
8
DEFAULT_255_2_778
10
14.1939381
20
3.4681129
40
3.6042665
50
270.0152421
51
275.4081475
0
ARC
8
DEFAULT_255_2_778
10
14.193162
20
3.4869071
40
3.6230504
50
275.3923533
51
281.6638514
0
ARC
8
DEFAULT_255_2_778
10
14.2085732
20
3.410382
40
3.5449898
50
281.6699615
51
284.8861301
0
ARC
8
DEFAULT_255_2_778
10
14.266325
20
3.2148981
40
3.3412349
50
284.790205
51
297.372197
0
ARC
8
DEFAULT_255_2_778
10
14.3924975
20
2.9669238
40
3.0630146
50
297.4089512
51
310.2946391
0
ARC
8
DEFAULT_255_2_778
10
14.4287614
20
2.918796
40
3.0028557
50
310.3607636
51
321.4867127
0
ARC
8
DEFAULT_255_2_778
10
14.3007269
20
3.018629
40
3.1652041
50
321.5158725
51
330.870335
0
ARC
8
DEFAULT_255_2_778
10
16.7604606
20
1.4818095
40
0.305162
50
359.2559093
51
42.9380905
0
ARC
8
DEFAULT_255_2_778
10
16.6973353
20
1.414427
40
0.3973273
50
43.850742
51
79.8726172
0
ARC
8
DEFAULT_255_2_778
10
16.6916421
20
1.4102537
40
0.402466
50
79.1791924
51
89.8729339
0
ARC
8
DEFAULT_255_2_778
10
16.6918876
20
1.4667722
40
0.3459471
50
89.8928388
51
98.241602
0
ARC
8
DEFAULT_255_2_778
10
15.1320941
20
2.8201244
40
1.8173576
50
318.0729881
51
326.2003871
0
ARC
8
DEFAULT_255_2_778
10
15.3061228
20
2.6639971
40
1.583559
50
307.950841
51
318.0684697
0
ARC
8
DEFAULT_255_2_778
10
15.3605661
20
2.5969754
40
1.4972292
50
295.8533601
51
307.885276
0
ARC
8
DEFAULT_255_2_778
10
15.330292
20
2.6601442
40
1.5672772
50
289.3636829
51
295.8423257
0
ARC
8
DEFAULT_255_2_778
10
15.2548483
20
2.8913553
40
1.810432
50
278.4790015
51
289.1900942
0
ARC
8
DEFAULT_255_2_778
10
15.1603854
20
3.5178819
40
2.4440391
50
271.8153317
51
278.5036404
0
ARC
8
DEFAULT_255_2_778
10
15.1202777
20
4.4865732
40
3.4135278
50
269.9533244
51
271.9731288
0
ARC
8
DEFAULT_255_2_778
10
15.1089745
20
4.1055634
40
3.0325289
50
260.7165971
51
270.1610194
0
ARC
8
DEFAULT_255_2_778
10
15.0229662
20
3.5849833
40
2.5048926
50
248.9841085
51
260.7372512
0
ARC
8
DEFAULT_255_2_778
10
14.8948396
20
3.252699
40
2.148762
50
233.3789251
51
248.9957777
0
ARC
8
DEFAULT_255_2_778
10
14.803486
20
3.1255192
40
1.9921952
50
209.8689935
51
233.3057289
0
ARC
8
DEFAULT_255_2_778
10
14.8728081
20
3.158649
40
2.0688163
50
179.8726702
51
209.7085097
0
ARC
8
DEFAULT_255_2_778
10
13.4157599
20
3.1817401
40
0.6120424
50
169.9156281
51
181.7315226
0
ARC
8
DEFAULT_255_2_778
10
12.951083
20
3.2646274
40
0.140031
50
93.8536445
51
170.0149148
0
ARC
8
DEFAULT_255_2_778
10
13.0925236
20
2.6183232
40
0.8003633
50
91.6059458
51
100.8640478
0
ARC
8
DEFAULT_255_2_778
10
13.1997235
20
0.1961042
40
3.2248744
50
89.74463
51
92.3037413
0
ARC
8
DEFAULT_255_2_778
10
16.363702
20
4.8236006
40
1.4026941
50
269.5668119
51
277.7518018
0
ARC
8
DEFAULT_255_2_778
10
16.4655938
20
4.1107632
40
0.6826445
50
277.3479382
51
292.1537436
0
ARC
8
DEFAULT_255_2_778
10
16.6011685
20
3.7895889
40
0.3340862
50
291.3899835
51
325.5648466
0
ARC
8
DEFAULT_255_2_778
10
16.4516485
20
3.8460438
40
0.4908014
50
330.0039126
51
2.6304522
0
ARC
8
DEFAULT_255_2_778
10
15.6718078
20
3.8889817
40
1.2702889
50
359.0792355
51
0.0119453
0
ARC
8
DEFAULT_255_2_778
10
15.1123309
20
3.8973935
40
1.8297841
50
359.7448936
51
45.3110427
0
ARC
8
DEFAULT_255_2_778
10
14.8813918
20
3.6728332
40
2.1518507
50
45.1443921
51
60.4971621
0
ARC
8
DEFAULT_255_2_778
10
14.6511786
20
3.2708098
40
2.6151176
50
60.4450455
51
71.8299273
0
ARC
8
DEFAULT_255_2_778
10
14.4618269
20
2.7000264
40
3.2164867
50
71.7957743
51
80.9548306
0
ARC
8
DEFAULT_255_2_778
10
14.3426101
20
1.9634099
40
3.9626862
50
80.9269454
51
88.4958506
0
ARC
8
DEFAULT_255_2_778
10
14.3187256
20
1.4215738
40
4.5049727
50
88.3730747
51
90.0067238
0
ARC
8
DEFAULT_255_2_778
10
14.3107878
20
1.6583138
40
4.2682392
50
89.9005417
51
100.4765779
0
ARC
8
DEFAULT_255_2_778
10
14.228607
20
2.0953926
40
3.8235036
50
100.4565704
51
113.1653358
0
ARC
8
DEFAULT_255_2_778
10
14.0687706
20
2.4622996
40
3.4233027
50
113.1215962
51
129.7364178
0
ARC
8
DEFAULT_255_2_778
10
13.7994351
20
2.7635477
40
3.0195053
50
129.4604723
51
173.4446486
0
ARC
8
DEFAULT_255_2_778
10
13.9195991
20
2.7520025
40
3.1402025
50
173.4856747
51
180.0229157
0
ARC
8
DEFAULT_255_2_778
10
13.535114
20
2.7496209
40
2.7557174
50
179.9765959
51
225.0069467
0
ARC
8
DEFAULT_255_2_778
10
13.6322416
20
2.8669525
40
2.9073996
50
225.2881254
51
240.0165379
0
ARC
8
DEFAULT_255_2_778
10
13.8445359
20
3.2334101
40
3.3309082
50
240.0037119
51
251.2376456
0
ARC
8
DEFAULT_255_2_778
10
14.0357188
20
3.7919289
40
3.9212408
50
251.2174879
51
260.2741914
0
ARC
8
DEFAULT_255_2_778
10
14.1636676
20
4.5289952
40
4.6693286
50
260.2546225
51
267.7601968
0
ARC
8
DEFAULT_255_2_778
10
14.1961681
20
5.1281863
40
5.2693399
50
267.6617046
51
270.0122743
0
ARC
8
DEFAULT_255_2_778
10
14.2267147
20
4.0624215
40
1.2122724
50
75.8399365
51
90.506561
0
ARC
8
DEFAULT_255_2_778
10
14.3331469
20
4.466832
40
0.7941243
50
51.3621669
51
76.1477863
0
ARC
8
DEFAULT_255_2_778
10
14.3795602
20
4.550241
40
0.7001714
50
5.8118652
51
50.066966
0
ARC
8
DEFAULT_255_2_778
10
14.1100492
20
4.4984019
40
0.973849
50
359.9026064
51
7.2405896
0
ARC
8
DEFAULT_255_2_778
10
14.2646211
20
4.4967633
40
0.8192758
50
358.7045521
51
359.9988275
0
ARC
8
DEFAULT_255_2_778
10
14.4588342
20
4.4799083
40
0.6248557
50
339.0865492
51
359.8471382
0
ARC
8
DEFAULT_255_2_778
10
14.8869715
20
4.3107259
40
0.1646154
50
301.7510669
51
340.9002575
0
ARC
8
DEFAULT_255_2_778
10
14.5174587
20
5.0639784
40
1.0029582
50
278.6110495
51
297.0516059
0
ARC
8
DEFAULT_255_2_778
10
14.3601784
20
5.8906205
40
1.8441041
50
273.9576616
51
279.5971723
0
ARC
8
DEFAULT_255_2_778
10
14.305139
20
6.6561316
40
2.6115892
50
269.895963
51
274.0031443
0
ARC
8
DEFAULT_255_2_778
10
13.6572517
20
16.0899904
40
12.0454864
50
268.9853244
51
270.1524268
0
ARC
8
DEFAULT_255_2_778
10
13.4877792
20
7.0437466
40
2.9976743
50
265.2833496
51
269.1621332
0
ARC
8
DEFAULT_255_2_778
10
13.306587
20
4.940756
40
0.8869393
50
255.5869293
51
265.7777752
0
ARC
8
DEFAULT_255_2_778
10
13.1357021
20
4.311846
40
0.2354589
50
224.7568377
51
257.7687355
0
ARC
8
DEFAULT_255_2_778
10
13.0891973
20
4.2470868
40
0.1573968
50
177.1377016
51
219.9309101
0
ARC
8
DEFAULT_255_2_778
10
13.5400838
20
4.2450202
40
0.6081679
50
166.0297782
51
179.064792
0
ARC
8
DEFAULT_255_2_778
10
13.6752128
20
4.213833
40
0.7468326
50
159.5061656
51
166.2106626
0
ARC
8
DEFAULT_255_2_778
10
13.930635
20
4.1054657
40
1.0241005
50
139.9455927
51
158.8300956
0
ARC
8
DEFAULT_255_2_778
10
14.2269812
20
3.8648155
40
1.4058109
50
121.3441069
51
140.2105679
0
ARC
8
DEFAULT_255_2_778
10
14.233279
20
3.8775693
40
1.398246
50
94.2643097
51
121.8363667
0
ARC
8
DEFAULT_255_2_778
10
14.2153029
20
3.9993704
40
1.2754762
50
90.0047602
51
93.8658765
0
LINE
8
DEFAULT_255_2_778
10
4.3353969
20
-0.0337535
11
6.1178969
21
3.2947465
0
LINE
8
DEFAULT_255_2_778
10
11.6675969
20
5.2399465
11
11.8987969
21
5.2770465
0
LINE
8
DEFAULT_255_2_778
10
9.1852969
20
5.2767465
11
9.4638969
21
5.2238465
0
LINE
8
DEFAULT_255_2_778
10
8.1702969
20
5.2344465
11
8.4120969
21
5.2714465
0
LINE
8
DEFAULT_255_2_778
10
5.4619969
20
5.7289465
11
2.1536969
21
5.7289465
0
LINE
8
DEFAULT_255_2_778
10
0.2131969
20
5.2717465
11
0.5132969
21
5.2084465
0
LINE
8
DEFAULT_255_2_778
10
4.2298969
20
5.2108465
11
4.2306969
21
5.2084465
0
LINE
8
DEFAULT_255_2_778
10
13.2140969
20
3.4209465
11
16.3530969
21
3.4209465
0
LINE
8
DEFAULT_255_2_778
10
14.1972969
20
-0.1411535
11
14.1948969
21
-0.1361535
0
LINE
8
DEFAULT_255_2_778
10
14.3003969
20
4.0445465
11
13.6892969
21
4.0445465
0
LINE
8
DEFAULT_255_2_778
10
14.2151969
20
5.2748465
11
14.2159969
21
5.2746465
0
ENDSEC
0
EOF