0
SECTION
2
HEADER
9
$MEASUREMENT
70
1
0
ENDSEC
0
SECTION
2
TABLES
0
TABLE
2
LTYPE
0
LTYPE
72
65
70
64
2
CONTINUOUS
3
______
73
0
40
0
0
ENDTAB
0
TABLE
2
LAYER
0
LAYER
2
DEFAULT_255_2_778
70
0
62
255
6
CONTINUOUS
0
ENDTAB
0
ENDSEC
0
SECTION
2
ENTITIES
0
ARC
8
DEFAULT_255_2_778
10
8.7385366
20
6.1776495
40
6.3063702
50
42.2350343
51
64.6408212
0
ARC
8
DEFAULT_255_2_778
10
8.7378481
20
6.1777838
40
6.3065439
50
64.6346454
51
89.1985621
0
ARC
8
DEFAULT_255_2_778
10
8.7375744
20
6.167786
40
6.3165446
50
89.1973485
51
90.0001784
0
ARC
8
DEFAULT_255_2_778
10
8.7374195
20
6.2315877
40
6.252743
50
89.9987608
51
90.083257
0
ARC
8
DEFAULT_255_2_778
10
8.7244184
20
6.1309785
40
6.3533468
50
89.9646924
51
101.4949101
0
ARC
8
DEFAULT_255_2_778
10
8.7109381
20
6.212372
40
6.2709003
50
101.5224139
51
117.6304131
0
ARC
8
DEFAULT_255_2_778
10
8.7759778
20
6.0958699
40
6.4042805
50
117.6625548
51
137.5717353
0
ARC
8
DEFAULT_255_2_778
10
8.7131946
20
6.135578
40
6.2953839
50
222.1903565
51
249.4723862
0
ARC
8
DEFAULT_255_2_778
10
8.7125405
20
6.1415812
40
6.3007771
50
249.4970991
51
263.5606513
0
ARC
8
DEFAULT_255_2_778
10
8.7270581
20
6.2601623
40
6.4202383
50
263.5505939
51
270.011383
0
ARC
8
DEFAULT_255_2_778
10
8.7320634
20
4.2566383
40
4.4167158
50
269.9516144
51
270.0161315
0
ARC
8
DEFAULT_255_2_778
10
8.73364
20
6.1556084
40
6.3156863
50
269.9969785
51
292.7541409
0
ARC
8
DEFAULT_255_2_778
10
8.734049
20
6.1564846
40
6.3163361
50
292.7476457
51
316.934214
0
ARC
8
DEFAULT_255_2_778
10
8.7265359
20
6.1637341
40
6.3267752
50
316.9327101
51
317.7231228
0
ARC
8
DEFAULT_255_2_778
10
3.0743411
20
7.0687438
40
2.8096802
50
89.9981149
51
135.0018366
0
ARC
8
DEFAULT_255_2_778
10
3.0740393
20
7.0686887
40
2.8095057
50
134.9966883
51
180.0033574
0
ARC
8
DEFAULT_255_2_778
10
3.0697823
20
5.2525728
40
2.8052504
50
179.9376795
51
199.3761032
0
ARC
8
DEFAULT_255_2_778
10
3.0776152
20
5.2595629
40
2.8149616
50
199.4574275
51
258.2034593
0
ARC
8
DEFAULT_255_2_778
10
3.072923
20
5.2676109
40
2.8218873
50
258.3301251
51
270.0306708
0
ARC
8
DEFAULT_255_2_778
10
14.391079
20
5.2507091
40
2.8049867
50
269.9377919
51
289.3770216
0
ARC
8
DEFAULT_255_2_778
10
14.3839773
20
5.258799
40
2.8149774
50
289.4587501
51
348.2036666
0
ARC
8
DEFAULT_255_2_778
10
14.3759277
20
5.2541144
40
2.8219062
50
348.3301846
51
0.0306509
0
ARC
8
DEFAULT_255_2_778
10
14.3922474
20
7.0715901
40
2.8055878
50
359.9373842
51
19.3742133
0
ARC
8
DEFAULT_255_2_778
10
14.3849516
20
7.0648132
40
2.8147213
50
19.4550839
51
78.204602
0
ARC
8
DEFAULT_255_2_778
10
14.3895492
20
7.0564321
40
2.8219923
50
78.3307617
51
90.0307726
0
ARC
8
DEFAULT_255_2_778
10
7.5448734
20
7.771364
40
0.4756605
50
359.922912
51
90.077076
0
ARC
8
DEFAULT_255_2_778
10
7.541734
20
7.7736243
40
0.4788084
50
270.3350081
51
359.6529451
0
ARC
8
DEFAULT_255_2_778
10
7.5438232
20
7.7703136
40
0.4754901
50
179.9143988
51
270.0855927
0
ARC
8
DEFAULT_255_2_778
10
7.5471337
20
7.7682246
40
0.4788083
50
90.3470402
51
179.6650066
0
ARC
8
DEFAULT_255_2_778
10
14.4278784
20
5.212937
40
2.481057
50
338.8588357
51
0.0689798
0
ARC
8
DEFAULT_255_2_778
10
14.4195082
20
5.2190835
40
2.4910822
50
280.6782139
51
338.7964153
0
ARC
8
DEFAULT_255_2_778
10
14.4229771
20
5.2298047
40
2.5009808
50
269.9738028
51
280.5546092
0
ARC
8
DEFAULT_255_2_778
10
6.6408206
20
5.2098792
40
2.481057
50
269.9310202
51
291.1411643
0
ARC
8
DEFAULT_255_2_778
10
6.6346741
20
5.2182494
40
2.4910822
50
291.2035847
51
349.3217861
0
ARC
8
DEFAULT_255_2_778
10
6.6239529
20
5.2147805
40
2.5009808
50
349.4453908
51
0.0261972
0
ARC
8
DEFAULT_255_2_778
10
11.6060107
20
7.1054101
40
2.4810789
50
158.8590074
51
180.0689564
0
ARC
8
DEFAULT_255_2_778
10
11.6143474
20
7.0992972
40
2.4910608
50
100.6796631
51
158.7970291
0
ARC
8
DEFAULT_255_2_778
10
11.6107919
20
7.0888528
40
2.5006713
50
89.9738414
51
100.5552619
0
ARC
8
DEFAULT_255_2_778
10
14.4248206
20
7.1084688
40
2.481057
50
68.8588357
51
90.0689798
0
ARC
8
DEFAULT_255_2_778
10
14.4186741
20
7.1000987
40
2.4910822
50
10.6782139
51
68.7964153
0
ARC
8
DEFAULT_255_2_778
10
14.4079529
20
7.1035676
40
2.5009808
50
359.9738028
51
10.5546092
0
ARC
8
DEFAULT_255_2_778
10
14.2857082
20
7.7785986
40
0.4755751
50
179.9246527
51
270.0873864
0
ARC
8
DEFAULT_255_2_778
10
14.2836846
20
7.781673
40
0.4786568
50
270.3290562
51
359.6709499
0
ARC
8
DEFAULT_255_2_778
10
14.2867587
20
7.779649
40
0.4755754
50
359.9126536
51
90.0753157
0
ARC
8
DEFAULT_255_2_778
10
14.2851737
20
7.7798838
40
0.4753413
50
89.8843026
51
180.1156804
0
LINE
8
DEFAULT_255_2_778
10
4.0488336
20
10.416624
11
13.4077336
21
10.416624
0
LINE
8
DEFAULT_255_2_778
10
13.4077336
20
1.907624
11
4.0488336
21
1.907624
0
LINE
8
DEFAULT_255_2_778
10
14.3880336
20
9.878424
11
3.0744336
21
9.878424
0
LINE
8
DEFAULT_255_2_778
10
0.2645336
20
7.068524
11
0.2645336
21
5.255624
0
LINE
8
DEFAULT_255_2_778
10
3.0744336
20
2.445724
11
14.3880336
21
2.445724
0
LINE
8
DEFAULT_255_2_778
10
17.1978336
20
5.255624
11
17.1978336
21
7.068524
0
LINE
8
DEFAULT_255_2_778
10
14.3880336
20
9.878424
11
14.3880336
21
9.878424
0
LINE
8
DEFAULT_255_2_778
10
7.5442336
20
8.247024
11
7.5442336
21
8.247024
0
LINE
8
DEFAULT_255_2_778
10
7.9522336
20
6.932524
11
7.9522336
21
4.275624
0
LINE
8
DEFAULT_255_2_778
10
7.9522336
20
4.275624
11
7.1479336
21
4.275624
0
LINE
8
DEFAULT_255_2_778
10
7.1479336
20
4.275624
11
7.1479336
21
6.932524
0
LINE
8
DEFAULT_255_2_778
10
7.1479336
20
6.932524
11
7.9522336
21
6.932524
0
LINE
8
DEFAULT_255_2_778
10
4.9722336
20
4.275624
11
4.1962336
21
6.955324
0
LINE
8
DEFAULT_255_2_778
10
4.1962336
20
6.955324
11
3.4199336
21
4.275624
0
LINE
8
DEFAULT_255_2_778
10
3.4199336
20
4.275624
11
2.7516336
21
4.275624
0
LINE
8
DEFAULT_255_2_778
10
2.7516336
20
4.275624
11
1.7144336
21
8.150724
0
LINE
8
DEFAULT_255_2_778
10
1.7144336
20
8.150724
11
2.5611336
21
8.150724
0
LINE
8
DEFAULT_255_2_778
10
2.5611336
20
8.150724
11
3.1220336
21
5.663624
0
LINE
8
DEFAULT_255_2_778
10
3.1220336
20
5.663624
11
3.8586336
21
8.150724
0
LINE
8
DEFAULT_255_2_778
10
3.8586336
20
8.150724
11
4.5724336
21
8.150724
0
LINE
8
DEFAULT_255_2_778
10
4.5724336
20
8.150724
11
5.3090336
21
5.601424
0
LINE
8
DEFAULT_255_2_778
10
5.3090336
20
5.601424
11
5.9038336
21
8.150724
0
LINE
8
DEFAULT_255_2_778
10
5.9038336
20
8.150724
11
6.6799336
21
8.150724
0
LINE
8
DEFAULT_255_2_778
10
6.6799336
20
8.150724
11
5.6578336
21
4.275624
0
LINE
8
DEFAULT_255_2_778
10
5.6578336
20
4.275624
11
4.9722336
21
4.275624
0
LINE
8
DEFAULT_255_2_778
10
14.4218336
20
2.728824
11
6.6378336
21
2.728824
0
LINE
8
DEFAULT_255_2_778
10
9.1249336
20
5.215924
11
9.1249336
21
7.102424
0
LINE
8
DEFAULT_255_2_778
10
11.6119336
20
9.589524
11
14.4218336
21
9.589524
0
LINE
8
DEFAULT_255_2_778
10
16.9089336
20
7.102424
11
16.9089336
21
5.215924
0
LINE
8
DEFAULT_255_2_778
10
10.3996336
20
8.150724
11
10.3996336
21
4.275624
0
LINE
8
DEFAULT_255_2_778
10
10.3996336
20
4.275624
11
11.2495336
21
4.275624
0
LINE
8
DEFAULT_255_2_778
10
11.2495336
20
4.275624
11
11.2495336
21
5.793824
0
LINE
8
DEFAULT_255_2_778
10
11.2495336
20
5.793824
11
13.1756336
21
5.793824
0
LINE
8
DEFAULT_255_2_778
10
13.1756336
20
5.793824
11
13.1756336
21
6.581224
0
LINE
8
DEFAULT_255_2_778
10
13.1756336
20
6.581224
11
11.2495336
21
6.581224
0
LINE
8
DEFAULT_255_2_778
10
11.2495336
20
6.581224
11
11.2495336
21
7.363324
0
LINE
8
DEFAULT_255_2_778
10
11.2495336
20
7.363324
11
13.3085336
21
7.363324
0
LINE
8
DEFAULT_255_2_778
10
13.3085336
20
7.363324
11
13.3085336
21
8.150724
0
LINE
8
DEFAULT_255_2_778
10
13.3085336
20
8.150724
11
10.3996336
21
8.150724
0
LINE
8
DEFAULT_255_2_778
10
13.8837336
20
6.932524
11
13.8837336
21
4.275624
0
LINE
8
DEFAULT_255_2_778
10
13.8837336
20
4.275624
11
14.6880336
21
4.275624
0
LINE
8
DEFAULT_255_2_778
10
14.6880336
20
4.275624
11
14.6880336
21
6.932524
0
LINE
8
DEFAULT_255_2_778
10
14.6880336
20
6.932524
11
13.8837336
21
6.932524
0
LINE
8
DEFAULT_255_2_778
10
13.8098336
20
7.778924
11
13.8101336
21
7.779224
0
ENDSEC
0
EOF