0
SECTION
2
HEADER
9
$MEASUREMENT
70
1
0
ENDSEC
0
SECTION
2
TABLES
0
TABLE
2
LTYPE
0
LTYPE
72
65
70
64
2
CONTINUOUS
3
______
73
0
40
0
0
ENDTAB
0
TABLE
2
LAYER
0
LAYER
2
DEFAULT_255_2_778
70
0
62
255
6
CONTINUOUS
0
ENDTAB
0
ENDSEC
0
SECTION
2
ENTITIES
0
ARC
8
DEFAULT_255_2_778
10
6.581955
20
5.9387713
40
2.0829495
50
157.1865186
51
180.0958277
0
ARC
8
DEFAULT_255_2_778
10
6.5740716
20
5.9397293
40
2.0753124
50
100.2892877
51
157.12651
0
ARC
8
DEFAULT_255_2_778
10
6.5778325
20
5.9069686
40
2.1082191
50
89.9707597
51
100.2308249
0
ARC
8
DEFAULT_255_2_778
10
6.5823774
20
5.9323765
40
2.0828139
50
67.1857659
51
90.095426
0
ARC
8
DEFAULT_255_2_778
10
6.5832632
20
5.9400369
40
2.0754105
50
10.2912525
51
67.1263093
0
ARC
8
DEFAULT_255_2_778
10
6.5507635
20
5.9363602
40
2.1080453
50
359.9708461
51
10.2317678
0
ARC
8
DEFAULT_255_2_778
10
6.5761314
20
5.931825
40
2.0826799
50
337.1840236
51
0.0952551
0
ARC
8
DEFAULT_255_2_778
10
6.5835607
20
5.93104
40
2.0755286
50
280.292643
51
337.1244706
0
ARC
8
DEFAULT_255_2_778
10
6.5799777
20
5.9631767
40
2.1077895
50
269.9709357
51
280.2323891
0
ARC
8
DEFAULT_255_2_778
10
6.5754305
20
5.938198
40
2.0828134
50
247.1847704
51
270.0956748
0
ARC
8
DEFAULT_255_2_778
10
6.5745739
20
5.9305477
40
2.0754306
50
190.2906782
51
247.1246713
0
ARC
8
DEFAULT_255_2_778
10
6.6069715
20
5.934215
40
2.1079633
50
179.9708493
51
190.2314461
0
LINE
8
DEFAULT_255_2_778
10
4.4990084
20
5.9352875
11
4.4990084
21
5.9352875
0
LINE
8
DEFAULT_255_2_778
10
6.5789
20
-0.3040909
11
6.5789
21
2.1917091
0
LINE
8
DEFAULT_255_2_778
10
5.6843071
20
2.0876911
11
6.5786071
21
3.6476911
0
LINE
8
DEFAULT_255_2_778
10
6.5786071
20
3.6476911
11
7.4729071
21
2.0876911
0
LINE
8
DEFAULT_255_2_778
10
7.4729071
20
2.0876911
11
5.6843071
21
2.0876911
0
LINE
8
DEFAULT_255_2_778
10
2.1667169
20
1.5232831
11
3.9315169
21
3.2880831
0
LINE
8
DEFAULT_255_2_778
10
3.2254962
20
3.8469038
11
4.9608962
21
4.3176038
0
LINE
8
DEFAULT_255_2_778
10
4.9608962
20
4.3176038
11
4.4901962
21
2.5822038
0
LINE
8
DEFAULT_255_2_778
10
4.4901962
20
2.5822038
11
3.2254962
21
3.8469038
0
LINE
8
DEFAULT_255_2_778
10
0.3391909
20
5.9353
11
2.8349909
21
5.9353
0
LINE
8
DEFAULT_255_2_778
10
2.7310089
20
6.8297929
11
4.2910089
21
5.9354929
0
LINE
8
DEFAULT_255_2_778
10
4.2910089
20
5.9354929
11
2.7310089
21
5.0411929
0
LINE
8
DEFAULT_255_2_778
10
2.7310089
20
5.0411929
11
2.7310089
21
6.8297929
0
LINE
8
DEFAULT_255_2_778
10
2.1667169
20
10.3474831
11
3.9315169
21
8.5826831
0
LINE
8
DEFAULT_255_2_778
10
4.4901962
20
9.2885998
11
4.9608962
21
7.5531998
0
LINE
8
DEFAULT_255_2_778
10
4.9608962
20
7.5531998
11
3.2254962
21
8.0238998
0
LINE
8
DEFAULT_255_2_778
10
3.2254962
20
8.0238998
11
4.4901962
21
9.2885998
0
LINE
8
DEFAULT_255_2_778
10
10.9908169
20
1.5232831
11
9.2260169
21
3.2880831
0
LINE
8
DEFAULT_255_2_778
10
9.9319043
20
3.8469038
11
8.1965043
21
4.3176038
0
LINE
8
DEFAULT_255_2_778
10
8.1965043
20
4.3176038
11
8.6672043
21
2.5822038
0
LINE
8
DEFAULT_255_2_778
10
8.6672043
20
2.5822038
11
9.9319043
21
3.8469038
0
LINE
8
DEFAULT_255_2_778
10
12.8182869
20
5.9353
11
10.3224869
21
5.9353
0
LINE
8
DEFAULT_255_2_778
10
10.4267008
20
6.8297929
11
8.8667008
21
5.9354929
0
LINE
8
DEFAULT_255_2_778
10
8.8667008
20
5.9354929
11
10.4267008
21
5.0411929
0
LINE
8
DEFAULT_255_2_778
10
10.4267008
20
5.0411929
11
10.4267008
21
6.8297929
0
LINE
8
DEFAULT_255_2_778
10
10.9908169
20
10.3474831
11
9.2260169
21
8.5826831
0
LINE
8
DEFAULT_255_2_778
10
8.6672043
20
9.2885998
11
8.1965043
21
7.5531998
0
LINE
8
DEFAULT_255_2_778
10
8.1965043
20
7.5531998
11
9.9319043
21
8.0238998
0
LINE
8
DEFAULT_255_2_778
10
9.9319043
20
8.0238998
11
8.6672043
21
9.2885998
0
ARC
8
DEFAULT_255_2_778
10
6.6049049
20
5.9068554
40
5.3632362
50
134.9798013
51
144.0322704
0
ARC
8
DEFAULT_255_2_778
10
6.5436648
20
5.9523265
40
5.2869653
50
144.0413072
51
155.2438504
0
ARC
8
DEFAULT_255_2_778
10
6.5676734
20
5.9430575
40
5.3126491
50
155.2615004
51
171.5958088
0
ARC
8
DEFAULT_255_2_778
10
6.6083617
20
5.9357047
40
5.3539752
50
171.5816072
51
180.0014114
0
ARC
8
DEFAULT_255_2_778
10
6.5895422
20
5.9338067
40
5.3351561
50
179.9810335
51
200.9945065
0
ARC
8
DEFAULT_255_2_778
10
6.5412915
20
5.9176046
40
5.2843041
50
201.0179332
51
212.8981595
0
ARC
8
DEFAULT_255_2_778
10
6.5781748
20
5.9426262
40
5.3288632
50
212.9086537
51
222.3579292
0
ARC
8
DEFAULT_255_2_778
10
6.641925
20
5.9989227
40
5.413902
50
222.3436205
51
225.0021422
0
ARC
8
DEFAULT_255_2_778
10
6.607973
20
5.9620043
40
5.3637893
50
224.9797563
51
234.0316693
0
ARC
8
DEFAULT_255_2_778
10
6.5623284
20
5.9005286
40
5.2872257
50
234.0407189
51
245.2430091
0
ARC
8
DEFAULT_255_2_778
10
6.5714568
20
5.924228
40
5.3125698
50
245.2606452
51
261.595351
0
ARC
8
DEFAULT_255_2_778
10
6.5787773
20
5.9647168
40
5.353694
50
261.5811816
51
270.001435
0
ARC
8
DEFAULT_255_2_778
10
6.5806718
20
5.9459997
40
5.3349772
50
269.9810936
51
290.9953712
0
ARC
8
DEFAULT_255_2_778
10
6.5967589
20
5.8980657
40
5.2844621
50
291.0187406
51
302.8988713
0
ARC
8
DEFAULT_255_2_778
10
6.5715787
20
5.9351985
40
5.3293168
50
302.9093331
51
312.3581587
0
ARC
8
DEFAULT_255_2_778
10
6.5150749
20
5.9991772
40
5.4146638
50
312.3438406
51
315.0021112
0
ARC
8
DEFAULT_255_2_778
10
6.5529179
20
5.9642902
40
5.3632362
50
314.9798013
51
324.0322704
0
ARC
8
DEFAULT_255_2_778
10
6.614158
20
5.918819
40
5.2869653
50
324.0413072
51
335.2438504
0
ARC
8
DEFAULT_255_2_778
10
6.5901494
20
5.9280881
40
5.3126491
50
335.2615004
51
351.5958088
0
ARC
8
DEFAULT_255_2_778
10
6.5494612
20
5.9354409
40
5.3539752
50
351.5816072
51
0.0014114
0
ARC
8
DEFAULT_255_2_778
10
6.5682806
20
5.9373389
40
5.3351561
50
359.9810335
51
20.9945065
0
ARC
8
DEFAULT_255_2_778
10
6.6165313
20
5.953541
40
5.2843041
50
21.0179332
51
32.8981595
0
ARC
8
DEFAULT_255_2_778
10
6.579648
20
5.9285194
40
5.3288632
50
32.9086537
51
42.3579292
0
ARC
8
DEFAULT_255_2_778
10
6.5158978
20
5.8722229
40
5.413902
50
42.3436205
51
45.0021422
0
ARC
8
DEFAULT_255_2_778
10
8.1398975
20
7.4954994
40
3.117731
50
45.013117
51
51.1685299
0
ARC
8
DEFAULT_255_2_778
10
7.9608611
20
7.2678234
40
3.4073523
50
51.2238844
51
57.8867112
0
ARC
8
DEFAULT_255_2_778
10
7.3697092
20
6.3009354
40
4.540578
50
58.0543879
51
64.9566878
0
ARC
8
DEFAULT_255_2_778
10
5.7126074
20
2.7839418
40
8.428398
50
64.8713083
51
67.7524203
0
ARC
8
DEFAULT_255_2_778
10
-3.8216434
20
-20.4186571
40
33.5134959
50
67.6844402
51
68.2529503
0
LINE
8
DEFAULT_255_2_778
10
8.5954289
20
10.7096375
11
8.5930108
21
10.7106084
0
ARC
8
DEFAULT_255_2_778
10
10.9909475
20
17.1105718
40
6.8344446
50
240.8752635
51
249.4600426
0
ARC
8
DEFAULT_255_2_778
10
9.0629827
20
13.5622828
40
2.7967563
50
225.4986327
51
239.9984127
0
ARC
8
DEFAULT_255_2_778
10
8.8636138
20
13.3368943
40
2.4963086
50
215.1552205
51
225.1363497
0
ARC
8
DEFAULT_255_2_778
10
9.0689569
20
13.4796914
40
2.7464184
50
207.5200879
51
215.1242407
0
ARC
8
DEFAULT_255_2_778
10
9.5033032
20
13.7058023
40
3.2360947
50
201.1931093
51
207.5171194
0
ARC
8
DEFAULT_255_2_778
10
10.1311636
20
13.9511226
40
3.9101779
50
196.452236
51
201.2187411
0
ARC
8
DEFAULT_255_2_778
10
10.9410511
20
14.19077
40
4.7547776
50
192.333104
51
196.4578069
0
ARC
8
DEFAULT_255_2_778
10
11.9952512
20
14.4220327
40
5.8340458
50
188.795025
51
192.3405086
0
ARC
8
DEFAULT_255_2_778
10
12.8556492
20
14.5615627
40
6.7056641
50
187.7579754
51
188.8491488
0
ARC
8
DEFAULT_255_2_778
10
2.8395793
20
17.5193951
40
3.3753757
50
344.8026788
51
345.0159748
0
ARC
8
DEFAULT_255_2_778
10
-1.7597422
20
18.7668883
40
8.1408762
50
344.5783103
51
344.8154739
0
ARC
8
DEFAULT_255_2_778
10
-5.5211163
20
19.8037025
40
12.042532
50
344.3454098
51
344.5818551
0
ARC
8
DEFAULT_255_2_778
10
-8.9527057
20
20.7660258
40
15.6065004
50
343.9851378
51
344.3430027
0
ARC
8
DEFAULT_255_2_778
10
-11.9898245
20
21.6372549
40
18.7661096
50
343.5737848
51
343.9866149
0
ARC
8
DEFAULT_255_2_778
10
-13.9771158
20
22.2226439
40
20.8378257
50
343.1129159
51
343.5750792
0
ARC
8
DEFAULT_255_2_778
10
-14.940753
20
22.5145625
40
21.8447085
50
342.6700182
51
343.1144707
0
ARC
8
DEFAULT_255_2_778
10
-15.164938
20
22.5841129
40
22.0794339
50
342.0225705
51
342.6710195
0
ARC
8
DEFAULT_255_2_778
10
-14.5443339
20
22.3818062
40
21.4266885
50
341.2224922
51
342.0249369
0
ARC
8
DEFAULT_255_2_778
10
-13.034442
20
21.866775
40
19.8313741
50
340.1703542
51
341.2270971
0
ARC
8
DEFAULT_255_2_778
10
-10.0869193
20
20.7946
40
16.6949176
50
338.1107846
51
340.200309
0
ARC
8
DEFAULT_255_2_778
10
-8.0235219
20
19.9785736
40
14.4760575
50
337.8989012
51
338.0630299
0
ARC
8
DEFAULT_255_2_778
10
-5.1156816
20
18.7653308
40
11.3254481
50
333.9803539
51
338.0508933
0
ARC
8
DEFAULT_255_2_778
10
-1.5389656
20
17.0344363
40
7.3519597
50
330.7686277
51
333.8745689
0
ARC
8
DEFAULT_255_2_778
10
0.3148634
20
15.9973216
40
5.2277447
50
327.3353604
51
330.7658743
0
ARC
8
DEFAULT_255_2_778
10
1.6002707
20
15.172182
40
3.7002874
50
323.2325428
51
327.3489512
0
ARC
8
DEFAULT_255_2_778
10
2.4581484
20
14.53182
40
2.6297655
50
318.7789028
51
323.2211486
0
ARC
8
DEFAULT_255_2_778
10
6.3524499
20
11.1108335
40
2.5537451
50
138.6228104
51
139.8493325
0
ARC
8
DEFAULT_255_2_778
10
5.7998731
20
11.5768294
40
1.8309081
50
139.8456795
51
141.2850402
0
ARC
8
DEFAULT_255_2_778
10
5.361714
20
11.927401
40
1.2697634
50
141.2622289
51
143.2659328
0
ARC
8
DEFAULT_255_2_778
10
5.0101027
20
12.1893393
40
0.8313094
50
143.2399746
51
145.9208595
0
ARC
8
DEFAULT_255_2_778
10
4.7441845
20
12.3686334
40
0.5105939
50
145.8646276
51
149.7407442
0
ARC
8
DEFAULT_255_2_778
10
4.5518766
20
12.4802509
40
0.2882421
50
149.6420693
51
155.4356633
0
ARC
8
DEFAULT_255_2_778
10
4.422782
20
12.5386253
40
0.146565
50
155.2107313
51
164.7489243
0
ARC
8
DEFAULT_255_2_778
10
4.3489906
20
12.5584978
40
0.0701455
50
164.5544305
51
179.0837538
0
ARC
8
DEFAULT_255_2_778
10
4.31301
20
12.5586445
40
0.0341697
50
178.3649233
51
208.5902744
0
ARC
8
DEFAULT_255_2_778
10
4.3102561
20
12.5588501
40
0.0318853
50
211.2838913
51
249.9140732
0
ARC
8
DEFAULT_255_2_778
10
4.3239956
20
12.5920531
40
0.0678041
50
248.6455673
51
263.3876453
0
ARC
8
DEFAULT_255_2_778
10
4.3319359
20
12.651299
40
0.1275746
50
262.9092578
51
270.3136429
0
ARC
8
DEFAULT_255_2_778
10
4.3280706
20
12.8079882
40
0.2842985
50
270.919758
51
280.3933308
0
ARC
8
DEFAULT_255_2_778
10
4.2513901
20
13.2480812
40
0.7310149
50
280.0819758
51
285.1957761
0
ARC
8
DEFAULT_255_2_778
10
4.0177486
20
14.1233874
40
1.6369632
50
285.0571302
51
287.9400201
0
ARC
8
DEFAULT_255_2_778
10
3.5338311
20
15.6335316
40
3.2227435
50
287.8552665
51
289.3552379
0
ARC
8
DEFAULT_255_2_778
10
2.7035585
20
18.0070264
40
5.7372664
50
289.3224184
51
290.1468266
0
ARC
8
DEFAULT_255_2_778
10
-1.20319
20
28.682358
40
17.1049997
50
290.1161212
51
290.1240455
0
ARC
8
DEFAULT_255_2_778
10
3.2620244
20
16.4969199
40
4.1272095
50
290.1217298
51
290.1545209
0
ARC
8
DEFAULT_255_2_778
10
1.4868155
20
21.3370483
40
9.2826152
50
290.1472726
51
290.1618292
0
ARC
8
DEFAULT_255_2_778
10
-1.2470918
20
28.7808129
40
17.212551
50
290.1642171
51
290.172055
0
ARC
8
DEFAULT_255_2_778
10
1.4880566
20
21.3302477
40
9.2758039
50
290.1836559
51
290.1981768
0
ARC
8
DEFAULT_255_2_778
10
2.5070915
20
18.5616631
40
6.3256359
50
290.193976
51
290.2152346
0
ARC
8
DEFAULT_255_2_778
10
1.4955058
20
21.3107578
40
9.2549408
50
290.2110853
51
290.2255914
0
ARC
8
DEFAULT_255_2_778
10
1.4984106
20
21.30242
40
9.2461127
50
290.2265632
51
290.241059
0
ARC
8
DEFAULT_255_2_778
10
2.5223945
20
18.5267436
40
6.2875788
50
290.2369989
51
290.2582797
0
ARC
8
DEFAULT_255_2_778
10
2.5273101
20
18.5152307
40
6.275076
50
290.2525714
51
290.2738584
0
ARC
8
DEFAULT_255_2_778
10
1.5089241
20
21.273987
40
9.2157979
50
290.2699029
51
290.2843723
0
ARC
8
DEFAULT_255_2_778
10
2.5371974
20
18.4920267
40
6.2498831
50
290.2838787
51
290.3051777
0
ARC
8
DEFAULT_255_2_778
10
2.5421677
20
18.4803392
40
6.2371971
50
290.299614
51
290.3209189
0
ARC
8
DEFAULT_255_2_778
10
2.547155
20
18.4685971
40
6.2244538
50
290.3154041
51
290.3367148
0
ARC
8
DEFAULT_255_2_778
10
-12.1508564
20
58.1263718
40
48.5183143
50
290.3358937
51
290.3386228
0
ARC
8
DEFAULT_255_2_778
10
1.5283641
20
21.2210866
40
9.1594379
50
290.3430091
51
290.3574392
0
ARC
8
DEFAULT_255_2_778
10
2.5644644
20
18.4288139
40
6.1811345
50
290.3572325
51
290.3785765
0
ARC
8
DEFAULT_255_2_778
10
-12.487067
20
58.9491869
40
49.4066968
50
290.3779067
51
290.3805721
0
ARC
8
DEFAULT_255_2_778
10
2.5768308
20
18.4006339
40
6.1504121
50
290.3834101
51
290.4047815
0
ARC
8
DEFAULT_255_2_778
10
-12.6976605
20
59.4634513
40
49.9621122
50
290.404207
51
290.406833
0
ARC
8
DEFAULT_255_2_778
10
2.5892526
20
18.3722762
40
6.119503
50
290.4097842
51
290.4311828
0
ARC
8
DEFAULT_255_2_778
10
2.5973096
20
18.355102
40
6.1005969
50
290.4165789
51
290.4380028
0
ARC
8
DEFAULT_255_2_778
10
-12.989867
20
60.1750463
40
50.7309432
50
290.4410682
51
290.4436396
0
ARC
8
DEFAULT_255_2_778
10
-13.0628159
20
60.3508124
40
50.9211194
50
290.4514728
51
290.4540296
0
ARC
8
DEFAULT_255_2_778
10
2.616495
20
18.3108419
40
6.052423
50
290.4571896
51
290.4786588
0
ARC
8
DEFAULT_255_2_778
10
3.1475195
20
16.8926291
40
4.5380545
50
290.4623549
51
290.4909321
0
ARC
8
DEFAULT_255_2_778
10
2.6320102
20
18.276974
40
6.0152675
50
290.4746371
51
290.4961536
0
ARC
8
DEFAULT_255_2_778
10
-13.4635806
20
61.3267822
40
51.9756201
50
290.4994795
51
290.5019646
0
ARC
8
DEFAULT_255_2_778
10
-13.5464477
20
61.5272256
40
52.1923914
50
290.5101048
51
290.5125746
0
ARC
8
DEFAULT_255_2_778
10
0.0493506
20
25.1836509
40
13.3890264
50
290.5189855
51
290.5285938
0
ARC
8
DEFAULT_255_2_778
10
3.1809768
20
16.8234096
40
4.4615008
50
290.515321
51
290.5440969
0
ARC
8
DEFAULT_255_2_778
10
2.6684703
20
18.1946913
40
5.9254253
50
290.531438
51
290.55306
0
ARC
8
DEFAULT_255_2_778
10
2.6759234
20
18.1779974
40
5.9071776
50
290.5422178
51
290.5638616
0
ARC
8
DEFAULT_255_2_778
10
-13.8909833
20
62.3539346
40
53.0874259
50
290.557855
51
290.5602583
0
ARC
8
DEFAULT_255_2_778
10
0.1093148
20
25.0237775
40
13.2182778
50
290.5669222
51
290.5765542
0
ARC
8
DEFAULT_255_2_778
10
0.1199297
20
24.9946599
40
13.187287
50
290.5778397
51
290.5874739
0
ARC
8
DEFAULT_255_2_778
10
-14.0764491
20
62.7963399
40
53.5667891
50
290.5845626
51
290.5869293
0
ARC
8
DEFAULT_255_2_778
10
0.1482255
20
24.9215453
40
13.1088921
50
290.5937406
51
290.603391
0
ARC
8
DEFAULT_255_2_778
10
-14.337167
20
63.4338532
40
54.2552704
50
290.6102771
51
290.6126038
0
ARC
8
DEFAULT_255_2_778
10
0.176548
20
24.8483396
40
13.0304019
50
290.6097804
51
290.619447
0
ARC
8
DEFAULT_255_2_778
10
-14.4417781
20
63.6808611
40
54.5232949
50
290.6264267
51
290.6287319
0
ARC
8
DEFAULT_255_2_778
10
0.2048882
20
24.775067
40
12.9518427
50
290.625961
51
290.6356436
0
ARC
8
DEFAULT_255_2_778
10
0.2126991
20
24.75098
40
12.9265482
50
290.6408699
51
290.65055
0
ARC
8
DEFAULT_255_2_778
10
0.2332373
20
24.7017513
40
12.8732397
50
290.6422842
51
290.6519828
0
ARC
8
DEFAULT_255_2_778
10
0.2410411
20
24.6776687
40
12.8479522
50
290.6572958
51
290.6669918
0
ARC
8
DEFAULT_255_2_778
10
0.2587424
20
24.6335961
40
12.8004685
50
290.6624824
51
290.6721925
0
ARC
8
DEFAULT_255_2_778
10
0.2792836
20
24.5843482
40
12.7471401
50
290.6639531
51
290.6736817
0
ARC
8
DEFAULT_255_2_778
10
0.287076
20
24.5602798
40
12.7218703
50
290.6791161
51
290.6888418
0
ARC
8
DEFAULT_255_2_778
10
0.3047667
20
24.5162229
40
12.6744047
50
290.6843892
51
290.6941291
0
ARC
8
DEFAULT_255_2_778
10
0.3224501
20
24.4721809
40
12.6269553
50
290.6896871
51
290.6994411
0
ARC
8
DEFAULT_255_2_778
10
9.0317669
20
1.4292288
40
12.0069613
50
110.6997757
51
110.7100097
0
ARC
8
DEFAULT_255_2_778
10
2.2886412
20
19.2728845
40
7.0683054
50
290.7047033
51
290.7220474
0
ARC
8
DEFAULT_255_2_778
10
2.3007325
20
19.2450759
40
7.0380177
50
290.7100853
51
290.7274634
0
ARC
8
DEFAULT_255_2_778
10
0.386055
20
24.3109697
40
12.4536679
50
290.7173957
51
290.7271936
0
ARC
8
DEFAULT_255_2_778
10
0.4036924
20
24.2670279
40
12.406328
50
290.722834
51
290.7326461
0
ARC
8
DEFAULT_255_2_778
10
0.4213166
20
24.2231162
40
12.3590206
50
290.7282983
51
290.7381246
0
ARC
8
DEFAULT_255_2_778
10
8.9095039
20
1.8111247
40
11.6065108
50
110.7385576
51
110.7489961
0
ARC
8
DEFAULT_255_2_778
10
20.2207301
20
-28.0321745
40
43.5214965
50
110.7498487
51
110.7526258
0
ARC
8
DEFAULT_255_2_778
10
20.1159118
20
-27.7377322
40
43.2090174
50
110.7554096
51
110.7582001
0
ARC
8
DEFAULT_255_2_778
10
20.0115011
20
-27.4444939
40
42.8978091
50
110.7609973
51
110.7638013
0
ARC
8
DEFAULT_255_2_778
10
19.9075003
20
-27.1524659
40
42.5878786
50
110.766612
51
110.7694295
0
ARC
8
DEFAULT_255_2_778
10
19.8039122
20
-26.861655
40
42.279233
50
110.7722538
51
110.7750849
0
ARC
8
DEFAULT_255_2_778
10
134.7020221
20
-329.6320733
40
366.1179298
50
110.7796898
51
110.7801792
0
ARC
8
DEFAULT_255_2_778
10
129.0515065
20
-314.5849722
40
350.0449596
50
110.7882454
51
110.7887554
0
ARC
8
DEFAULT_255_2_778
10
2.4561027
20
18.8864622
40
6.6476165
50
290.7863803
51
290.8042097
0
ARC
8
DEFAULT_255_2_778
10
2.4680035
20
18.8590625
40
6.6177766
50
290.7921483
51
290.8100134
0
ARC
8
DEFAULT_255_2_778
10
119.1615603
20
-288.2611533
40
321.9247826
50
110.8041578
51
110.8047075
0
ARC
8
DEFAULT_255_2_778
10
19.0473647
20
-24.7432047
40
40.0301909
50
110.8129509
51
110.8158858
0
ARC
8
DEFAULT_255_2_778
10
2.51195
20
18.7591617
40
6.5087802
50
290.8060635
51
290.8240685
0
ARC
8
DEFAULT_255_2_778
10
2.5237657
20
18.731952
40
6.4791476
50
290.8119461
51
290.8299875
0
ARC
8
DEFAULT_255_2_778
10
106.5583518
20
-254.7160026
40
286.0904663
50
110.8289363
51
110.8295478
0
ARC
8
DEFAULT_255_2_778
10
18.630254
20
-23.5817265
40
38.7963017
50
110.8330889
51
110.8360826
0
ARC
8
DEFAULT_255_2_778
10
2.5673782
20
18.6327941
40
6.3709623
50
290.8261999
51
290.8443839
0
ARC
8
DEFAULT_255_2_778
10
8.5388527
20
2.9489705
40
10.4111958
50
110.8324737
51
110.8435724
0
ARC
8
DEFAULT_255_2_778
10
18.3658162
20
-22.8483546
40
38.0168323
50
110.8445764
51
110.847608
0
ARC
8
DEFAULT_255_2_778
10
2.6048666
20
18.5477208
40
6.2781177
50
290.8376783
51
290.8559882
0
ARC
8
DEFAULT_255_2_778
10
18.2007294
20
-22.3932963
40
37.532815
50
110.8501273
51
110.853182
0
ARC
8
DEFAULT_255_2_778
10
18.1041059
20
-22.122822
40
37.2456626
50
110.8562444
51
110.8593147
0
ARC
8
DEFAULT_255_2_778
10
11.2107959
20
-4.0212645
40
17.8759933
50
110.856159
51
110.8657323
0
ARC
8
DEFAULT_255_2_778
10
11.1583398
20
-3.8710532
40
17.7169492
50
110.8609606
51
110.8705816
0
ARC
8
DEFAULT_255_2_778
10
18.0513933
20
-21.9353009
40
37.051664
50
110.8687455
51
110.8740922
0
ARC
8
DEFAULT_255_2_778
10
-0.9739186
20
27.9661718
40
16.3535743
50
290.8719416
51
290.8822747
0
ARC
8
DEFAULT_255_2_778
10
-0.930647
20
27.85704
40
16.2361868
50
290.8768777
51
290.8872436
0
ARC
8
DEFAULT_255_2_778
10
17.6611253
20
-20.8605089
40
35.9083581
50
110.8829543
51
110.8884011
0
ARC
8
DEFAULT_255_2_778
10
41.1207017
20
-82.3059497
40
101.6798857
50
110.8896044
51
110.8917926
0
ARC
8
DEFAULT_255_2_778
10
40.5030976
20
-80.6475719
40
99.9102973
50
110.8955997
51
110.8978146
0
ARC
8
DEFAULT_255_2_778
10
-0.7162142
20
27.3201664
40
15.6581421
50
290.8954026
51
290.9059407
0
ARC
8
DEFAULT_255_2_778
10
-0.6738262
20
27.2132919
40
15.5431779
50
290.9005555
51
290.9111277
0
ARC
8
DEFAULT_255_2_778
10
98.9105361
20
-233.438222
40
263.4841628
50
110.9090256
51
110.9097503
0
ARC
8
DEFAULT_255_2_778
10
97.1422737
20
-228.7582984
40
258.4813542
50
110.9123638
51
110.9130989
0
ARC
8
DEFAULT_255_2_778
10
17.9310968
20
-21.4528072
40
36.5579954
50
110.9113775
51
110.9158102
0
ARC
8
DEFAULT_255_2_778
10
17.7996148
20
-21.0914204
40
36.1734834
50
110.9166826
51
110.9211435
0
ARC
8
DEFAULT_255_2_778
10
2759.3177225
20
-7185.9487302
40
7707.6206587
50
110.9375294
51
110.938448
0
ARC
8
DEFAULT_255_2_778
10
15.7843286
20
-15.4193633
40
30.1557862
50
110.5748396
51
110.9526505
0
ARC
8
DEFAULT_255_2_778
10
10.7805205
20
-2.0920731
40
15.9201002
50
109.8078541
51
110.5711764
0
ARC
8
DEFAULT_255_2_778
10
9.2051385
20
2.2827275
40
11.2702927
50
108.6369615
51
109.8093877
0
ARC
8
DEFAULT_255_2_778
10
8.2743014
20
5.054877
40
8.3460405
50
106.4917098
51
108.6635377
0
ARC
8
DEFAULT_255_2_778
10
7.5888244
20
7.3932233
40
5.9093047
50
102.554362
51
106.5549733
0
ARC
8
DEFAULT_255_2_778
10
7.2185003
20
9.0431474
40
4.218335
50
98.4568612
51
102.5158884
0
ARC
8
DEFAULT_255_2_778
10
7.0696783
20
10.036145
40
3.2142481
50
94.2901371
51
98.4360248
0
ARC
8
DEFAULT_255_2_778
10
7.0194038
20
10.6966855
40
2.5517976
50
90.0763335
51
94.2739578
0
ARC
8
DEFAULT_255_2_778
10
7.0216308
20
11.2629262
40
1.9855625
50
83.1778695
51
90.1623644
0
ARC
8
DEFAULT_255_2_778
10
7.0816071
20
11.7541216
40
1.4907211
50
73.8069146
51
83.2241394
0
ARC
8
DEFAULT_255_2_778
10
7.2139201
20
12.1690217
40
1.0554435
50
46.0008759
51
74.4235256
0
ARC
8
DEFAULT_255_2_778
10
7.2526711
20
12.2213329
40
0.990931
50
43.4480442
51
45.5115826
0
ARC
8
DEFAULT_255_2_778
10
10.0775825
20
14.896125
40
2.8993952
50
223.432486
51
224.3634988
0
ARC
8
DEFAULT_255_2_778
10
9.5590937
20
14.3884191
40
2.173726
50
224.3519891
51
225.6210836
0
ARC
8
DEFAULT_255_2_778
10
9.1383357
20
13.9583041
40
1.5720315
50
225.6176497
51
227.089612
0
ARC
8
DEFAULT_255_2_778
10
8.8112017
20
13.605752
40
1.0910853
50
227.0666571
51
229.1051416
0
ARC
8
DEFAULT_255_2_778
10
8.5616483
20
13.3170849
40
0.7095025
50
229.0775195
51
231.805257
0
ARC
8
DEFAULT_255_2_778
10
8.3900236
20
13.0983288
40
0.4314575
50
231.7544455
51
235.5822169
0
ARC
8
DEFAULT_255_2_778
10
8.2821666
20
12.9401596
40
0.2400149
50
235.4806353
51
241.2098753
0
ARC
8
DEFAULT_255_2_778
10
8.2232157
20
12.8316583
40
0.116536
50
240.9195381
51
250.87908
0
ARC
8
DEFAULT_255_2_778
10
8.2014786
20
12.7675367
40
0.0488341
50
250.3322683
51
268.5353488
0
ARC
8
DEFAULT_255_2_778
10
8.2009328
20
12.7403501
40
0.0216431
50
268.1401452
51
302.9404669
0
ARC
8
DEFAULT_255_2_778
10
8.1996818
20
12.7403144
40
0.0223188
50
305.6865751
51
339.9164132
0
ARC
8
DEFAULT_255_2_778
10
8.1773008
20
12.7493981
40
0.0464659
50
338.8732389
51
353.3459037
0
ARC
8
DEFAULT_255_2_778
10
8.1383397
20
12.7546293
40
0.0857734
50
352.8908099
51
0.3041904
0
ARC
8
DEFAULT_255_2_778
10
7.995184
20
12.748436
40
0.2290244
50
1.6635432
51
14.0533997
0
ARC
8
DEFAULT_255_2_778
10
7.5269515
20
12.6401636
40
0.7095869
50
13.3535451
51
18.9522461
0
ARC
8
DEFAULT_255_2_778
10
6.6850228
20
12.3567897
40
1.5979178
50
18.7575612
51
21.8585101
0
ARC
8
DEFAULT_255_2_778
10
5.3193184
20
11.8115322
40
3.0684451
50
21.8133876
51
23.9792165
0
ARC
8
DEFAULT_255_2_778
10
3.195814
20
10.8701197
40
5.391272
50
23.94902
51
25.4783809
0
ARC
8
DEFAULT_255_2_778
10
0.2169686
20
9.4538677
40
8.6896481
50
25.459304
51
26.5581051
0
ARC
8
DEFAULT_255_2_778
10
-3.3706773
20
7.6647744
40
12.6986439
50
26.5412109
51
27.2658974
0
ARC
8
DEFAULT_255_2_778
10
-8.0574269
20
5.2475612
40
17.9720241
50
27.2708083
51
28.0005224
0
ARC
8
DEFAULT_255_2_778
10
-14.6900503
20
1.722557
40
25.4831723
50
27.9971442
51
28.5977253
0
ARC
8
DEFAULT_255_2_778
10
-24.0202898
20
-3.3662851
40
36.1109509
50
28.6009445
51
29.1927449
0
ARC
8
DEFAULT_255_2_778
10
-37.81908
20
-11.0772782
40
51.9181019
50
29.1940964
51
29.7466505
0
ARC
8
DEFAULT_255_2_778
10
-49.4224252
20
-17.6901625
40
65.2735376
50
29.7328761
51
29.9014862
0
ARC
8
DEFAULT_255_2_778
10
-58.9890804
20
-23.1968693
40
76.3118662
50
29.9049396
51
30.2019032
0
ARC
8
DEFAULT_255_2_778
10
-70.2762378
20
-29.762799
40
89.3698655
50
30.1997674
51
30.4137491
0
ARC
8
DEFAULT_255_2_778
10
-78.4290706
20
-34.5464789
40
98.8224986
50
30.4126546
51
30.5728351
0
ARC
8
DEFAULT_255_2_778
10
-83.4688752
20
-37.5228991
40
104.6755921
50
30.5724168
51
30.6958015
0
ARC
8
DEFAULT_255_2_778
10
-85.6781492
20
-38.8339433
40
107.2445859
50
30.6955682
51
30.7927442
0
ARC
8
DEFAULT_255_2_778
10
-85.2631477
20
-38.5862563
40
106.76129
50
30.7925747
51
30.8706584
0
ARC
8
DEFAULT_255_2_778
10
-83.4506139
20
-37.502462
40
104.6494453
50
30.8705289
51
30.9338054
0
ARC
8
DEFAULT_255_2_778
10
-78.7205679
20
-34.6673757
40
99.1348238
50
30.933597
51
31.0106111
0
ARC
8
DEFAULT_255_2_778
10
-70.3754953
20
-29.6505698
40
89.3978542
50
31.0103492
51
31.0776649
0
ARC
8
DEFAULT_255_2_778
10
-59.3807922
20
-23.0239419
40
76.5605766
50
31.0776372
51
31.1334786
0
ARC
8
DEFAULT_255_2_778
10
-47.3378375
20
-15.7498645
40
62.4912852
50
31.1337126
51
31.1733268
0
ARC
8
DEFAULT_255_2_778
10
-32.5679985
20
-6.8132979
40
45.2283083
50
31.1722112
51
31.2216266
0
ARC
8
DEFAULT_255_2_778
10
-13.7859851
20
4.5719055
40
23.2650008
50
31.2201105
51
31.2630042
0
ARC
8
DEFAULT_255_2_778
10
4.7020951
20
15.7966561
40
1.6362206
50
31.2580334
51
31.299535
0
LINE
8
DEFAULT_255_2_778
10
6.1001852
20
16.6466926
11
6.1001852
21
16.6466926
0
ENDSEC
0
EOF