0
SECTION
2
HEADER
9
$MEASUREMENT
70
1
0
ENDSEC
0
SECTION
2
TABLES
0
TABLE
2
LTYPE
0
LTYPE
72
65
70
64
2
CONTINUOUS
3
______
73
0
40
0
0
ENDTAB
0
TABLE
2
LAYER
0
LAYER
2
DEFAULT_255_2_778
70
0
62
255
6
CONTINUOUS
0
ENDTAB
0
ENDSEC
0
SECTION
2
ENTITIES
0
ARC
8
DEFAULT_255_2_778
10
24.4497374
20
6.3017536
40
8.9887502
50
155.4739321
51
158.0695235
0
ARC
8
DEFAULT_255_2_778
10
22.0333076
20
7.4072943
40
6.3314315
50
152.1177318
51
155.4984844
0
ARC
8
DEFAULT_255_2_778
10
20.273348
20
8.3415071
40
4.3388952
50
147.6673209
51
152.1534424
0
ARC
8
DEFAULT_255_2_778
10
19.05253
20
9.1178925
40
2.8921209
50
141.4949261
51
147.7282745
0
ARC
8
DEFAULT_255_2_778
10
18.2704582
20
9.7439706
40
1.8903244
50
132.592067
51
141.5868867
0
ARC
8
DEFAULT_255_2_778
10
17.867044
20
10.1826842
40
1.2943273
50
121.1334662
51
132.5885299
0
ARC
8
DEFAULT_255_2_778
10
14.4324935
20
10.5652682
40
0.8334418
50
22.5333407
51
60.4894369
0
ARC
8
DEFAULT_255_2_778
10
14.0973724
20
10.4098154
40
1.2026469
50
8.8478462
51
23.2555824
0
ARC
8
DEFAULT_255_2_778
10
13.6954189
20
10.3421101
40
1.6102391
50
359.8101891
51
9.0284167
0
ARC
8
DEFAULT_255_2_778
10
13.2711349
20
10.3414559
40
2.0345197
50
352.6544709
51
359.8681967
0
ARC
8
DEFAULT_255_2_778
10
12.831055
20
10.3969582
40
2.4780844
50
346.5363292
51
352.6826474
0
ARC
8
DEFAULT_255_2_778
10
12.3837525
20
10.5032947
40
2.9378524
50
340.9611631
51
346.5505805
0
ARC
8
DEFAULT_255_2_778
10
12.061587
20
10.6109098
40
3.2775013
50
338.6292437
51
341.0199887
0
ARC
8
DEFAULT_255_2_778
10
6.4518944
20
10.827794
40
3.2098141
50
196.4414651
51
200.7424086
0
ARC
8
DEFAULT_255_2_778
10
5.7742136
20
10.6288456
40
2.5035348
50
191.2082583
51
196.464227
0
ARC
8
DEFAULT_255_2_778
10
5.1978829
20
10.5156702
40
1.9161982
50
184.6964652
51
191.238394
0
ARC
8
DEFAULT_255_2_778
10
4.8232547
20
10.4823971
40
1.5401055
50
180.0616609
51
184.6039074
0
ARC
8
DEFAULT_255_2_778
10
4.465471
20
10.4887379
40
1.1823481
50
167.15085
51
180.3875949
0
ARC
8
DEFAULT_255_2_778
10
4.1192007
20
10.576204
40
0.8253391
50
121.7794774
51
167.7250073
0
ARC
8
DEFAULT_255_2_778
10
4.2025223
20
10.4603117
40
0.9677879
50
120.9406992
51
122.3593998
0
ARC
8
DEFAULT_255_2_778
10
-0.2847568
20
10.2589563
40
1.1685724
50
45.7013696
51
61.9622969
0
ARC
8
DEFAULT_255_2_778
10
-0.5933588
20
9.9392623
40
1.6129093
50
37.0372785
51
45.7867796
0
ARC
8
DEFAULT_255_2_778
10
-1.218911
20
9.4632356
40
2.3989819
50
31.3579261
51
37.1135552
0
ARC
8
DEFAULT_255_2_778
10
-1.7965131
20
9.0995347
40
3.0814952
50
30.6456814
51
31.5439005
0
ARC
8
DEFAULT_255_2_778
10
-2.370862
20
8.764703
40
3.746304
50
27.6519555
51
30.5738957
0
ARC
8
DEFAULT_255_2_778
10
-3.5754756
20
8.131827
40
5.107048
50
25.4616031
51
27.669125
0
ARC
8
DEFAULT_255_2_778
10
-5.2814876
20
7.318892
40
6.9968471
50
23.643861
51
25.4661274
0
ARC
8
DEFAULT_255_2_778
10
-7.5534979
20
6.3209399
40
9.4783652
50
22.4165398
51
23.6619313
0
ARC
8
DEFAULT_255_2_778
10
-9.3662039
20
5.5675774
40
11.4413824
50
22.0804369
51
22.4424952
0
LINE
8
DEFAULT_255_2_778
10
12.1162336
20
-0.2497167
11
12.1956336
21
-0.2497167
0
LINE
8
DEFAULT_255_2_778
10
12.1956336
20
-0.2497167
11
16.1114336
21
9.6588833
0
LINE
8
DEFAULT_255_2_778
10
17.1978336
20
11.2905833
11
17.1978336
21
11.3879833
0
LINE
8
DEFAULT_255_2_778
10
17.1978336
20
11.3879833
11
14.8430336
21
11.3879833
0
LINE
8
DEFAULT_255_2_778
10
14.8430336
20
11.3879833
11
14.8430336
21
11.2905833
0
LINE
8
DEFAULT_255_2_778
10
15.1137336
20
9.4165833
11
12.7060336
21
3.3065833
0
LINE
8
DEFAULT_255_2_778
10
12.7060336
20
3.3065833
11
9.4392336
21
11.4207833
0
LINE
8
DEFAULT_255_2_778
10
9.4392336
20
11.4207833
11
9.3606336
21
11.4207833
0
LINE
8
DEFAULT_255_2_778
10
9.3606336
20
11.4207833
11
5.9194336
21
3.3218833
0
LINE
8
DEFAULT_255_2_778
10
5.9194336
20
3.3218833
11
3.4501336
21
9.6909833
0
LINE
8
DEFAULT_255_2_778
10
3.7049336
20
11.2903833
11
3.7049336
21
11.3876833
0
LINE
8
DEFAULT_255_2_778
10
3.7049336
20
11.3876833
11
0.2645336
21
11.3876833
0
LINE
8
DEFAULT_255_2_778
10
0.2645336
20
11.3876833
11
0.2645336
21
11.2903833
0
LINE
8
DEFAULT_255_2_778
10
1.2360336
20
9.8684833
11
5.2826336
21
-0.2500167
0
LINE
8
DEFAULT_255_2_778
10
5.2826336
20
-0.2500167
11
5.3620336
21
-0.2500167
0
LINE
8
DEFAULT_255_2_778
10
5.3620336
20
-0.2500167
11
8.7709336
21
7.9454833
0
LINE
8
DEFAULT_255_2_778
10
8.7709336
20
7.9454833
11
12.1165336
21
-0.2497167
0
ENDSEC
0
EOF