0
SECTION
2
HEADER
9
$MEASUREMENT
70
1
0
ENDSEC
0
SECTION
2
TABLES
0
TABLE
2
LTYPE
0
LTYPE
72
65
70
64
2
CONTINUOUS
3
______
73
0
40
0
0
ENDTAB
0
TABLE
2
LAYER
0
LAYER
2
DEFAULT_255_2_778
70
0
62
255
6
CONTINUOUS
0
ENDTAB
0
ENDSEC
0
SECTION
2
ENTITIES
0
ARC
8
DEFAULT_255_2_778
10
15.0528375
20
3.8453497
40
0.9462076
50
74.4308888
51
90.7832894
0
ARC
8
DEFAULT_255_2_778
10
15.1498953
20
4.1965477
40
0.5818461
50
50.1536314
51
74.3555359
0
ARC
8
DEFAULT_255_2_778
10
15.1972069
20
4.264813
40
0.4991755
50
0.7804398
51
49.3024397
0
ARC
8
DEFAULT_255_2_778
10
14.9390343
20
4.2314074
40
0.7583682
50
359.9744244
51
3.0389456
0
ARC
8
DEFAULT_255_2_778
10
15.1570773
20
4.2211628
40
0.5404159
50
359.9981456
51
1.0503259
0
ARC
8
DEFAULT_255_2_778
10
15.1547863
20
4.2213067
40
0.5427069
50
318.2699195
51
359.982958
0
ARC
8
DEFAULT_255_2_778
10
15.1220055
20
4.2471532
40
0.5843803
50
277.7195899
51
318.5180434
0
ARC
8
DEFAULT_255_2_778
10
15.0522472
20
4.4357864
40
0.4789766
50
268.5231276
51
290.0864545
0
ARC
8
DEFAULT_255_2_778
10
15.1186974
20
4.2380336
40
0.2704868
50
291.2531422
51
308.9134165
0
ARC
8
DEFAULT_255_2_778
10
15.1276218
20
4.2154622
40
0.247424
50
310.5888395
51
3.4308233
0
ARC
8
DEFAULT_255_2_778
10
15.1328489
20
4.2458224
40
0.2422533
50
356.3188799
51
49.9888678
0
ARC
8
DEFAULT_255_2_778
10
15.0897032
20
4.1663303
40
0.3313704
50
53.11348
51
85.3688042
0
ARC
8
DEFAULT_255_2_778
10
15.042103
20
3.8638629
40
0.6371098
50
83.2978718
51
90.1979087
0
ARC
8
DEFAULT_255_2_778
10
19.3452808
20
4.040732
40
1.3346824
50
303.6256348
51
330.6461844
0
ARC
8
DEFAULT_255_2_778
10
19.3869182
20
3.9937046
40
1.272496
50
299.6904082
51
303.237134
0
ARC
8
DEFAULT_255_2_778
10
19.3609341
20
4.0534834
40
1.3373155
50
271.7470816
51
299.3889365
0
ARC
8
DEFAULT_255_2_778
10
19.3307408
20
4.3719208
40
1.6566519
50
269.9882938
51
272.4550907
0
ARC
8
DEFAULT_255_2_778
10
19.3164323
20
4.1760661
40
1.460864
50
252.039765
51
270.5479198
0
ARC
8
DEFAULT_255_2_778
10
19.2626923
20
3.9737371
40
1.251874
50
224.2322734
51
251.5240341
0
ARC
8
DEFAULT_255_2_778
10
19.291374
20
4.017318
40
1.3028739
50
183.6533061
51
224.7256526
0
ARC
8
DEFAULT_255_2_778
10
19.7236082
20
4.0779593
40
1.7384066
50
179.9502454
51
184.7402378
0
ARC
8
DEFAULT_255_2_778
10
19.508403
20
4.0933166
40
1.5232636
50
162.9738557
51
180.5208728
0
ARC
8
DEFAULT_255_2_778
10
19.2640684
20
4.1586012
40
1.2705549
50
134.9138519
51
162.5625891
0
ARC
8
DEFAULT_255_2_778
10
19.282545
20
4.1583146
40
1.2838677
50
91.4625781
51
135.4887593
0
ARC
8
DEFAULT_255_2_778
10
19.3301291
20
3.7479277
40
1.6957412
50
89.9840086
51
92.7160071
0
ARC
8
DEFAULT_255_2_778
10
19.3472669
20
4.06677
40
1.3769998
50
62.2742417
51
90.6934145
0
ARC
8
DEFAULT_255_2_778
10
19.389332
20
4.1591738
40
1.275648
50
32.0373272
51
62.0157739
0
ARC
8
DEFAULT_255_2_778
10
19.411268
20
4.2329725
40
0.8886616
50
27.460621
51
60.6897262
0
ARC
8
DEFAULT_255_2_778
10
19.3440743
20
4.1191388
40
1.0208204
50
60.5288857
51
90.0049334
0
ARC
8
DEFAULT_255_2_778
10
19.3439893
20
4.1188657
40
1.0210935
50
90.0001595
51
90.7624138
0
ARC
8
DEFAULT_255_2_778
10
19.3033939
20
4.1778973
40
0.9623507
50
88.3917751
51
136.5629101
0
ARC
8
DEFAULT_255_2_778
10
19.348589
20
4.1285735
40
1.0290921
50
136.2989374
51
177.1845644
0
ARC
8
DEFAULT_255_2_778
10
19.7046375
20
4.0815225
40
1.3873358
50
175.9659211
51
180.0370018
0
ARC
8
DEFAULT_255_2_778
10
19.4635895
20
4.0803872
40
1.1462874
50
179.9880345
51
180.0359007
0
ARC
8
DEFAULT_255_2_778
10
19.4988894
20
4.0659067
40
1.1816672
50
179.3326921
51
199.4574905
0
ARC
8
DEFAULT_255_2_778
10
19.3182249
20
4.0125056
40
0.9935811
50
200.0243207
51
224.0912331
0
ARC
8
DEFAULT_255_2_778
10
19.3036617
20
3.9793182
40
0.9601273
50
223.2734667
51
271.6078982
0
ARC
8
DEFAULT_255_2_778
10
19.3456447
20
4.0301853
40
1.0107283
50
269.1472545
51
294.6142512
0
ARC
8
DEFAULT_255_2_778
10
19.3829101
20
3.9259426
40
0.9004871
50
295.2211813
51
298.8566079
0
ARC
8
DEFAULT_255_2_778
10
19.3089162
20
4.036337
40
1.0329488
50
299.496039
51
324.1809243
0
ARC
8
DEFAULT_255_2_778
10
19.0662111
20
4.2345214
40
1.3458632
50
323.3863448
51
326.3303022
0
ARC
8
DEFAULT_255_2_778
10
22.0076035
20
3.4898756
40
0.831592
50
179.152972
51
192.8785907
0
ARC
8
DEFAULT_255_2_778
10
21.5418587
20
3.3759295
40
0.3522413
50
191.6956775
51
223.299923
0
ARC
8
DEFAULT_255_2_778
10
21.4623575
20
3.3127205
40
0.2511772
50
225.2441155
51
233.4008351
0
ARC
8
DEFAULT_255_2_778
10
21.5425014
20
3.4448028
40
0.4052553
50
235.4382276
51
256.1426009
0
ARC
8
DEFAULT_255_2_778
10
21.7191013
20
4.0866716
40
1.070886
50
255.1940357
51
264.8181571
0
ARC
8
DEFAULT_255_2_778
10
21.8411824
20
5.3144836
40
2.3047308
50
264.552405
51
270.2304216
0
ARC
8
DEFAULT_255_2_778
10
21.8543549
20
5.936247
40
2.9264781
50
269.923571
51
270.0028875
0
ARC
8
DEFAULT_255_2_778
10
21.8665493
20
5.3697715
40
2.3600333
50
269.7075285
51
275.2560552
0
ARC
8
DEFAULT_255_2_778
10
21.9873882
20
4.1138454
40
1.0983311
50
274.9806485
51
284.5180629
0
ARC
8
DEFAULT_255_2_778
10
22.1644604
20
3.4555961
40
0.4167604
50
283.637528
51
303.6750442
0
ARC
8
DEFAULT_255_2_778
10
22.2541738
20
3.306133
40
0.2427726
50
305.6143145
51
306.5358072
0
ARC
8
DEFAULT_255_2_778
10
22.2022015
20
3.3578909
40
0.3154896
50
308.5241333
51
346.2787206
0
ARC
8
DEFAULT_255_2_778
10
21.7889471
20
3.4791968
40
0.745987
50
344.7562241
51
359.3522187
0
ARC
8
DEFAULT_255_2_778
10
21.3696898
20
3.5018953
40
1.1656125
50
358.4695042
51
0.0134517
0
ARC
8
DEFAULT_255_2_778
10
21.994409
20
3.4068322
40
0.8541884
50
343.3387841
51
0.8543615
0
ARC
8
DEFAULT_255_2_778
10
22.3159785
20
3.3087971
40
0.5180143
50
305.135558
51
343.5291844
0
ARC
8
DEFAULT_255_2_778
10
22.2017251
20
3.4942373
40
0.7355402
50
286.2114957
51
304.1004483
0
ARC
8
DEFAULT_255_2_778
10
21.9988071
20
4.1562798
40
1.4279448
50
276.3833112
51
286.613466
0
ARC
8
DEFAULT_255_2_778
10
21.8642719
20
5.2805044
40
2.5601721
50
270.0838711
51
276.5782492
0
ARC
8
DEFAULT_255_2_778
10
21.84683
20
6.1114666
40
3.3911978
50
269.9995322
51
270.3580082
0
ARC
8
DEFAULT_255_2_778
10
21.8347742
20
5.365816
40
2.6455744
50
264.029824
51
270.2604979
0
ARC
8
DEFAULT_255_2_778
10
21.7088615
20
4.2093814
40
1.482324
50
254.3764684
51
264.2210822
0
ARC
8
DEFAULT_255_2_778
10
21.5084284
20
3.5131722
40
0.7578789
50
237.3833565
51
254.7943638
0
ARC
8
DEFAULT_255_2_778
10
21.3958932
20
3.3195295
40
0.5342022
50
234.8446879
51
236.354892
0
ARC
8
DEFAULT_255_2_778
10
21.395749
20
3.3099903
40
0.5263473
50
190.8130481
51
234.2596067
0
ARC
8
DEFAULT_255_2_778
10
21.8005019
20
3.4114078
40
0.9432376
50
179.4860297
51
192.2517981
0
ARC
8
DEFAULT_255_2_778
10
26.4849277
20
3.8451037
40
0.9464535
50
74.4329531
51
90.7824934
0
ARC
8
DEFAULT_255_2_778
10
26.5819055
20
4.1960809
40
0.5823261
50
50.1687185
51
74.3571976
0
ARC
8
DEFAULT_255_2_778
10
26.629194
20
4.2648473
40
0.4992884
50
0.776326
51
49.2813484
0
ARC
8
DEFAULT_255_2_778
10
26.3705662
20
4.2314075
40
0.7589361
50
359.9744426
51
3.0366683
0
ARC
8
DEFAULT_255_2_778
10
26.5891773
20
4.2211628
40
0.5404159
50
359.9981456
51
1.0503259
0
ARC
8
DEFAULT_255_2_778
10
26.5868863
20
4.2213067
40
0.5427069
50
318.2699195
51
359.982958
0
ARC
8
DEFAULT_255_2_778
10
26.5541055
20
4.2471532
40
0.5843803
50
277.7195899
51
318.5180434
0
ARC
8
DEFAULT_255_2_778
10
26.484381
20
4.4358421
40
0.4790332
50
268.5192607
51
290.0855434
0
ARC
8
DEFAULT_255_2_778
10
26.5510355
20
4.2375138
40
0.2699326
50
291.2551382
51
308.9433981
0
ARC
8
DEFAULT_255_2_778
10
26.5597218
20
4.2154622
40
0.247424
50
310.5888395
51
3.4308233
0
ARC
8
DEFAULT_255_2_778
10
26.5649489
20
4.2458224
40
0.2422533
50
356.3188799
51
49.9888678
0
ARC
8
DEFAULT_255_2_778
10
26.5218032
20
4.1663303
40
0.3313704
50
53.11348
51
85.3688042
0
ARC
8
DEFAULT_255_2_778
10
26.474203
20
3.8638629
40
0.6371098
50
83.2978718
51
90.1979087
0
ARC
8
DEFAULT_255_2_778
10
28.3380197
20
3.4173123
40
1.3750221
50
74.6199014
51
90.5590956
0
ARC
8
DEFAULT_255_2_778
10
28.4353613
20
3.7766631
40
1.0027245
50
47.0636769
51
74.5369412
0
ARC
8
DEFAULT_255_2_778
10
28.4776415
20
3.8215189
40
0.9410845
50
1.2237585
51
47.0879485
0
ARC
8
DEFAULT_255_2_778
10
28.1280026
20
3.7795638
40
1.2919997
50
359.9824895
51
2.7529356
0
ARC
8
DEFAULT_255_2_778
10
28.3130925
20
3.7657957
40
1.1069906
50
341.5828226
51
0.6921902
0
ARC
8
DEFAULT_255_2_778
10
28.5362428
20
3.699536
40
0.8743693
50
312.2555474
51
341.0825304
0
ARC
8
DEFAULT_255_2_778
10
28.4523427
20
3.7955152
40
1.0018292
50
281.554121
51
312.1159308
0
ARC
8
DEFAULT_255_2_778
10
28.3352771
20
4.2967974
40
1.5164682
50
269.5853438
51
282.0940332
0
ARC
8
DEFAULT_255_2_778
10
28.3425618
20
4.0813824
40
1.0089993
50
269.2527209
51
286.3693718
0
ARC
8
DEFAULT_255_2_778
10
28.4363463
20
3.7562834
40
0.6706491
50
286.5094274
51
312.8453537
0
ARC
8
DEFAULT_255_2_778
10
28.4456187
20
3.7348438
40
0.648671
50
313.5326427
51
355.7370762
0
ARC
8
DEFAULT_255_2_778
10
28.1343239
20
3.7847227
40
0.9631796
50
354.154469
51
0.0919803
0
ARC
8
DEFAULT_255_2_778
10
28.3733206
20
3.8013123
40
0.724338
50
358.8099667
51
28.3771984
0
ARC
8
DEFAULT_255_2_778
10
28.4294951
20
3.8187782
40
0.6667088
50
29.3510281
51
46.8101717
0
ARC
8
DEFAULT_255_2_778
10
28.3855157
20
3.7667275
40
0.7347672
50
47.087734
51
85.0025012
0
ARC
8
DEFAULT_255_2_778
10
28.3321544
20
3.4372102
40
1.0679605
50
83.6904612
51
90.1047251
0
ARC
8
DEFAULT_255_2_778
10
8.5848637
20
4.214229
40
0.1996582
50
357.3129673
51
357.5850552
0
ARC
8
DEFAULT_255_2_778
10
8.2273088
20
4.2296001
40
0.5575432
50
357.5551022
51
357.8049006
0
ARC
8
DEFAULT_255_2_778
10
7.8755485
20
4.2430227
40
0.9095594
50
357.8087146
51
358.0915392
0
ARC
8
DEFAULT_255_2_778
10
7.5721689
20
4.2531755
40
1.2131088
50
358.0894678
51
358.3321054
0
ARC
8
DEFAULT_255_2_778
10
7.2768304
20
4.2616953
40
1.50857
50
358.3351457
51
358.5776536
0
ARC
8
DEFAULT_255_2_778
10
7.0122575
20
4.2681097
40
1.7732206
50
358.5826569
51
358.9163911
0
ARC
8
DEFAULT_255_2_778
10
6.7367068
20
4.2734674
40
2.0488235
50
358.9123145
51
359.1793253
0
ARC
8
DEFAULT_255_2_778
10
6.4763592
20
4.2772359
40
2.3091983
50
359.1783548
51
359.4823714
0
ARC
8
DEFAULT_255_2_778
10
6.2501076
20
4.2792764
40
2.5354589
50
359.4824529
51
359.7403354
0
ARC
8
DEFAULT_255_2_778
10
6.0808611
20
4.2801373
40
2.7047077
50
359.7383461
51
0.0028243
0
ARC
8
DEFAULT_255_2_778
10
5.5537045
20
4.2788047
40
3.2318646
50
0.0259888
51
1.2889202
0
ARC
8
DEFAULT_255_2_778
10
4.9002908
20
4.264501
40
3.8854349
50
1.2830538
51
2.6626941
0
ARC
8
DEFAULT_255_2_778
10
4.4268104
20
4.2427978
40
4.3594122
50
2.6585383
51
4.142892
0
ARC
8
DEFAULT_255_2_778
10
4.0944019
20
4.21881
40
4.6926851
50
4.1417993
51
5.9673454
0
ARC
8
DEFAULT_255_2_778
10
3.9057677
20
4.199423
40
4.8823128
50
5.9634876
51
7.8379755
0
ARC
8
DEFAULT_255_2_778
10
3.8444845
20
4.1911957
40
4.9441455
50
7.8355771
51
10.3135155
0
ARC
8
DEFAULT_255_2_778
10
3.9032962
20
4.2022987
40
4.8842963
50
10.3088912
51
13.2158511
0
ARC
8
DEFAULT_255_2_778
10
4.07111
20
4.2422793
40
4.7117864
50
13.2090878
51
16.8086268
0
ARC
8
DEFAULT_255_2_778
10
4.323092
20
4.3191048
40
4.4483541
50
16.7999192
51
21.2338703
0
ARC
8
DEFAULT_255_2_778
10
4.6158822
20
4.4335476
40
4.1339931
50
21.2251136
51
26.6129943
0
ARC
8
DEFAULT_255_2_778
10
4.908305
20
4.5811537
40
3.8064301
50
26.5983431
51
33.7784893
0
ARC
8
DEFAULT_255_2_778
10
5.1242115
20
4.7247243
40
3.5471473
50
33.7898861
51
41.6701896
0
ARC
8
DEFAULT_255_2_778
10
5.2102681
20
4.7994587
40
3.4331782
50
41.6933634
51
49.3960115
0
ARC
8
DEFAULT_255_2_778
10
5.1858468
20
4.7691593
40
3.4720767
50
49.4154576
51
56.7303669
0
ARC
8
DEFAULT_255_2_778
10
5.088784
20
4.6199722
40
3.6500585
50
56.7411508
51
63.3257963
0
ARC
8
DEFAULT_255_2_778
10
4.958525
20
4.360821
40
3.9401047
50
63.3249421
51
68.8810129
0
ARC
8
DEFAULT_255_2_778
10
4.8185165
20
3.9978803
40
4.3291141
50
68.8831967
51
73.9867788
0
ARC
8
DEFAULT_255_2_778
10
4.6803538
20
3.5166582
40
4.8297772
50
73.9861592
51
78.6166444
0
ARC
8
DEFAULT_255_2_778
10
4.5589851
20
2.9149768
40
5.4435774
50
78.6142682
51
82.7840613
0
ARC
8
DEFAULT_255_2_778
10
4.4670151
20
2.1912882
40
6.1730865
50
82.7809094
51
86.5289903
0
ARC
8
DEFAULT_255_2_778
10
4.4155885
20
1.3535239
40
7.0124273
50
86.5239968
51
89.8223394
0
ARC
8
DEFAULT_255_2_778
10
4.4095856
20
0.876884
40
7.4890848
50
89.7877211
51
90.0006366
0
ARC
8
DEFAULT_255_2_778
10
4.4063953
20
2.5597251
40
5.8062446
50
89.9693399
51
93.6031628
0
ARC
8
DEFAULT_255_2_778
10
4.3645493
20
3.2085394
40
5.1560832
50
93.5921824
51
98.0672823
0
ARC
8
DEFAULT_255_2_778
10
4.2842044
20
3.773809
40
4.5851322
50
98.0645058
51
103.0928458
0
ARC
8
DEFAULT_255_2_778
10
4.1807351
20
4.218679
40
4.1283881
50
103.0928004
51
108.6844153
0
ARC
8
DEFAULT_255_2_778
10
4.0726645
20
4.5392153
40
3.790124
50
108.6891091
51
114.7582994
0
ARC
8
DEFAULT_255_2_778
10
3.9783766
20
4.7442758
40
3.5644252
50
114.7624201
51
121.9083585
0
ARC
8
DEFAULT_255_2_778
10
3.9297578
20
4.8243743
40
3.4707323
50
121.9259354
51
129.7026501
0
ARC
8
DEFAULT_255_2_778
10
3.9750005
20
4.7724777
40
3.5395613
50
129.7294664
51
138.0211389
0
ARC
8
DEFAULT_255_2_778
10
4.1562421
20
4.6111069
40
3.782229
50
138.0402711
51
145.7896248
0
ARC
8
DEFAULT_255_2_778
10
4.4474355
20
4.412133
40
4.1349096
50
145.778143
51
151.7373844
0
ARC
8
DEFAULT_255_2_778
10
4.7891686
20
4.2280468
40
4.5230708
50
151.7332621
51
156.9664792
0
ARC
8
DEFAULT_255_2_778
10
5.1219353
20
4.0851991
40
4.8852002
50
156.9517273
51
160.9309081
0
ARC
8
DEFAULT_255_2_778
10
5.3701428
20
3.9984975
40
5.1481136
50
160.9214202
51
163.9971808
0
ARC
8
DEFAULT_255_2_778
10
5.5172725
20
3.9558826
40
5.30129
50
163.9928351
51
166.8355969
0
ARC
8
DEFAULT_255_2_778
10
5.527422
20
3.953042
40
5.3118197
50
166.8306955
51
169.1105492
0
ARC
8
DEFAULT_255_2_778
10
5.3704855
20
3.9828522
40
5.1520777
50
169.1063878
51
171.104875
0
ARC
8
DEFAULT_255_2_778
10
5.0435187
20
4.0339383
40
4.8211441
50
171.1038529
51
172.6662191
0
ARC
8
DEFAULT_255_2_778
10
4.531884
20
4.0993132
40
4.3053499
50
172.6599678
51
174.1680357
0
ARC
8
DEFAULT_255_2_778
10
3.8627963
20
4.1678495
40
3.6327613
50
174.171106
51
175.266057
0
ARC
8
DEFAULT_255_2_778
10
3.0383769
20
4.2354256
40
2.8055774
50
175.251907
51
176.4003107
0
ARC
8
DEFAULT_255_2_778
10
2.0235744
20
4.2991402
40
1.7887767
50
176.396289
51
177.2903256
0
ARC
8
DEFAULT_255_2_778
10
0.9553714
20
4.3491483
40
0.7194041
50
177.246738
51
178.0068683
0
ARC
8
DEFAULT_255_2_778
10
0.5651311
20
4.3318944
40
0.3314359
50
172.6719832
51
173.0315086
0
ARC
8
DEFAULT_255_2_778
10
1.1266711
20
4.262676
40
0.8972258
50
172.9945277
51
173.3250293
0
ARC
8
DEFAULT_255_2_778
10
1.687709
20
4.1970776
40
1.4620856
50
173.3273615
51
173.7748001
0
ARC
8
DEFAULT_255_2_778
10
2.2757668
20
4.1328558
40
2.05364
50
173.7726765
51
174.2417729
0
ARC
8
DEFAULT_255_2_778
10
2.7469873
20
4.0851148
40
2.5272726
50
174.2367369
51
174.6337664
0
ARC
8
DEFAULT_255_2_778
10
3.1727574
20
4.0451479
40
2.9549144
50
174.6342908
51
175.0927024
0
ARC
8
DEFAULT_255_2_778
10
3.5388761
20
4.0135662
40
3.3223928
50
175.0901718
51
175.4833136
0
ARC
8
DEFAULT_255_2_778
10
3.8469659
20
3.9892059
40
3.6314441
50
175.4829544
51
175.8857679
0
ARC
8
DEFAULT_255_2_778
10
4.1420239
20
3.9679976
40
3.9272635
50
175.8859919
51
176.3490714
0
ARC
8
DEFAULT_255_2_778
10
4.3976291
20
3.9516338
40
4.1833919
50
176.3483278
51
176.7650422
0
ARC
8
DEFAULT_255_2_778
10
4.6533047
20
3.9372602
40
4.4394713
50
176.766039
51
177.3283462
0
ARC
8
DEFAULT_255_2_778
10
4.9042522
20
3.925592
40
4.6906898
50
177.328856
51
177.9602426
0
ARC
8
DEFAULT_255_2_778
10
5.0975723
20
3.9186106
40
4.8841359
50
177.9591148
51
178.4485034
0
ARC
8
DEFAULT_255_2_778
10
5.2706334
20
3.9139895
40
5.0572588
50
178.4492545
51
179.1973545
0
ARC
8
DEFAULT_255_2_778
10
5.4401795
20
3.9115759
40
5.226822
50
179.196934
51
180.0017838
0
ARC
8
DEFAULT_255_2_778
10
5.5946003
20
3.9117463
40
5.3812428
50
180.0035475
51
181.3889983
0
ARC
8
DEFAULT_255_2_778
10
5.6959113
20
3.9140895
40
5.482581
50
181.3878143
51
183.1420773
0
ARC
8
DEFAULT_255_2_778
10
5.6964154
20
3.913947
40
5.4830763
50
183.1403018
51
184.8682418
0
ARC
8
DEFAULT_255_2_778
10
5.6048338
20
3.905855
40
5.3911385
50
184.8651511
51
187.1346301
0
ARC
8
DEFAULT_255_2_778
10
5.4203834
20
3.8824424
40
5.2052084
50
187.1310825
51
189.7744434
0
ARC
8
DEFAULT_255_2_778
10
5.155872
20
3.8363143
40
4.9367056
50
189.7680323
51
193.0595388
0
ARC
8
DEFAULT_255_2_778
10
4.8238452
20
3.7585874
40
4.595703
50
193.050928
51
197.1385034
0
ARC
8
DEFAULT_255_2_778
10
4.4735937
20
3.6502561
40
4.2290809
50
197.1343322
51
201.7648751
0
ARC
8
DEFAULT_255_2_778
10
4.0841465
20
3.4914236
40
3.8085026
50
201.7181872
51
209.7457565
0
ARC
8
DEFAULT_255_2_778
10
3.7619109
20
3.3084534
40
3.4379453
50
209.7626996
51
218.6596706
0
ARC
8
DEFAULT_255_2_778
10
3.6266302
20
3.2028614
40
3.2663467
50
218.6957236
51
227.4131026
0
ARC
8
DEFAULT_255_2_778
10
3.6408447
20
3.2206307
40
3.2890487
50
227.440264
51
235.2706866
0
ARC
8
DEFAULT_255_2_778
10
3.7404693
20
3.3654404
40
3.4648172
50
235.2809609
51
241.9969992
0
ARC
8
DEFAULT_255_2_778
10
3.8796772
20
3.627756
40
3.7617823
50
242.000837
51
247.9477651
0
ARC
8
DEFAULT_255_2_778
10
4.0357227
20
4.0134673
40
4.1778631
50
247.950322
51
253.3702072
0
ARC
8
DEFAULT_255_2_778
10
4.186439
20
4.516046
40
4.7025539
50
253.363127
51
257.9576246
0
ARC
8
DEFAULT_255_2_778
10
4.3158565
20
5.1208887
40
5.3210872
50
257.9535543
51
262.0156292
0
ARC
8
DEFAULT_255_2_778
10
4.417407
20
5.8427349
40
6.0500416
50
262.0127926
51
265.680957
0
ARC
8
DEFAULT_255_2_778
10
4.4818965
20
6.6914605
40
6.9012135
50
265.6777294
51
268.9843504
0
ARC
8
DEFAULT_255_2_778
10
4.4975876
20
7.3365975
40
7.5465285
50
268.9520586
51
270.0039082
0
ARC
8
DEFAULT_255_2_778
10
4.5026277
20
6.6909086
40
6.9008412
50
269.962427
51
273.3645663
0
ARC
8
DEFAULT_255_2_778
10
4.5509824
20
5.864988
40
6.0735065
50
273.366464
51
276.8860474
0
ARC
8
DEFAULT_255_2_778
10
4.6369065
20
5.1598362
40
5.3631394
50
276.8779272
51
281.0424248
0
ARC
8
DEFAULT_255_2_778
10
4.7566082
20
4.5483401
40
4.7400375
50
281.0380479
51
285.7662753
0
ARC
8
DEFAULT_255_2_778
10
4.897248
20
4.0510391
40
4.2232323
50
285.763221
51
291.1280914
0
ARC
8
DEFAULT_255_2_778
10
5.0447315
20
3.6696258
40
3.8142977
50
291.1267823
51
297.271078
0
ARC
8
DEFAULT_255_2_778
10
5.1776835
20
3.4109085
40
3.5234184
50
297.277099
51
304.1136372
0
ARC
8
DEFAULT_255_2_778
10
5.2670271
20
3.2776698
40
3.3629995
50
304.1265036
51
311.8154193
0
ARC
8
DEFAULT_255_2_778
10
5.270362
20
3.2716652
40
3.356301
50
311.8413317
51
320.3644567
0
ARC
8
DEFAULT_255_2_778
10
5.1321865
20
3.3837194
40
3.5341925
50
320.3944081
51
328.8601275
0
ARC
8
DEFAULT_255_2_778
10
4.8350082
20
3.5626853
40
3.8810983
50
328.8675286
51
336.2158539
0
ARC
8
DEFAULT_255_2_778
10
4.4591736
20
3.7302175
40
4.2925785
50
336.1927241
51
341.4750645
0
ARC
8
DEFAULT_255_2_778
10
4.1090519
20
3.8488669
40
4.662256
50
341.4595571
51
345.3924471
0
ARC
8
DEFAULT_255_2_778
10
3.807469
20
3.9280021
40
4.9740481
50
345.3864695
51
348.7642495
0
ARC
8
DEFAULT_255_2_778
10
3.5814432
20
3.9735797
40
5.2046223
50
348.756942
51
351.3434702
0
ARC
8
DEFAULT_255_2_778
10
3.4503688
20
3.9938295
40
5.3372515
50
351.3403465
51
353.7116401
0
ARC
8
DEFAULT_255_2_778
10
3.4266596
20
3.9967218
40
5.3611347
50
353.7086701
51
355.474737
0
ARC
8
DEFAULT_255_2_778
10
3.5169638
20
3.989826
40
5.2705679
50
355.4720129
51
357.2216943
0
ARC
8
DEFAULT_255_2_778
10
3.7354816
20
3.9793294
40
5.0517983
50
357.2204726
51
358.6580752
0
ARC
8
DEFAULT_255_2_778
10
4.0869133
20
3.97131
40
4.7002752
50
358.6554804
51
359.9892528
0
ARC
8
DEFAULT_255_2_778
10
4.431763
20
3.9705892
40
4.3554254
50
359.9978836
51
0.5246595
0
ARC
8
DEFAULT_255_2_778
10
4.6898816
20
3.973004
40
4.0972955
50
0.5239443
51
1.0441176
0
ARC
8
DEFAULT_255_2_778
10
4.9349575
20
3.9774564
40
3.8521792
50
1.0443283
51
1.4563093
0
ARC
8
DEFAULT_255_2_778
10
5.2179893
20
3.9846981
40
3.5690546
50
1.4555676
51
1.9081368
0
ARC
8
DEFAULT_255_2_778
10
5.5009317
20
3.9940682
40
3.2859571
50
1.9091191
51
2.2757003
0
ARC
8
DEFAULT_255_2_778
10
5.8107747
20
4.0063999
40
2.9758689
50
2.2753391
51
2.6357458
0
ARC
8
DEFAULT_255_2_778
10
6.0799727
20
4.0187766
40
2.7063866
50
2.6360801
51
2.9360867
0
ARC
8
DEFAULT_255_2_778
10
6.4334457
20
4.0369924
40
2.3524445
50
2.9339846
51
3.3213677
0
ARC
8
DEFAULT_255_2_778
10
6.8621793
20
4.061954
40
1.9229849
50
3.3189711
51
3.7265844
0
ARC
8
DEFAULT_255_2_778
10
7.2999224
20
4.0904392
40
1.4843159
50
3.7275989
51
4.0286069
0
ARC
8
DEFAULT_255_2_778
10
7.7131912
20
4.1196607
40
1.0700152
50
4.0224333
51
4.352993
0
ARC
8
DEFAULT_255_2_778
10
8.1307186
20
4.151453
40
0.6512791
50
4.3521332
51
4.6158838
0
ARC
8
DEFAULT_255_2_778
10
8.5340385
20
4.1840504
40
0.246644
50
4.6078908
51
4.8419458
0
ARC
8
DEFAULT_255_2_778
10
4.0491903
20
4.1583572
40
1.7594813
50
111.4140733
51
121.4870738
0
ARC
8
DEFAULT_255_2_778
10
4.0377942
20
4.1861216
40
1.7294726
50
98.7991727
51
111.3984226
0
ARC
8
DEFAULT_255_2_778
10
4.0382375
20
4.1832043
40
1.7324234
50
97.0352809
51
98.7989017
0
ARC
8
DEFAULT_255_2_778
10
4.0387814
20
4.1780289
40
1.7376265
50
89.997024
51
97.032179
0
ARC
8
DEFAULT_255_2_778
10
4.0413201
20
4.1898499
40
1.7258071
50
59.5381201
51
90.0812869
0
ARC
8
DEFAULT_255_2_778
10
4.1477936
20
4.3604411
40
1.5247941
50
27.8800697
51
59.737004
0
ARC
8
DEFAULT_255_2_778
10
4.9265226
20
4.792881
40
0.634493
50
6.8591877
51
26.2458589
0
ARC
8
DEFAULT_255_2_778
10
4.7095221
20
4.7541687
40
0.8546555
50
2.6323394
51
7.6984793
0
ARC
8
DEFAULT_255_2_778
10
4.6887168
20
4.7528784
40
0.8754983
50
0.0009277
51
2.6541613
0
ARC
8
DEFAULT_255_2_778
10
4.7951748
20
4.748234
40
0.7690543
50
346.370943
51
0.3470745
0
ARC
8
DEFAULT_255_2_778
10
5.0033945
20
4.7030156
40
0.5560664
50
342.5611082
51
345.8435139
0
ARC
8
DEFAULT_255_2_778
10
4.175832
20
4.9516518
40
1.4201461
50
324.6216103
51
342.9969485
0
ARC
8
DEFAULT_255_2_778
10
4.2080523
20
4.9605688
40
1.3992782
50
289.4721585
51
323.5600017
0
ARC
8
DEFAULT_255_2_778
10
3.94108
20
5.5888845
40
2.0810804
50
283.0277237
51
290.6355678
0
ARC
8
DEFAULT_255_2_778
10
3.8724029
20
4.2748698
40
0.8934829
50
307.0070668
51
347.1769141
0
ARC
8
DEFAULT_255_2_778
10
4.016267
20
4.2301238
40
0.7433679
50
348.0787858
51
355.9048507
0
ARC
8
DEFAULT_255_2_778
10
4.0168127
20
4.2300687
40
0.7428196
50
355.906082
51
359.9998115
0
ARC
8
DEFAULT_255_2_778
10
4.0164932
20
4.2300829
40
0.743139
50
359.9987233
51
36.8316093
0
ARC
8
DEFAULT_255_2_778
10
3.9929572
20
4.2257749
40
0.7646342
50
36.0327361
51
90.0076789
0
ARC
8
DEFAULT_255_2_778
10
3.992848
20
4.2282562
40
0.7621529
50
89.9994994
51
95.292479
0
ARC
8
DEFAULT_255_2_778
10
3.9931987
20
4.2261261
40
0.7643064
50
95.3039264
51
110.1027998
0
ARC
8
DEFAULT_255_2_778
10
3.9801292
20
4.2443278
40
0.7427458
50
109.6386253
51
172.9658836
0
ARC
8
DEFAULT_255_2_778
10
4.1383339
20
4.2119251
40
0.9038181
50
172.1553704
51
180.0702408
0
ARC
8
DEFAULT_255_2_778
10
4.2264906
20
4.2113869
40
0.9919741
50
180.0329153
51
185.0731597
0
ARC
8
DEFAULT_255_2_778
10
3.8736405
20
4.1724116
40
0.6371054
50
184.3877838
51
242.3585925
0
ARC
8
DEFAULT_255_2_778
10
4.1623708
20
4.6426874
40
1.1882556
50
240.5453214
51
254.4814614
0
ARC
8
DEFAULT_255_2_778
10
4.3493181
20
5.2652278
40
1.8381685
50
254.0584453
51
260.3314973
0
ARC
8
DEFAULT_255_2_778
10
4.7314053
20
1.7471122
40
1.8310024
50
118.7325612
51
143.2764353
0
ARC
8
DEFAULT_255_2_778
10
3.0675871
20
2.9824872
40
0.2413417
50
313.1875852
51
324.3919017
0
ARC
8
DEFAULT_255_2_778
10
3.15198
20
2.8958305
40
0.1204218
50
306.9339985
51
312.1286818
0
ARC
8
DEFAULT_255_2_778
10
3.1805785
20
2.8539722
40
0.0698162
50
270.5160233
51
308.8160596
0
ARC
8
DEFAULT_255_2_778
10
3.1875865
20
2.9073212
40
0.1233275
50
240.9390682
51
267.0349829
0
ARC
8
DEFAULT_255_2_778
10
3.2971861
20
3.1382958
40
0.3788148
50
238.5968728
51
243.4191431
0
ARC
8
DEFAULT_255_2_778
10
3.9335938
20
4.1807515
40
1.6001782
50
221.092336
51
238.5965094
0
ARC
8
DEFAULT_255_2_778
10
3.997622
20
4.2231654
40
1.6763412
50
179.7883244
51
220.7464823
0
ARC
8
DEFAULT_255_2_778
10
4.0316282
20
4.2293636
40
1.7103359
50
178.7335458
51
180.0001727
0
ARC
8
DEFAULT_255_2_778
10
3.9888529
20
4.2338978
40
1.6674747
50
151.1099061
51
178.8568189
0
ARC
8
DEFAULT_255_2_778
10
3.9612987
20
4.2443518
40
1.6383044
50
134.572784
51
150.9644457
0
ARC
8
DEFAULT_255_2_778
10
4.0325462
20
4.1707312
40
1.7407514
50
122.2786024
51
134.5426936
0
ARC
8
DEFAULT_255_2_778
10
4.0897326
20
4.0860809
40
1.8428623
50
121.4649018
51
122.3763047
0
ARC
8
DEFAULT_255_2_778
10
3.0750928
20
-0.8748702
40
2.8054535
50
104.4717553
51
108.1831031
0
ARC
8
DEFAULT_255_2_778
10
5.574225
20
-8.4608115
40
10.7924525
50
108.2208323
51
109.2885117
0
ARC
8
DEFAULT_255_2_778
10
-0.8081257
20
9.8494541
40
8.5982917
50
288.2777478
51
289.1269212
0
ARC
8
DEFAULT_255_2_778
10
2.924443
20
1.5071353
40
1.0510937
50
140.9482902
51
170.2593254
0
ARC
8
DEFAULT_255_2_778
10
3.1939952
20
1.3263828
40
1.3746155
50
104.0939606
51
142.1761201
0
ARC
8
DEFAULT_255_2_778
10
3.0856236
20
1.6529758
40
1.0317809
50
100.0871506
51
102.6733442
0
ARC
8
DEFAULT_255_2_778
10
3.0691425
20
1.7576091
40
0.9258808
50
90.1435467
51
100.217084
0
ARC
8
DEFAULT_255_2_778
10
3.0674214
20
1.8669655
40
0.8165218
50
83.9695751
51
90.0420037
0
ARC
8
DEFAULT_255_2_778
10
4.2833714
20
1.8581488
40
1.396792
50
144.0098149
51
176.6952684
0
ARC
8
DEFAULT_255_2_778
10
1.1711699
20
11.5087349
40
9.723002
50
279.0719619
51
280.1756752
0
ARC
8
DEFAULT_255_2_778
10
3.1933363
20
-1.3996644
40
3.3429934
50
98.4128033
51
104.1871475
0
ARC
8
DEFAULT_255_2_778
10
6.122759
20
16.4917337
40
9.3096702
50
268.1782462
51
269.8865286
0
ARC
8
DEFAULT_255_2_778
10
6.0501465
20
-5.5054293
40
12.6876268
50
88.8336675
51
89.7553506
0
ARC
8
DEFAULT_255_2_778
10
6.2561572
20
6.3776354
40
0.8036336
50
85.4166936
51
86.2725064
0
ARC
8
DEFAULT_255_2_778
10
6.25573
20
6.3719153
40
0.8093695
50
77.7541864
51
85.4189052
0
ARC
8
DEFAULT_255_2_778
10
5.4363014
20
7.8108454
40
1.1841261
50
317.2835478
51
326.8235579
0
ARC
8
DEFAULT_255_2_778
10
6.1589455
20
7.1316018
40
0.1926089
50
278.4049179
51
319.9120827
0
ARC
8
DEFAULT_255_2_778
10
6.1892583
20
7.0444284
40
0.1033894
50
233.8810383
51
268.8031663
0
ARC
8
DEFAULT_255_2_778
10
6.2370246
20
7.1185327
40
0.1914747
50
224.9453051
51
235.4062237
0
ARC
8
DEFAULT_255_2_778
10
6.0466339
20
6.899798
40
0.0998897
50
56.6816306
51
96.3858521
0
ARC
8
DEFAULT_255_2_778
10
6.028395
20
6.2834716
40
0.7156317
50
89.4292363
51
90.0314002
0
ARC
8
DEFAULT_255_2_778
10
6.0292494
20
5.0206014
40
1.9785023
50
90.0360997
51
90.2762289
0
ARC
8
DEFAULT_255_2_778
10
6.0102226
20
8.949233
40
1.9501754
50
270.0402808
51
270.2787652
0
ARC
8
DEFAULT_255_2_778
10
6.0106578
20
7.4979419
40
0.4988846
50
268.7876433
51
270.1074779
0
ARC
8
DEFAULT_255_2_778
10
6.2263914
20
24.0202919
40
17.0226271
50
269.0872961
51
269.2383204
0
ARC
8
DEFAULT_255_2_778
10
6.7271796
20
55.2643563
40
48.2707047
50
269.0192729
51
269.0836906
0
ARC
8
DEFAULT_255_2_778
10
5.6557914
20
-5.4018038
40
12.4049498
50
88.8674797
51
89.8359514
0
ARC
8
DEFAULT_255_2_778
10
5.682964
20
2.6904138
40
4.3126894
50
89.8891323
51
92.1136765
0
ARC
8
DEFAULT_255_2_778
10
5.6187181
20
4.0292464
40
2.9724351
50
91.8279509
51
99.8269775
0
ARC
8
DEFAULT_255_2_778
10
5.1201841
20
6.9277857
40
0.0315308
50
106.1715509
51
142.2865891
0
ARC
8
DEFAULT_255_2_778
10
5.2271883
20
6.8396367
40
0.1701554
50
140.8461965
51
162.1120569
0
ARC
8
DEFAULT_255_2_778
10
5.1894462
20
6.8461957
40
0.1323314
50
159.7946858
51
177.7821854
0
ARC
8
DEFAULT_255_2_778
10
5.0992845
20
6.8502995
40
0.042083
50
178.6148392
51
198.1806931
0
ARC
8
DEFAULT_255_2_778
10
5.9094465
20
7.1555959
40
0.907822
50
200.5337646
51
203.2339028
0
ARC
8
DEFAULT_255_2_778
10
5.4641391
20
6.9449858
40
0.4159293
50
200.7725001
51
228.2727089
0
ARC
8
DEFAULT_255_2_778
10
11.5941578
20
14.8643095
40
10.4295938
50
232.099232
51
234.5076902
0
LINE
8
DEFAULT_255_2_778
10
5.5388016
20
6.3726026
11
5.5404146
21
6.3714353
0
ARC
8
DEFAULT_255_2_778
10
-1.023545
20
-2.8140937
40
11.2897966
50
52.391464
51
54.4504807
0
ARC
8
DEFAULT_255_2_778
10
4.8542301
20
4.6867618
40
1.7624043
50
28.2989655
51
54.9563842
0
ARC
8
DEFAULT_255_2_778
10
5.1589415
20
4.9239397
40
1.3831698
50
4.6470587
51
25.6312988
0
ARC
8
DEFAULT_255_2_778
10
4.9285374
20
4.8984451
40
1.6148962
50
359.9547704
51
4.8863315
0
ARC
8
DEFAULT_255_2_778
10
4.4569523
20
4.912007
40
2.0865333
50
348.4593594
51
359.5925852
0
ARC
8
DEFAULT_255_2_778
10
4.1898841
20
4.9326398
40
2.3525647
50
328.3936339
51
349.2683181
0
ARC
8
DEFAULT_255_2_778
10
4.3027642
20
4.8840087
40
2.2310122
50
305.9994306
51
327.9380207
0
ARC
8
DEFAULT_255_2_778
10
4.3369694
20
4.968352
40
2.2804515
50
290.9067617
51
304.0582273
0
ARC
8
DEFAULT_255_2_778
10
-49.3983035
20
131.0109644
40
139.2978721
50
293.0472197
51
293.0540933
0
ARC
8
DEFAULT_255_2_778
10
7.6935125
20
-3.2576562
40
6.6046869
50
112.7880102
51
114.4179553
0
ARC
8
DEFAULT_255_2_778
10
0.8049083
20
11.9135624
40
10.057208
50
292.5298613
51
294.4226279
0
LINE
8
DEFAULT_255_2_778
10
4.6584773
20
2.6239209
11
4.6539707
21
2.6220224
0
ARC
8
DEFAULT_255_2_778
10
8.8052858
20
-7.3589024
40
10.8098231
50
112.5836423
51
114.1894706
0
ARC
8
DEFAULT_255_2_778
10
4.7436206
20
1.7167947
40
0.866834
50
115.1005653
51
180.8252856
0
ARC
8
DEFAULT_255_2_778
10
4.8222981
20
1.7045889
40
0.9454216
50
180.0169431
51
188.3516031
0
ARC
8
DEFAULT_255_2_778
10
4.7779789
20
1.7324775
40
0.9062623
50
190.503563
51
260.1151638
0
ARC
8
DEFAULT_255_2_778
10
4.7616686
20
1.6525502
40
0.8247249
50
260.278227
51
263.8972946
0
ARC
8
DEFAULT_255_2_778
10
4.76248
20
1.6609541
40
0.8331674
50
263.9032531
51
270.0082517
0
ARC
8
DEFAULT_255_2_778
10
4.7585239
20
1.7146583
40
0.886881
50
270.2633333
51
345.5378913
0
ARC
8
DEFAULT_255_2_778
10
4.6287432
20
1.7328715
40
1.0172053
50
346.3701679
51
355.1575249
0
ARC
8
DEFAULT_255_2_778
10
4.6999465
20
1.7259057
40
0.9456685
50
355.2138837
51
359.9823968
0
ARC
8
DEFAULT_255_2_778
10
4.8001888
20
1.7320869
40
0.8454508
50
359.5614071
51
62.014126
0
ARC
8
DEFAULT_255_2_778
10
4.6913296
20
1.5579617
40
1.0503961
50
61.2274974
51
75.2985069
0
ARC
8
DEFAULT_255_2_778
10
10.2021987
20
-9.5529318
40
13.2731259
50
112.8300487
51
113.7032665
0
ARC
8
DEFAULT_255_2_778
10
2.983435
20
7.490224
40
5.2358953
50
293.2734238
51
293.4118496
0
ARC
8
DEFAULT_255_2_778
10
4.3101281
20
4.4717362
40
1.9388516
50
292.8766437
51
298.2593148
0
ARC
8
DEFAULT_255_2_778
10
-0.9072803
20
13.7302363
40
12.5659039
50
299.2260421
51
302.1795832
0
ARC
8
DEFAULT_255_2_778
10
5.8738795
20
2.9697077
40
0.1533443
50
103.8163188
51
125.4218841
0
ARC
8
DEFAULT_255_2_778
10
5.850135
20
3.0516744
40
0.0681679
50
90.1473085
51
100.8875344
0
ARC
8
DEFAULT_255_2_778
10
5.8499657
20
3.057298
40
0.062544
50
77.7501917
51
90.0054021
0
ARC
8
DEFAULT_255_2_778
10
5.8343825
20
3.0124653
40
0.1098113
50
47.1847376
51
74.766409
0
ARC
8
DEFAULT_255_2_778
10
5.7382274
20
2.8879346
40
0.2668839
50
49.0047454
51
50.2134538
0
ARC
8
DEFAULT_255_2_778
10
4.7831935
20
1.7412999
40
1.7591009
50
6.8322932
51
50.026331
0
ARC
8
DEFAULT_255_2_778
10
4.6086966
20
1.705647
40
1.9366554
50
0.9370985
51
7.2654499
0
ARC
8
DEFAULT_255_2_778
10
4.6556838
20
1.7071919
40
1.8896494
50
0.0003805
51
0.9135607
0
ARC
8
DEFAULT_255_2_778
10
4.789141
20
1.695018
40
1.7562347
50
308.1803312
51
0.3975776
0
ARC
8
DEFAULT_255_2_778
10
4.6894548
20
1.8126031
40
1.910293
50
297.9395275
51
308.3505826
0
ARC
8
DEFAULT_255_2_778
10
4.7494238
20
1.7065571
40
1.7885126
50
289.531304
51
297.8340532
0
ARC
8
DEFAULT_255_2_778
10
4.7664776
20
1.6592859
40
1.7382601
50
279.6833481
51
289.522447
0
ARC
8
DEFAULT_255_2_778
10
4.7683615
20
1.6501169
40
1.7289049
50
277.4292419
51
279.6729163
0
ARC
8
DEFAULT_255_2_778
10
4.7679212
20
1.6543292
40
1.7331386
50
269.9951262
51
277.4256682
0
ARC
8
DEFAULT_255_2_778
10
4.7764823
20
1.7262291
40
1.8050595
50
209.9367247
51
269.7235771
0
ARC
8
DEFAULT_255_2_778
10
4.774008
20
1.7192845
40
1.7994561
50
191.1967351
51
209.7844248
0
ARC
8
DEFAULT_255_2_778
10
4.7413381
20
1.7154609
40
1.7666675
50
184.9234289
51
191.2808268
0
ARC
8
DEFAULT_255_2_778
10
4.7101192
20
1.7125001
40
1.7353097
50
180.0035482
51
184.9144989
0
ARC
8
DEFAULT_255_2_778
10
4.732733
20
1.7089011
40
1.7579268
50
152.6550594
51
179.8861993
0
ARC
8
DEFAULT_255_2_778
10
4.8091077
20
1.6770795
40
1.840397
50
118.2442049
51
152.8672796
0
ARC
8
DEFAULT_255_2_778
10
4.695588
20
1.8779155
40
1.6097595
50
101.8325906
51
118.0675877
0
ARC
8
DEFAULT_255_2_778
10
4.0702143
20
5.1694623
40
1.7412146
50
279.7638297
51
316.1168014
0
ARC
8
DEFAULT_255_2_778
10
3.9802173
20
5.2074534
40
1.8327496
50
317.2111333
51
324.0279731
0
ARC
8
DEFAULT_255_2_778
10
4.2821681
20
4.9893897
40
1.4602914
50
323.9933203
51
330.2610026
0
ARC
8
DEFAULT_255_2_778
10
4.731726
20
4.7351952
40
0.9438527
50
330.1221413
51
336.4978012
0
ARC
8
DEFAULT_255_2_778
10
5.0900461
20
4.5752412
40
0.551483
50
336.891834
51
338.1474893
0
ARC
8
DEFAULT_255_2_778
10
4.5520885
20
4.7815634
40
1.1276166
50
338.5916323
51
359.9760853
0
ARC
8
DEFAULT_255_2_778
10
4.503173
20
4.7810925
40
1.1765319
50
0.0000081
51
0.1157278
0
ARC
8
DEFAULT_255_2_778
10
4.7147253
20
4.7406379
40
0.9659271
50
2.5414387
51
24.2959775
0
ARC
8
DEFAULT_255_2_778
10
5.0435827
20
4.8889811
40
0.60516
50
24.3057919
51
32.6504838
0
ARC
8
DEFAULT_255_2_778
10
4.4780697
20
4.5293923
40
1.2753142
50
32.5455388
51
38.354007
0
ARC
8
DEFAULT_255_2_778
10
3.9490199
20
4.1229239
40
1.9424353
50
38.0727242
51
39.4427168
0
ARC
8
DEFAULT_255_2_778
10
3.3578057
20
3.6286793
40
2.7130101
50
39.5711878
51
43.0649218
0
ARC
8
DEFAULT_255_2_778
10
2.6627542
20
2.9853366
40
3.6600955
50
42.9931311
51
45.628353
0
ARC
8
DEFAULT_255_2_778
10
2.8714076
20
3.2028058
40
3.3587323
50
45.5783887
51
47.3182714
0
ARC
8
DEFAULT_255_2_778
10
3.8455377
20
4.2626096
40
1.919252
50
47.2479759
51
49.2416656
0
ARC
8
DEFAULT_255_2_778
10
4.6015997
20
5.1381241
40
0.7624667
50
49.3241109
51
50.9161255
0
ARC
8
DEFAULT_255_2_778
10
4.2222024
20
6.2777679
40
0.0987823
50
52.8172578
51
95.5844731
0
ARC
8
DEFAULT_255_2_778
10
4.2240007
20
5.5136727
40
0.862484
50
90.7580761
51
94.13406
0
ARC
8
DEFAULT_255_2_778
10
5.1149372
20
-8.988217
40
15.3916683
50
93.5502539
51
93.5827831
0
ARC
8
DEFAULT_255_2_778
10
3.8787171
20
10.4826855
40
4.1184669
50
273.5290036
51
273.8200547
0
ARC
8
DEFAULT_255_2_778
10
3.8897434
20
10.3033523
40
3.9387951
50
273.1654169
51
273.5294878
0
ARC
8
DEFAULT_255_2_778
10
3.911164
20
9.8988584
40
3.5337357
50
272.039344
51
273.1807841
0
ARC
8
DEFAULT_255_2_778
10
3.9419319
20
9.0002401
40
2.6345918
50
270.3353268
51
272.0660832
0
ARC
8
DEFAULT_255_2_778
10
3.9474337
20
8.4318112
40
2.0661417
50
270.0012178
51
270.2750134
0
ARC
8
DEFAULT_255_2_778
10
3.9371382
20
7.5402452
40
1.1746211
50
264.4002444
51
270.5043442
0
ARC
8
DEFAULT_255_2_778
10
3.8581762
20
6.7267396
40
0.3572937
50
256.0600282
51
264.2726641
0
ARC
8
DEFAULT_255_2_778
10
4.0984673
20
5.9119853
40
0.5705461
50
118.2866638
51
124.8913589
0
ARC
8
DEFAULT_255_2_778
10
5.9899756
20
2.4090981
40
4.551503
50
116.5331767
51
118.3581568
0
ARC
8
DEFAULT_255_2_778
10
1.6522009
20
11.0044503
40
5.0764714
50
296.9984287
51
297.4948066
0
ARC
8
DEFAULT_255_2_778
10
3.3144609
20
7.8345651
40
1.4972447
50
297.0709144
51
301.3759989
0
ARC
8
DEFAULT_255_2_778
10
3.8391313
20
6.9689925
40
0.4850827
50
301.6966611
51
306.740284
0
ARC
8
DEFAULT_255_2_778
10
3.7216877
20
5.9618128
40
0.7407008
50
56.611751
51
81.3678188
0
ARC
8
DEFAULT_255_2_778
10
3.5536487
20
4.9585345
40
1.7579042
50
80.8608997
51
87.3289607
0
ARC
8
DEFAULT_255_2_778
10
3.1060469
20
-2.5447273
40
9.2743851
50
86.726906
51
87.1103774
0
ARC
8
DEFAULT_255_2_778
10
3.6298342
20
8.700216
40
1.9831484
50
260.4818986
51
268.3747474
0
ARC
8
DEFAULT_255_2_778
10
3.5030455
20
6.630712
40
0.2310335
50
136.9613155
51
150.5311777
0
ARC
8
DEFAULT_255_2_778
10
3.7146428
20
6.4387442
40
0.5167213
50
129.6133905
51
137.4165453
0
ARC
8
DEFAULT_255_2_778
10
3.8771514
20
6.2500274
40
0.7657337
50
128.0227182
51
129.9773562
0
ARC
8
DEFAULT_255_2_778
10
4.0828873
20
5.9766723
40
1.1078197
50
120.1125007
51
127.6964843
0
ARC
8
DEFAULT_255_2_778
10
4.1909555
20
5.8010836
40
1.3139401
50
115.0973179
51
120.3475736
0
ARC
8
DEFAULT_255_2_778
10
4.0580791
20
6.0960448
40
0.9904775
50
107.10951
51
115.3737379
0
ARC
8
DEFAULT_255_2_778
10
3.9148074
20
6.5650124
40
0.5001152
50
97.1219447
51
107.2285102
0
ARC
8
DEFAULT_255_2_778
10
1.2268387
20
6.781704
40
2.6408032
50
6.0769238
51
12.544238
0
ARC
8
DEFAULT_255_2_778
10
3.6280307
20
7.2848535
40
0.1900944
50
21.7417272
51
62.5865162
0
ARC
8
DEFAULT_255_2_778
10
3.5867939
20
7.2335919
40
0.2549175
50
59.6622448
51
60.9172175
0
ARC
8
DEFAULT_255_2_778
10
2.4473265
20
5.2687349
40
2.5262346
50
59.9932294
51
63.7730491
0
ARC
8
DEFAULT_255_2_778
10
20.6723204
20
42.188988
40
38.6472468
50
243.4686847
51
243.7246397
0
ARC
8
DEFAULT_255_2_778
10
3.7498032
20
7.0845934
40
0.6276031
50
91.5431163
51
122.8785707
0
ARC
8
DEFAULT_255_2_778
10
3.7788585
20
6.4896361
40
1.2231964
50
89.9970799
51
92.1531405
0
ARC
8
DEFAULT_255_2_778
10
3.7792727
20
6.5024026
40
1.2104299
50
76.7208871
51
90.0166542
0
ARC
8
DEFAULT_255_2_778
10
4.2266896
20
8.3993183
40
0.7385367
50
256.7408882
51
266.8103335
0
ARC
8
DEFAULT_255_2_778
10
4.2138669
20
8.235549
40
0.5743196
50
267.1785054
51
269.9824099
0
ARC
8
DEFAULT_255_2_778
10
4.2154724
20
8.1545885
40
0.4933625
50
269.7930673
51
303.6247559
0
ARC
8
DEFAULT_255_2_778
10
4.0941324
20
8.3565969
40
0.728844
50
302.7737695
51
309.5029848
0
ARC
8
DEFAULT_255_2_778
10
4.0246543
20
8.4445876
40
0.8409364
50
309.3419312
51
309.5394552
0
ARC
8
DEFAULT_255_2_778
10
2.1323719
20
1.7845415
40
6.4831977
50
68.009704
51
68.1054592
0
ARC
8
DEFAULT_255_2_778
10
-1.1949076
20
-6.5638579
40
15.4702038
50
68.2011021
51
68.6643243
0
ARC
8
DEFAULT_255_2_778
10
6.3763182
20
12.8993717
40
5.4138371
50
246.3146078
51
248.9712498
0
ARC
8
DEFAULT_255_2_778
10
5.6881867
20
11.1967985
40
3.578652
50
239.3664702
51
245.4535139
0
ARC
8
DEFAULT_255_2_778
10
3.2947642
20
4.38458
40
3.7762463
50
76.9112264
51
81.3193397
0
ARC
8
DEFAULT_255_2_778
10
8.426568
20
27.531687
40
19.9331443
50
257.610939
51
257.7786667
0
ARC
8
DEFAULT_255_2_778
10
4.6851092
20
9.9938171
40
2.0014889
50
256.1781646
51
268.3908282
0
ARC
8
DEFAULT_255_2_778
10
4.6312429
20
9.0062295
40
1.0131146
50
269.8677299
51
277.9977812
0
ARC
8
DEFAULT_255_2_778
10
-6.6085422
20
10.1503385
40
11.5815605
50
349.3147995
51
349.5276826
0
ARC
8
DEFAULT_255_2_778
10
4.5278711
20
3.337182
40
4.8996132
50
91.304942
51
95.6170415
0
ARC
8
DEFAULT_255_2_778
10
4.4681261
20
5.1360027
40
3.0999553
50
90.007806
51
90.9581285
0
ARC
8
DEFAULT_255_2_778
10
4.5203243
20
6.479703
40
1.7570431
50
65.19703
51
91.7161716
0
ARC
8
DEFAULT_255_2_778
10
6.8845179
20
11.4480316
40
3.7452744
50
244.2500203
51
245.7934443
0
ARC
8
DEFAULT_255_2_778
10
22.6258004
20
46.1488179
40
41.8494877
50
245.6169284
51
245.6507715
0
ARC
8
DEFAULT_255_2_778
10
4.5570254
20
6.1340918
40
2.0559327
50
60.3241485
51
66.66571
0
ARC
8
DEFAULT_255_2_778
10
5.409647
20
7.6645483
40
0.3045546
50
33.9813017
51
57.1382949
0
LINE
8
DEFAULT_255_2_778
10
5.6621897
20
7.8347706
11
5.662388
21
7.8345185
0
ARC
8
DEFAULT_255_2_778
10
6.2579922
20
8.2904754
40
0.7500941
50
217.4353898
51
221.8558137
0
ARC
8
DEFAULT_255_2_778
10
5.2891904
20
7.4227054
40
0.5505218
50
37.004993
51
41.8450894
0
LINE
8
DEFAULT_255_2_778
10
5.7288278
20
7.754056
11
5.729043
21
7.7537787
0
ARC
8
DEFAULT_255_2_778
10
5.9227853
20
7.882151
40
0.2324125
50
213.5281784
51
237.439218
0
ARC
8
DEFAULT_255_2_778
10
6.1587253
20
8.4425268
40
0.8380116
50
244.48109
51
273.0307984
0
ARC
8
DEFAULT_255_2_778
10
6.1966134
20
10.9624426
40
3.3567615
50
270.1095785
51
271.5242317
0
ARC
8
DEFAULT_255_2_778
10
6.1613233
20
7.2578908
40
0.4256672
50
64.8965687
51
72.4606915
0
ARC
8
DEFAULT_255_2_778
10
6.0606529
20
7.0615445
40
0.6462248
50
30.8744098
51
64.1995984
0
ARC
8
DEFAULT_255_2_778
10
6.3469451
20
7.2389378
40
0.3095171
50
12.9804791
51
29.8853891
0
ARC
8
DEFAULT_255_2_778
10
6.4637606
20
7.2681185
40
0.189145
50
0.3256146
51
12.3152398
0
ARC
8
DEFAULT_255_2_778
10
6.589937
20
7.2691373
40
0.0629655
50
359.8468078
51
0.0510705
0
ARC
8
DEFAULT_255_2_778
10
6.6838043
20
216.3723264
40
209.1033597
50
269.9404123
51
269.9915327
0
ARC
8
DEFAULT_255_2_778
10
6.2488895
20
-201.778837
40
209.0480299
50
89.9404022
51
89.991516
0
ARC
8
DEFAULT_255_2_778
10
6.2759811
20
-74.5711135
40
81.8403043
50
89.9972955
51
90.0685013
0
ARC
8
DEFAULT_255_2_778
10
6.207332
20
-34.5731138
40
41.8422562
50
90.0399802
51
90.5275132
0
ARC
8
DEFAULT_255_2_778
10
5.836673
20
7.1247418
40
0.1433694
50
95.8330349
51
121.4456981
0
ARC
8
DEFAULT_255_2_778
10
5.3261314
20
8.1062054
40
0.963335
50
296.1923635
51
296.8933907
0
ARC
8
DEFAULT_255_2_778
10
5.6421459
20
7.4613065
40
0.2451743
50
291.9275621
51
296.4457512
0
ARC
8
DEFAULT_255_2_778
10
5.5913039
20
7.0035009
40
0.270826
50
51.659526
51
58.278361
0
ARC
8
DEFAULT_255_2_778
10
18.380445
20
23.831769
40
20.8657512
50
232.7802649
51
232.7851746
0
ARC
8
DEFAULT_255_2_778
10
5.8338252
20
7.2921526
40
0.106397
50
226.6066916
51
261.3386092
0
ARC
8
DEFAULT_255_2_778
10
5.4899131
20
7.5607718
40
0.042754
50
122.4031648
51
175.3081613
0
ARC
8
DEFAULT_255_2_778
10
5.4896737
20
7.5610805
40
0.0424911
50
175.6965533
51
180.0036783
0
ARC
8
DEFAULT_255_2_778
10
5.4896604
20
7.5610488
40
0.0424778
50
179.9610449
51
228.8388697
0
ARC
8
DEFAULT_255_2_778
10
5.5176815
20
7.5612276
40
0.0645589
50
209.8762991
51
254.6596516
0
ARC
8
DEFAULT_255_2_778
10
5.5172009
20
7.5598633
40
0.063116
50
254.7528068
51
267.9482208
0
ARC
8
DEFAULT_255_2_778
10
5.5172163
20
7.5598933
40
0.0631467
50
267.9351972
51
270.0044379
0
ARC
8
DEFAULT_255_2_778
10
5.5172348
20
7.5601676
40
0.063421
50
269.9876803
51
300.5828607
0
ARC
8
DEFAULT_255_2_778
10
5.5245793
20
7.5633473
40
0.0614735
50
47.6362383
51
88.2198407
0
ARC
8
DEFAULT_255_2_778
10
5.5384984
20
7.5205611
40
0.1049195
50
96.5726639
51
133.180285
0
LINE
8
DEFAULT_255_2_778
10
10.2784024
20
2.7832689
11
9.4302024
21
5.3840689
0
LINE
8
DEFAULT_255_2_778
10
9.4302024
20
5.3840689
11
9.7482024
21
5.3840689
0
LINE
8
DEFAULT_255_2_778
10
9.7482024
20
5.3840689
11
10.3938024
21
3.3767689
0
LINE
8
DEFAULT_255_2_778
10
10.3938024
20
3.3767689
11
11.0558024
21
5.3840689
0
LINE
8
DEFAULT_255_2_778
10
11.0558024
20
5.3840689
11
11.3455024
21
5.3840689
0
LINE
8
DEFAULT_255_2_778
10
11.3455024
20
5.3840689
11
12.0051024
21
3.3812689
0
LINE
8
DEFAULT_255_2_778
10
12.0051024
20
3.3812689
11
12.6533024
21
5.3840689
0
LINE
8
DEFAULT_255_2_778
10
12.6533024
20
5.3840689
11
12.9648024
21
5.3840689
0
LINE
8
DEFAULT_255_2_778
10
12.9648024
20
5.3840689
11
12.1189024
21
2.7832689
0
LINE
8
DEFAULT_255_2_778
10
12.1189024
20
2.7832689
11
11.8808024
21
2.7832689
0
LINE
8
DEFAULT_255_2_778
10
11.8808024
20
2.7832689
11
11.1928024
21
4.8776689
0
LINE
8
DEFAULT_255_2_778
10
11.1928024
20
4.8776689
11
10.5144024
21
2.7832689
0
LINE
8
DEFAULT_255_2_778
10
10.5144024
20
2.7832689
11
10.2763024
21
2.7832689
0
LINE
8
DEFAULT_255_2_778
10
10.2763024
20
2.7832689
11
10.2784024
21
2.7832689
0
LINE
8
DEFAULT_255_2_778
10
12.9039024
20
2.7832689
11
12.9039024
21
4.8001689
0
LINE
8
DEFAULT_255_2_778
10
12.9039024
20
4.8001689
11
13.2214024
21
4.8001689
0
LINE
8
DEFAULT_255_2_778
10
13.2214024
20
4.8001689
11
13.2214024
21
2.7835689
0
LINE
8
DEFAULT_255_2_778
10
13.2214024
20
2.7835689
11
12.9039024
21
2.7832689
0
LINE
8
DEFAULT_255_2_778
10
13.9702024
20
3.6624689
11
13.9702024
21
2.7840689
0
LINE
8
DEFAULT_255_2_778
10
13.9702024
20
2.7840689
11
13.6545024
21
2.7840689
0
LINE
8
DEFAULT_255_2_778
10
13.6545024
20
2.7840689
11
13.6545024
21
4.7914689
0
LINE
8
DEFAULT_255_2_778
10
13.6545024
20
4.7914689
11
15.0399024
21
4.7914689
0
LINE
8
DEFAULT_255_2_778
10
15.2005024
20
3.6680689
11
15.7561024
21
2.7842689
0
LINE
8
DEFAULT_255_2_778
10
15.7561024
20
2.7842689
11
15.4121024
21
2.7842689
0
LINE
8
DEFAULT_255_2_778
10
15.4121024
20
2.7842689
11
14.8433024
21
3.6627689
0
LINE
8
DEFAULT_255_2_778
10
14.8433024
20
3.6627689
11
13.9702024
21
3.6627689
0
LINE
8
DEFAULT_255_2_778
10
13.9702024
20
3.6627689
11
13.9702024
21
3.6624689
0
LINE
8
DEFAULT_255_2_778
10
13.9702024
20
3.9569689
11
15.0399024
21
3.9569689
0
LINE
8
DEFAULT_255_2_778
10
15.0399024
20
4.5009689
11
13.9702024
21
4.5009689
0
LINE
8
DEFAULT_255_2_778
10
13.9702024
20
4.5009689
11
13.9702024
21
3.9566689
0
LINE
8
DEFAULT_255_2_778
10
13.9702024
20
3.9566689
11
13.9702024
21
3.9569689
0
LINE
8
DEFAULT_255_2_778
10
15.9942024
20
2.7832689
11
15.9942024
21
4.7922689
0
LINE
8
DEFAULT_255_2_778
10
15.9942024
20
4.7922689
11
17.8812024
21
4.7922689
0
LINE
8
DEFAULT_255_2_778
10
17.8812024
20
4.7922689
11
17.8812024
21
4.4977689
0
LINE
8
DEFAULT_255_2_778
10
17.8812024
20
4.4977689
11
16.3096024
21
4.4977689
0
LINE
8
DEFAULT_255_2_778
10
16.3096024
20
4.4977689
11
16.3096024
21
3.9984689
0
LINE
8
DEFAULT_255_2_778
10
16.3096024
20
3.9984689
11
17.3415024
21
3.9984689
0
LINE
8
DEFAULT_255_2_778
10
17.3415024
20
3.9984689
11
17.3415024
21
3.7087689
0
LINE
8
DEFAULT_255_2_778
10
17.3415024
20
3.7087689
11
16.3096024
21
3.7087689
0
LINE
8
DEFAULT_255_2_778
10
16.3096024
20
3.7087689
11
16.3096024
21
3.0724689
0
LINE
8
DEFAULT_255_2_778
10
16.3096024
20
3.0724689
11
17.9686024
21
3.0724689
0
LINE
8
DEFAULT_255_2_778
10
17.9686024
20
3.0724689
11
17.9686024
21
2.7827689
0
LINE
8
DEFAULT_255_2_778
10
17.9686024
20
2.7827689
11
15.9916024
21
2.7827689
0
LINE
8
DEFAULT_255_2_778
10
15.9916024
20
2.7827689
11
15.9942024
21
2.7832689
0
LINE
8
DEFAULT_255_2_778
10
20.1858024
20
3.4878689
11
20.1858024
21
3.8696689
0
LINE
8
DEFAULT_255_2_778
10
20.1858024
20
3.8696689
11
19.4767024
21
3.8696689
0
LINE
8
DEFAULT_255_2_778
10
19.4767024
20
3.8696689
11
19.4767024
21
4.1685689
0
LINE
8
DEFAULT_255_2_778
10
19.4767024
20
4.1685689
11
20.5086024
21
4.1685689
0
LINE
8
DEFAULT_255_2_778
10
20.5086024
20
4.1685689
11
20.5086024
21
3.3864689
0
LINE
8
DEFAULT_255_2_778
10
20.4707024
20
4.8358689
11
20.1998024
21
4.6427689
0
LINE
8
DEFAULT_255_2_778
10
20.1863024
20
3.4883689
11
20.1858024
21
3.4878689
0
LINE
8
DEFAULT_255_2_778
10
20.8605024
20
4.7906689
11
21.1761024
21
4.7906689
0
LINE
8
DEFAULT_255_2_778
10
21.1761024
20
4.7906689
11
21.1761024
21
3.5021689
0
LINE
8
DEFAULT_255_2_778
10
22.5353024
20
3.5021689
11
22.5353024
21
4.7906689
0
LINE
8
DEFAULT_255_2_778
10
22.5353024
20
4.7906689
11
22.8485024
21
4.7906689
0
LINE
8
DEFAULT_255_2_778
10
22.8485024
20
4.7906689
11
22.8485024
21
3.4195689
0
LINE
8
DEFAULT_255_2_778
10
20.8573024
20
3.4198689
11
20.8573024
21
4.7909689
0
LINE
8
DEFAULT_255_2_778
10
20.8573024
20
4.7909689
11
20.8605024
21
4.7906689
0
LINE
8
DEFAULT_255_2_778
10
22.7998024
20
2.7832689
11
23.8225024
21
4.7951689
0
LINE
8
DEFAULT_255_2_778
10
23.8225024
20
4.7951689
11
24.0204024
21
4.7951689
0
LINE
8
DEFAULT_255_2_778
10
24.0204024
20
4.7951689
11
25.0523024
21
2.7832689
0
LINE
8
DEFAULT_255_2_778
10
25.0523024
20
2.7832689
11
24.7123024
21
2.7832689
0
LINE
8
DEFAULT_255_2_778
10
24.7123024
20
2.7832689
11
24.4509024
21
3.2944689
0
LINE
8
DEFAULT_255_2_778
10
24.4509024
20
3.2944689
11
23.3883024
21
3.2944689
0
LINE
8
DEFAULT_255_2_778
10
23.3883024
20
3.2944689
11
23.1290024
21
2.7832689
0
LINE
8
DEFAULT_255_2_778
10
23.1290024
20
2.7832689
11
22.7998024
21
2.7832689
0
LINE
8
DEFAULT_255_2_778
10
23.5274024
20
3.5605689
11
24.3143024
21
3.5605689
0
LINE
8
DEFAULT_255_2_778
10
24.3143024
20
3.5605689
11
23.9233024
21
4.3310689
0
LINE
8
DEFAULT_255_2_778
10
23.9233024
20
4.3310689
11
23.5274024
21
3.5605689
0
LINE
8
DEFAULT_255_2_778
10
25.4023024
20
3.6624689
11
25.4023024
21
2.7840689
0
LINE
8
DEFAULT_255_2_778
10
25.4023024
20
2.7840689
11
25.0867024
21
2.7840689
0
LINE
8
DEFAULT_255_2_778
10
25.0867024
20
2.7840689
11
25.0867024
21
4.7914689
0
LINE
8
DEFAULT_255_2_778
10
25.0867024
20
4.7914689
11
26.4720024
21
4.7914689
0
LINE
8
DEFAULT_255_2_778
10
26.6326024
20
3.6680689
11
27.1882024
21
2.7842689
0
LINE
8
DEFAULT_255_2_778
10
27.1882024
20
2.7842689
11
26.8443024
21
2.7842689
0
LINE
8
DEFAULT_255_2_778
10
26.8443024
20
2.7842689
11
26.2741024
21
3.6627689
0
LINE
8
DEFAULT_255_2_778
10
26.2741024
20
3.6627689
11
25.4002024
21
3.6627689
0
LINE
8
DEFAULT_255_2_778
10
25.4002024
20
3.6627689
11
25.4023024
21
3.6624689
0
LINE
8
DEFAULT_255_2_778
10
25.4023024
20
3.9569689
11
26.4720024
21
3.9569689
0
LINE
8
DEFAULT_255_2_778
10
26.4720024
20
4.5009689
11
25.4023024
21
4.5009689
0
LINE
8
DEFAULT_255_2_778
10
25.4023024
20
4.5009689
11
25.4023024
21
3.9566689
0
LINE
8
DEFAULT_255_2_778
10
25.4023024
20
3.9566689
11
25.4023024
21
3.9569689
0
LINE
8
DEFAULT_255_2_778
10
28.3243024
20
2.7803689
11
27.4314024
21
2.7803689
0
LINE
8
DEFAULT_255_2_778
10
27.4314024
20
2.7803689
11
27.4314024
21
4.7922689
0
LINE
8
DEFAULT_255_2_778
10
27.4314024
20
4.7922689
11
28.3243024
21
4.7922689
0
LINE
8
DEFAULT_255_2_778
10
28.3243024
20
4.7922689
11
28.3246024
21
4.7922689
0
LINE
8
DEFAULT_255_2_778
10
28.3294024
20
4.5025689
11
27.7473024
21
4.5025689
0
LINE
8
DEFAULT_255_2_778
10
27.7473024
20
4.5025689
11
27.7473024
21
3.0724689
0
LINE
8
DEFAULT_255_2_778
10
27.7473024
20
3.0724689
11
28.3294024
21
3.0724689
0
LINE
8
DEFAULT_255_2_778
10
28.3302024
20
4.5051689
11
28.3294024
21
4.5025689
0
LINE
8
DEFAULT_255_2_778
10
8.7798024
20
4.2048689
11
8.7843024
21
4.2048689
0
LINE
8
DEFAULT_255_2_778
10
4.0406024
20
3.4531689
11
3.8512024
21
3.3526689
0
LINE
8
DEFAULT_255_2_778
10
3.1278024
20
5.6579689
11
3.1302024
21
5.6587689
0
LINE
8
DEFAULT_255_2_778
10
2.3740024
20
1.8413689
11
2.3740024
21
1.8415689
0
LINE
8
DEFAULT_255_2_778
10
4.9579024
20
2.5739689
11
4.8664024
21
2.6004689
0
LINE
8
DEFAULT_255_2_778
10
5.0823024
20
5.7299689
11
4.2819024
21
6.3564689
0
LINE
8
DEFAULT_255_2_778
10
4.7801024
20
8.0452689
11
4.0483024
21
8.2132689
0
LINE
8
DEFAULT_255_2_778
10
6.2859024
20
7.6068689
11
6.2896024
21
7.6637689
0
LINE
8
DEFAULT_255_2_778
10
5.8178024
20
7.1869689
11
5.8268024
21
7.1867689
0
LINE
8
DEFAULT_255_2_778
10
5.5495024
20
7.5055689
11
5.6342024
21
7.5505689
0
LINE
8
DEFAULT_255_2_778
10
5.6342024
20
7.5505689
11
5.5660024
21
7.6087689
0
LINE
8
DEFAULT_255_2_778
10
5.4667024
20
7.5970689
11
5.4670024
21
7.5968689
0
ENDSEC
0
EOF