0
SECTION
2
HEADER
9
$MEASUREMENT
70
1
0
ENDSEC
0
SECTION
2
TABLES
0
TABLE
2
LTYPE
0
LTYPE
72
65
70
64
2
CONTINUOUS
3
______
73
0
40
0
0
ENDTAB
0
TABLE
2
LAYER
0
LAYER
2
DEFAULT_255_2_778
70
0
62
255
6
CONTINUOUS
0
ENDTAB
0
ENDSEC
0
SECTION
2
ENTITIES
0
ARC
8
DEFAULT_255_2_778
10
16.8669553
20
8.5936059
40
0.1842909
50
357.2818937
51
357.4721444
0
ARC
8
DEFAULT_255_2_778
10
16.3008566
20
8.6189285
40
0.7509557
50
357.4469534
51
357.6488217
0
ARC
8
DEFAULT_255_2_778
10
15.7983229
20
8.6396706
40
1.2539173
50
357.6438623
51
357.8632482
0
ARC
8
DEFAULT_255_2_778
10
15.2205134
20
8.6613088
40
1.8321319
50
357.8607559
51
358.0321601
0
ARC
8
DEFAULT_255_2_778
10
14.8644221
20
8.6734881
40
2.1884315
50
358.0336161
51
358.2383805
0
ARC
8
DEFAULT_255_2_778
10
14.4747365
20
8.6856374
40
2.5783063
50
358.2347324
51
358.4089618
0
ARC
8
DEFAULT_255_2_778
10
14.0473991
20
8.6975971
40
3.005811
50
358.4072466
51
358.5793505
0
ARC
8
DEFAULT_255_2_778
10
13.7468005
20
8.7050776
40
3.3065027
50
358.5789062
51
358.7519595
0
ARC
8
DEFAULT_255_2_778
10
13.3214367
20
8.7143937
40
3.7319685
50
358.7512058
51
358.9784179
0
ARC
8
DEFAULT_255_2_778
10
12.8940075
20
8.7219828
40
4.159465
50
358.9788683
51
359.2208795
0
ARC
8
DEFAULT_255_2_778
10
12.4597189
20
8.7278549
40
4.5937933
50
359.2213014
51
359.4106054
0
ARC
8
DEFAULT_255_2_778
10
12.156657
20
8.7307595
40
4.8968691
50
359.4130978
51
359.6682126
0
ARC
8
DEFAULT_255_2_778
10
11.790313
20
8.7329812
40
5.2632199
50
359.6671216
51
359.9177159
0
ARC
8
DEFAULT_255_2_778
10
11.6510149
20
8.7333411
40
5.4025184
50
359.9160206
51
0.0019566
0
ARC
8
DEFAULT_255_2_778
10
10.9028952
20
8.7320803
40
6.1506385
50
0.0134636
51
0.8885284
0
ARC
8
DEFAULT_255_2_778
10
9.9000992
20
8.7166939
40
7.1535524
50
0.8871991
51
1.8521164
0
ARC
8
DEFAULT_255_2_778
10
9.0898671
20
8.6908071
40
7.964198
50
1.8498623
51
2.8372494
0
ARC
8
DEFAULT_255_2_778
10
8.4802886
20
8.6609117
40
8.574509
50
2.835146
51
3.809868
0
ARC
8
DEFAULT_255_2_778
10
8.0386061
20
8.631691
40
9.0171569
50
3.8086492
51
4.768152
0
ARC
8
DEFAULT_255_2_778
10
7.7306999
20
8.6061364
40
9.3261217
50
4.7673644
51
5.7097684
0
ARC
8
DEFAULT_255_2_778
10
7.486535
20
8.5815827
40
9.571518
50
5.7106069
51
7.1106013
0
ARC
8
DEFAULT_255_2_778
10
7.3280244
20
8.5620131
40
9.731232
50
7.109411
51
8.6914526
0
ARC
8
DEFAULT_255_2_778
10
7.2978265
20
8.5576251
40
9.7617461
50
8.690128
51
10.4169055
0
ARC
8
DEFAULT_255_2_778
10
7.386359
20
8.5741886
40
9.6716779
50
10.4152288
51
12.4500889
0
ARC
8
DEFAULT_255_2_778
10
7.5802291
20
8.6172685
40
9.4730791
50
12.4484524
51
14.6779164
0
ARC
8
DEFAULT_255_2_778
10
7.8615677
20
8.6914033
40
9.1821371
50
14.6752429
51
17.298932
0
ARC
8
DEFAULT_255_2_778
10
8.2242016
20
8.804969
40
8.8021369
50
17.2950462
51
20.4571384
0
ARC
8
DEFAULT_255_2_778
10
8.6369386
20
8.9594614
40
8.3614337
50
20.4537478
51
24.1047853
0
ARC
8
DEFAULT_255_2_778
10
8.9739708
20
9.1088018
40
7.9927991
50
24.1143068
51
26.6422271
0
ARC
8
DEFAULT_255_2_778
10
9.3140189
20
9.2820208
40
7.6111817
50
26.6245848
51
31.5889159
0
ARC
8
DEFAULT_255_2_778
10
9.6651051
20
9.4975339
40
7.1992262
50
31.5915113
51
36.9448663
0
ARC
8
DEFAULT_255_2_778
10
9.8941699
20
9.6688988
40
6.913156
50
36.950845
51
42.550924
0
ARC
8
DEFAULT_255_2_778
10
9.9935353
20
9.7587287
40
6.7792089
50
42.5595425
51
47.8406477
0
ARC
8
DEFAULT_255_2_778
10
9.9851479
20
9.748256
40
6.7926018
50
47.8474955
51
53.0763673
0
ARC
8
DEFAULT_255_2_778
10
9.8929515
20
9.6244139
40
6.946993
50
53.082082
51
58.1019747
0
ARC
8
DEFAULT_255_2_778
10
9.740785
20
9.3790813
40
7.2356841
50
58.1055235
51
62.7884261
0
ARC
8
DEFAULT_255_2_778
10
9.5541238
20
9.0157599
40
7.6441506
50
62.7894487
51
67.0483518
0
ARC
8
DEFAULT_255_2_778
10
9.3507963
20
8.5352526
40
8.1659064
50
67.0493686
51
71.0242718
0
ARC
8
DEFAULT_255_2_778
10
9.1453237
20
7.9382418
40
8.7972866
50
71.0231133
51
74.6254642
0
ARC
8
DEFAULT_255_2_778
10
8.9555822
20
7.2501592
40
9.5110507
50
74.6223216
51
77.7731362
0
ARC
8
DEFAULT_255_2_778
10
8.7828045
20
6.4515764
40
10.3281104
50
77.7746218
51
80.8595601
0
ARC
8
DEFAULT_255_2_778
10
8.6348824
20
5.5360041
40
11.2555548
50
80.8565032
51
83.5793608
0
ARC
8
DEFAULT_255_2_778
10
8.5221237
20
4.5368519
40
12.2610496
50
83.5778684
51
86.0817454
0
ARC
8
DEFAULT_255_2_778
10
8.4508623
20
3.5151508
40
13.2852321
50
86.0762301
51
88.0816313
0
ARC
8
DEFAULT_255_2_778
10
8.4160139
20
2.4754003
40
14.3255663
50
88.0815412
51
90.0122987
0
ARC
8
DEFAULT_255_2_778
10
8.4089452
20
5.1859823
40
11.6149848
50
89.9802994
51
92.6886456
0
ARC
8
DEFAULT_255_2_778
10
8.3661389
20
6.1057072
40
10.6942644
50
92.6907012
51
95.3759006
0
ARC
8
DEFAULT_255_2_778
10
8.2889575
20
6.9194352
40
9.8768847
50
95.3723965
51
98.4693591
0
ARC
8
DEFAULT_255_2_778
10
8.1770875
20
7.6683094
40
9.1197009
50
98.4671256
51
101.9308934
0
ARC
8
DEFAULT_255_2_778
10
8.0397111
20
8.3180396
40
8.4556064
50
101.9302913
51
105.6949013
0
ARC
8
DEFAULT_255_2_778
10
7.8908054
20
8.8485461
40
7.9045982
50
105.6960319
51
109.6752154
0
ARC
8
DEFAULT_255_2_778
10
7.7405702
20
9.2685408
40
7.458542
50
109.6747794
51
114.140689
0
ARC
8
DEFAULT_255_2_778
10
7.6040651
20
9.5740648
40
7.1239102
50
114.1437927
51
118.8811092
0
ARC
8
DEFAULT_255_2_778
10
7.5022772
20
9.7594644
40
6.9124071
50
118.8845813
51
124.2113725
0
ARC
8
DEFAULT_255_2_778
10
7.4644826
20
9.8166309
40
6.8438823
50
124.2187965
51
129.6953683
0
ARC
8
DEFAULT_255_2_778
10
7.5260232
20
9.7443414
40
6.9388119
50
129.7051186
51
135.5813047
0
ARC
8
DEFAULT_255_2_778
10
7.7244711
20
9.5515659
40
7.2154752
50
135.5908661
51
141.4315883
0
ARC
8
DEFAULT_255_2_778
10
8.0731665
20
9.2743162
40
7.6609587
50
141.4362405
51
146.8691234
0
ARC
8
DEFAULT_255_2_778
10
8.5413518
20
8.9683709
40
8.220244
50
146.8669086
51
151.5920725
0
ARC
8
DEFAULT_255_2_778
10
8.8550439
20
8.7939757
40
8.5791311
50
151.5643081
51
151.7073887
0
ARC
8
DEFAULT_255_2_778
10
9.0840482
20
8.6747898
40
8.8372699
50
151.7306932
51
155.7264907
0
ARC
8
DEFAULT_255_2_778
10
9.5927943
20
8.4441969
40
9.3958348
50
155.719996
51
158.9753066
0
ARC
8
DEFAULT_255_2_778
10
10.02566
20
8.2769263
40
9.8598946
50
158.970452
51
161.6457903
0
ARC
8
DEFAULT_255_2_778
10
10.3552801
20
8.1669361
40
10.207381
50
161.6424198
51
163.861078
0
ARC
8
DEFAULT_255_2_778
10
10.5672505
20
8.1051736
40
10.4281656
50
163.8588385
51
165.7151137
0
ARC
8
DEFAULT_255_2_778
10
10.6607149
20
8.0811144
40
10.5246766
50
165.713733
51
167.5303615
0
ARC
8
DEFAULT_255_2_778
10
10.6083534
20
8.0923793
40
10.4711179
50
167.5286825
51
169.1343782
0
ARC
8
DEFAULT_255_2_778
10
10.3902598
20
8.1339952
40
10.2490894
50
169.1330241
51
170.5405317
0
ARC
8
DEFAULT_255_2_778
10
10.0186815
20
8.1958742
40
9.8723939
50
170.5403507
51
171.6954866
0
ARC
8
DEFAULT_255_2_778
10
9.5349541
20
8.2665316
40
9.3835332
50
171.6957899
51
172.6522789
0
ARC
8
DEFAULT_255_2_778
10
8.9699494
20
8.3394348
40
8.8138446
50
172.6525765
51
173.4509819
0
ARC
8
DEFAULT_255_2_778
10
8.205279
20
8.4264942
40
8.0442345
50
173.4458406
51
174.4415865
0
ARC
8
DEFAULT_255_2_778
10
7.1454962
20
8.5294736
40
6.9794604
50
174.4403064
51
175.3331027
0
ARC
8
DEFAULT_255_2_778
10
5.9396237
20
8.6278812
40
5.7695792
50
175.3327881
51
176.0915525
0
ARC
8
DEFAULT_255_2_778
10
4.7747647
20
8.7077997
40
4.6019819
50
176.0956987
51
176.6417944
0
ARC
8
DEFAULT_255_2_778
10
3.3757153
20
8.788663
40
3.2005985
50
176.6197883
51
177.3759398
0
ARC
8
DEFAULT_255_2_778
10
1.5606206
20
8.8712524
40
1.3836259
50
177.3512291
51
177.9886426
0
ARC
8
DEFAULT_255_2_778
10
0.2895334
20
8.9159944
40
0.1117517
50
178.0411142
51
178.1683056
0
ARC
8
DEFAULT_255_2_778
10
0.6949087
20
8.8529783
40
0.5213397
50
172.6618532
51
172.9160949
0
ARC
8
DEFAULT_255_2_778
10
1.5782561
20
8.7427926
40
1.4115326
50
172.8995421
51
173.2003081
0
ARC
8
DEFAULT_255_2_778
10
2.4790335
20
8.6350834
40
2.3187268
50
173.1928742
51
173.5060007
0
ARC
8
DEFAULT_255_2_778
10
3.2967189
20
8.5417283
40
3.141724
50
173.5009566
51
173.7789825
0
ARC
8
DEFAULT_255_2_778
10
3.966686
20
8.4686386
40
3.8156662
50
173.7780982
51
174.0252588
0
ARC
8
DEFAULT_255_2_778
10
4.612702
20
8.4011117
40
4.4652019
50
174.0263329
51
174.3591247
0
ARC
8
DEFAULT_255_2_778
10
5.3561225
20
8.3276726
40
5.2122408
50
174.3590085
51
174.7150811
0
ARC
8
DEFAULT_255_2_778
10
5.9636624
20
8.2713217
40
5.8223885
50
174.7135881
51
174.9984701
0
ARC
8
DEFAULT_255_2_778
10
6.5068076
20
8.2238208
40
6.367607
50
174.9987635
51
175.3251445
0
ARC
8
DEFAULT_255_2_778
10
6.9874565
20
8.1844613
40
6.8498648
50
175.3246831
51
175.6020681
0
ARC
8
DEFAULT_255_2_778
10
7.4141525
20
8.151713
40
7.2778157
50
175.6026074
51
175.8842608
0
ARC
8
DEFAULT_255_2_778
10
7.8401152
20
8.1212446
40
7.7048667
50
175.8856153
51
176.2905301
0
ARC
8
DEFAULT_255_2_778
10
8.3234486
20
8.0898329
40
8.1892198
50
176.2900013
51
176.7129594
0
ARC
8
DEFAULT_255_2_778
10
8.7477689
20
8.0653431
40
8.6142462
50
176.7121631
51
177.0909232
0
ARC
8
DEFAULT_255_2_778
10
9.0868513
20
8.0480638
40
8.9537687
50
177.0906151
51
177.428792
0
ARC
8
DEFAULT_255_2_778
10
9.398344
20
8.0342139
40
9.265569
50
177.4296445
51
177.8843286
0
ARC
8
DEFAULT_255_2_778
10
9.7333524
20
8.0218359
40
9.6008061
50
177.8843163
51
178.3865451
0
ARC
8
DEFAULT_255_2_778
10
9.9982956
20
8.014303
40
9.8658564
50
178.3861385
51
178.7764549
0
ARC
8
DEFAULT_255_2_778
10
10.2237089
20
8.0095571
40
10.0913198
50
178.7768436
51
179.3023702
0
ARC
8
DEFAULT_255_2_778
10
10.4371956
20
8.0069271
40
10.3048228
50
179.3022005
51
179.8236255
0
ARC
8
DEFAULT_255_2_778
10
10.6049737
20
8.0063519
40
10.4726018
50
179.8233043
51
179.9995851
0
ARC
8
DEFAULT_255_2_778
10
10.7043663
20
8.0067496
40
10.5719944
50
180.0017446
51
180.9148397
0
ARC
8
DEFAULT_255_2_778
10
10.870323
20
8.0092904
40
10.7379705
50
180.9142564
51
181.8111223
0
ARC
8
DEFAULT_255_2_778
10
10.9552148
20
8.0118769
40
10.8229015
50
181.810605
51
182.6892779
0
ARC
8
DEFAULT_255_2_778
10
10.9784204
20
8.0128859
40
10.846129
50
182.6888505
51
183.989833
0
ARC
8
DEFAULT_255_2_778
10
10.9092779
20
8.0079011
40
10.7768073
50
183.9889729
51
185.4538777
0
ARC
8
DEFAULT_255_2_778
10
10.744385
20
7.991986
40
10.6111483
50
185.4529548
51
187.0461134
0
ARC
8
DEFAULT_255_2_778
10
10.4902516
20
7.9602718
40
10.3550439
50
187.0444498
51
188.9144345
0
ARC
8
DEFAULT_255_2_778
10
10.1566422
20
7.9077042
40
10.0173186
50
188.9130803
51
190.9535468
0
ARC
8
DEFAULT_255_2_778
10
9.757446
20
7.8300186
40
9.6106337
50
190.9510561
51
193.342633
0
ARC
8
DEFAULT_255_2_778
10
9.2846042
20
7.7171568
40
9.1245096
50
193.3382635
51
196.27297
0
ARC
8
DEFAULT_255_2_778
10
8.7687298
20
7.5660749
40
8.5869671
50
196.2698069
51
199.6238026
0
ARC
8
DEFAULT_255_2_778
10
8.3651409
20
7.4238484
40
8.1590539
50
199.6348751
51
201.8016777
0
ARC
8
DEFAULT_255_2_778
10
7.8926363
20
7.2298675
40
7.6483029
50
201.7670644
51
207.4306614
0
ARC
8
DEFAULT_255_2_778
10
7.3632754
20
6.9557115
40
7.0521618
50
207.4349742
51
213.5810363
0
ARC
8
DEFAULT_255_2_778
10
7.0222957
20
6.7307131
40
6.6436401
50
213.5909899
51
220.0292477
0
ARC
8
DEFAULT_255_2_778
10
6.8706855
20
6.6054358
40
6.4469742
50
220.0433388
51
226.1128744
0
ARC
8
DEFAULT_255_2_778
10
6.868264
20
6.6045774
40
6.4446771
50
226.1230988
51
231.8781158
0
ARC
8
DEFAULT_255_2_778
10
6.9685665
20
6.7336509
40
6.6081394
50
231.8848255
51
237.1924916
0
ARC
8
DEFAULT_255_2_778
10
7.129883
20
6.9842364
40
6.9061597
50
237.1940354
51
241.8325902
0
ARC
8
DEFAULT_255_2_778
10
7.3165438
20
7.3324616
40
7.3012586
50
241.8312135
51
245.836012
0
ARC
8
DEFAULT_255_2_778
10
7.5239329
20
7.7962787
40
7.8093294
50
245.8407528
51
249.9073372
0
ARC
8
DEFAULT_255_2_778
10
7.7396127
20
8.3845469
40
8.4358891
50
249.9042144
51
253.4380242
0
ARC
8
DEFAULT_255_2_778
10
7.9490378
20
9.0898855
40
9.1716617
50
253.4400351
51
256.8882267
0
ARC
8
DEFAULT_255_2_778
10
8.1461623
20
9.9347798
40
10.0392472
50
256.8864011
51
260.0200445
0
ARC
8
DEFAULT_255_2_778
10
8.3103184
20
10.8625761
40
10.9814533
50
260.0154447
51
262.6937822
0
ARC
8
DEFAULT_255_2_778
10
8.4429208
20
11.8988591
40
12.0261859
50
262.6950238
51
265.3343323
0
ARC
8
DEFAULT_255_2_778
10
8.5399942
20
13.0825615
40
13.2138619
50
265.3323038
51
267.7332584
0
ARC
8
DEFAULT_255_2_778
10
8.5921928
20
14.3996706
40
14.5320048
50
267.733007
51
270.0177474
0
LINE
8
DEFAULT_255_2_778
10
8.5966941
20
-0.1323336
11
8.5968389
21
-0.1323336
0
ARC
8
DEFAULT_255_2_778
10
8.6006345
20
13.8174108
40
13.9497449
50
269.9844103
51
272.1529095
0
ARC
8
DEFAULT_255_2_778
10
8.6469965
20
12.6106941
40
12.7421384
50
272.1484258
51
274.7127362
0
ARC
8
DEFAULT_255_2_778
10
8.738093
20
11.503204
40
11.6309082
50
274.7137359
51
277.3292149
0
ARC
8
DEFAULT_255_2_778
10
8.8570113
20
10.5758635
40
10.695974
50
277.3311137
51
279.9281688
0
ARC
8
DEFAULT_255_2_778
10
9.0069645
20
9.7258037
40
9.8327903
50
279.9214916
51
283.1411891
0
ARC
8
DEFAULT_255_2_778
10
9.1880586
20
8.9495854
40
9.035727
50
283.1419664
51
286.5005715
0
ARC
8
DEFAULT_255_2_778
10
9.3808845
20
8.2990896
40
8.3572532
50
286.4996964
51
290.1597025
0
ARC
8
DEFAULT_255_2_778
10
9.5773666
20
7.7635738
40
7.7868301
50
290.1605435
51
294.0421207
0
ARC
8
DEFAULT_255_2_778
10
9.769332
20
7.3335871
40
7.3159381
50
294.0410898
51
298.4156521
0
ARC
8
DEFAULT_255_2_778
10
9.9427955
20
7.0123447
40
6.9508543
50
298.4181542
51
303.0820374
0
ARC
8
DEFAULT_255_2_778
10
10.0783487
20
6.8037535
40
6.7020876
50
303.084419
51
308.3965684
0
ARC
8
DEFAULT_255_2_778
10
10.1471288
20
6.7156407
40
6.5903116
50
308.4037134
51
314.1006506
0
ARC
8
DEFAULT_255_2_778
10
10.107315
20
6.7549513
40
6.6462486
50
314.1112883
51
320.2199402
0
ARC
8
DEFAULT_255_2_778
10
9.9194389
20
6.9097776
40
6.8896971
50
320.2301369
51
326.2183949
0
ARC
8
DEFAULT_255_2_778
10
9.559998
20
7.1488462
40
7.3213802
50
326.2274297
51
332.0738041
0
ARC
8
DEFAULT_255_2_778
10
9.1022589
20
7.3935813
40
7.8404341
50
332.0602017
51
336.1732848
0
ARC
8
DEFAULT_255_2_778
10
8.624369
20
7.6046965
40
8.3628788
50
336.1728185
51
339.9711149
0
ARC
8
DEFAULT_255_2_778
10
8.1146301
20
7.7911301
40
8.9056412
50
339.9674108
51
343.2546611
0
ARC
8
DEFAULT_255_2_778
10
7.6282509
20
7.9381201
40
9.413746
50
343.2508749
51
346.0672231
0
ARC
8
DEFAULT_255_2_778
10
7.2133821
20
8.0417845
40
9.8413697
50
346.0630259
51
348.3229044
0
ARC
8
DEFAULT_255_2_778
10
6.8993958
20
8.1071657
40
10.1620906
50
348.320206
51
350.1537625
0
ARC
8
DEFAULT_255_2_778
10
6.658671
20
8.1490476
40
10.4064316
50
350.1532125
51
352.0165824
0
ARC
8
DEFAULT_255_2_778
10
6.5078796
20
8.1704885
40
10.5587395
50
352.0150077
51
353.6224293
0
ARC
8
DEFAULT_255_2_778
10
6.471076
20
8.1748023
40
10.5957946
50
353.6213535
51
354.9802467
0
ARC
8
DEFAULT_255_2_778
10
6.5523024
20
8.1678443
40
10.5142709
50
354.9792878
51
356.2758792
0
ARC
8
DEFAULT_255_2_778
10
6.7395195
20
8.1556724
40
10.3266584
50
356.2758014
51
357.2765234
0
ARC
8
DEFAULT_255_2_778
10
7.0387076
20
8.141665
40
10.0271426
50
357.2752405
51
358.3427
0
ARC
8
DEFAULT_255_2_778
10
7.4552946
20
8.1295374
40
9.6103791
50
358.3431429
51
359.1886494
0
ARC
8
DEFAULT_255_2_778
10
7.9525737
20
8.1226036
40
9.1130516
50
359.187967
51
359.9956195
0
ARC
8
DEFAULT_255_2_778
10
8.4024308
20
8.1220828
40
8.6631944
50
359.9988364
51
0.352337
0
ARC
8
DEFAULT_255_2_778
10
8.7020131
20
8.1239627
40
8.3636062
50
0.3520794
51
0.655957
0
ARC
8
DEFAULT_255_2_778
10
8.9667596
20
8.1270322
40
8.0988419
50
0.6556859
51
0.916947
0
ARC
8
DEFAULT_255_2_778
10
9.2782015
20
8.1320981
40
7.7873589
50
0.9163488
51
1.2529466
0
ARC
8
DEFAULT_255_2_778
10
9.6747131
20
8.1408228
40
7.3907514
50
1.252541
51
1.6078145
0
ARC
8
DEFAULT_255_2_778
10
10.0791736
20
8.1520356
40
6.9861356
50
1.6089622
51
1.8719714
0
ARC
8
DEFAULT_255_2_778
10
10.4768159
20
8.1650522
40
6.5882803
50
1.871796
51
2.1629172
0
ARC
8
DEFAULT_255_2_778
10
10.8791232
20
8.1802302
40
6.1856869
50
2.1630686
51
2.4016127
0
ARC
8
DEFAULT_255_2_778
10
11.2707608
20
8.1966679
40
5.7937045
50
2.4014918
51
2.6365781
0
ARC
8
DEFAULT_255_2_778
10
11.7373827
20
8.218252
40
5.3265836
50
2.6355428
51
2.9365538
0
ARC
8
DEFAULT_255_2_778
10
12.2760727
20
8.2458116
40
4.7871889
50
2.9374355
51
3.1961789
0
ARC
8
DEFAULT_255_2_778
10
12.8169925
20
8.2760182
40
4.2454263
50
3.19617
51
3.4213031
0
ARC
8
DEFAULT_255_2_778
10
13.3629223
20
8.3089026
40
3.6985071
50
3.4174923
51
3.706773
0
ARC
8
DEFAULT_255_2_778
10
14.0006043
20
8.350251
40
3.0594859
50
3.7061059
51
3.9732372
0
ARC
8
DEFAULT_255_2_778
10
14.6588619
20
8.3959896
40
2.3996411
50
3.9728143
51
4.2081926
0
ARC
8
DEFAULT_255_2_778
10
15.3306282
20
8.4454558
40
1.7260559
50
4.2069299
51
4.4654321
0
ARC
8
DEFAULT_255_2_778
10
16.0281734
20
8.4999761
40
1.0263833
50
4.4628886
51
4.6735726
0
ARC
8
DEFAULT_255_2_778
10
16.7069319
20
8.5555419
40
0.3453541
50
4.6608558
51
4.8709339
0
ARC
8
DEFAULT_255_2_778
10
7.7101781
20
8.4766761
40
3.492823
50
114.5001079
51
121.475843
0
ARC
8
DEFAULT_255_2_778
10
7.6835262
20
8.5345175
40
3.4291372
50
106.3685544
51
114.4956691
0
ARC
8
DEFAULT_255_2_778
10
7.6792159
20
8.547732
40
3.4152436
50
97.0611781
51
106.3616506
0
ARC
8
DEFAULT_255_2_778
10
7.6809852
20
8.5338027
40
3.4292847
50
91.3126311
51
97.0619054
0
ARC
8
DEFAULT_255_2_778
10
7.6813122
20
8.5239158
40
3.4391766
50
90.0001633
51
91.3143046
0
ARC
8
DEFAULT_255_2_778
10
7.6820511
20
8.5279808
40
3.4351116
50
69.6931928
51
90.0124873
0
ARC
8
DEFAULT_255_2_778
10
7.8262238
20
8.8299293
40
3.1020444
50
30.2850414
51
70.2551013
0
ARC
8
DEFAULT_255_2_778
10
8.0291984
20
8.9851168
40
2.8486849
50
27.4857912
51
29.648488
0
ARC
8
DEFAULT_255_2_778
10
9.5487178
20
9.7906427
40
1.1289859
50
12.7743953
51
26.8107679
0
ARC
8
DEFAULT_255_2_778
10
9.0798784
20
9.6758805
40
1.6116171
50
2.561829
51
13.0678848
0
ARC
8
DEFAULT_255_2_778
10
8.9613136
20
9.6662512
40
1.7304993
50
0.0011277
51
2.7048657
0
ARC
8
DEFAULT_255_2_778
10
9.1045506
20
9.661578
40
1.5872694
50
349.6505369
51
0.1699186
0
ARC
8
DEFAULT_255_2_778
10
9.498463
20
9.5920695
40
1.1872807
50
342.7335795
51
349.5352327
0
ARC
8
DEFAULT_255_2_778
10
7.8353686
20
10.1071149
40
2.9283016
50
330.9805354
51
342.7687384
0
ARC
8
DEFAULT_255_2_778
10
8.1075223
20
9.9736285
40
2.6256047
50
295.0320651
51
330.6467531
0
ARC
8
DEFAULT_255_2_778
10
7.6073789
20
10.9468623
40
3.7192772
50
284.6507394
51
295.6693177
0
ARC
8
DEFAULT_255_2_778
10
7.3876504
20
11.7026215
40
4.5060894
50
283.1597653
51
284.9232622
0
ARC
8
DEFAULT_255_2_778
10
7.159482
20
8.8906817
40
2.0139147
50
308.5132885
51
334.1520786
0
ARC
8
DEFAULT_255_2_778
10
7.6596804
20
8.5970898
40
1.4364989
50
335.9927582
51
349.3725102
0
ARC
8
DEFAULT_255_2_778
10
7.6132937
20
8.635309
40
1.4894209
50
348.2565112
51
356.0039159
0
ARC
8
DEFAULT_255_2_778
10
7.6141671
20
8.6352232
40
1.4885437
50
356.0048678
51
0.000156
0
ARC
8
DEFAULT_255_2_778
10
7.6125289
20
8.6351829
40
1.4901819
50
0.0017044
51
36.1939822
0
ARC
8
DEFAULT_255_2_778
10
7.5957498
20
8.6282299
40
1.507835
50
36.0306945
51
65.8287182
0
ARC
8
DEFAULT_255_2_778
10
7.5931359
20
8.623453
40
1.5132633
50
65.8124853
51
89.9847752
0
ARC
8
DEFAULT_255_2_778
10
7.5935232
20
8.6309521
40
1.5057642
50
89.9994356
51
95.2860583
0
ARC
8
DEFAULT_255_2_778
10
7.593969
20
8.6282332
40
1.5085126
50
95.293404
51
108.201113
0
ARC
8
DEFAULT_255_2_778
10
7.5981589
20
8.6143654
40
1.5229954
50
108.1878945
51
110.0490463
0
ARC
8
DEFAULT_255_2_778
10
7.6225233
20
8.5779305
40
1.5656095
50
110.4295467
51
130.9791436
0
ARC
8
DEFAULT_255_2_778
10
7.5593219
20
8.6690748
40
1.4554037
50
131.4538137
51
170.1171358
0
ARC
8
DEFAULT_255_2_778
10
7.8533467
20
8.6014142
40
1.7567529
50
169.5890403
51
180.1215504
0
ARC
8
DEFAULT_255_2_778
10
8.0431912
20
8.5984289
40
1.9465934
50
180.0218278
51
184.1226574
0
ARC
8
DEFAULT_255_2_778
10
8.1212789
20
8.6033167
40
2.0248306
50
184.1017534
51
185.0276852
0
ARC
8
DEFAULT_255_2_778
10
7.3228594
20
8.5102138
40
1.2215361
50
183.9594388
51
230.5787943
0
ARC
8
DEFAULT_255_2_778
10
7.6266195
20
8.8703066
40
1.6926105
50
230.3760491
51
244.3336346
0
ARC
8
DEFAULT_255_2_778
10
7.9645996
20
9.5587689
40
2.4595408
50
244.1836498
51
253.276919
0
ARC
8
DEFAULT_255_2_778
10
8.2773185
20
10.5877448
40
3.5349833
50
253.2216665
51
260.1656192
0
ARC
8
DEFAULT_255_2_778
10
8.4158011
20
11.2995068
40
4.2599653
50
259.9655102
51
260.163478
0
ARC
8
DEFAULT_255_2_778
10
9.0427468
20
3.7450162
40
3.6008602
50
118.6943807
51
143.3379815
0
ARC
8
DEFAULT_255_2_778
10
5.6889486
20
6.2340741
40
0.575692
50
317.3526228
51
323.9231507
0
ARC
8
DEFAULT_255_2_778
10
5.9051487
20
6.0348002
40
0.2816638
50
307.611611
51
317.3731992
0
ARC
8
DEFAULT_255_2_778
10
5.9900605
20
5.9184922
40
0.1377565
50
270.5665513
51
309.1586821
0
ARC
8
DEFAULT_255_2_778
10
5.9974772
20
5.9851188
40
0.2044661
50
246.024658
51
268.3031339
0
ARC
8
DEFAULT_255_2_778
10
6.1321933
20
6.3118675
40
0.557848
50
238.6891932
51
247.0188629
0
ARC
8
DEFAULT_255_2_778
10
6.3508019
20
6.6918881
40
0.996187
50
238.5366395
51
239.3056847
0
ARC
8
DEFAULT_255_2_778
10
7.4759646
20
8.5416087
40
3.1612383
50
226.8815503
51
238.6405458
0
ARC
8
DEFAULT_255_2_778
10
7.4844876
20
8.5466378
40
3.170736
50
209.9737112
51
226.8312455
0
ARC
8
DEFAULT_255_2_778
10
7.6423805
20
8.6299593
40
3.3491459
50
179.9172065
51
209.8589864
0
ARC
8
DEFAULT_255_2_778
10
7.6740635
20
8.634809
40
3.3808253
50
178.7169862
51
180.0001711
0
ARC
8
DEFAULT_255_2_778
10
7.6084296
20
8.6406686
40
3.3150797
50
156.9218212
51
178.7928361
0
ARC
8
DEFAULT_255_2_778
10
7.5189986
20
8.6742823
40
3.2196322
50
143.1968201
51
156.8482858
0
ARC
8
DEFAULT_255_2_778
10
7.5569434
20
8.6440848
40
3.2681053
50
132.6122575
51
143.1714414
0
ARC
8
DEFAULT_255_2_778
10
7.6661553
20
8.5249458
40
3.429726
50
124.203302
51
132.6074739
0
ARC
8
DEFAULT_255_2_778
10
7.7598922
20
8.3913532
40
3.5929067
50
121.4768991
51
124.2420277
0
ARC
8
DEFAULT_255_2_778
10
5.6293177
20
-0.8840773
40
4.9588676
50
104.42933
51
106.9511073
0
ARC
8
DEFAULT_255_2_778
10
8.506763
20
-9.9874894
40
14.5060399
50
107.3393005
51
109.4752992
0
ARC
8
DEFAULT_255_2_778
10
-2.2473118
20
20.7744155
40
18.0816257
50
288.3162102
51
289.1037663
0
ARC
8
DEFAULT_255_2_778
10
5.346252
20
3.3005256
40
1.9359261
50
148.446671
51
170.8352952
0
ARC
8
DEFAULT_255_2_778
10
6.0558516
20
2.8595237
40
2.7713902
50
111.3093376
51
148.3541853
0
ARC
8
DEFAULT_255_2_778
10
5.8374796
20
3.3834086
40
2.204004
50
100.6165511
51
110.9698001
0
ARC
8
DEFAULT_255_2_778
10
5.7739295
20
3.7061335
40
1.8750975
50
93.1774945
51
100.5247299
0
ARC
8
DEFAULT_255_2_778
10
5.7630723
20
3.865445
40
1.7154303
50
90.0125217
51
93.1103595
0
ARC
8
DEFAULT_255_2_778
10
5.7638965
20
3.9775209
40
1.6033548
50
83.9911524
51
90.0428503
0
ARC
8
DEFAULT_255_2_778
10
8.1644663
20
3.9510263
40
2.759138
50
144.019005
51
176.6872487
0
ARC
8
DEFAULT_255_2_778
10
0.8344623
20
29.3618498
40
25.6625671
50
279.4203205
51
280.2703943
0
ARC
8
DEFAULT_255_2_778
10
6.318722
20
-4.1141674
40
8.2599268
50
98.9422749
51
103.4753291
0
ARC
8
DEFAULT_255_2_778
10
11.7468096
20
30.6179305
40
16.1541379
50
268.1007901
51
269.7871171
0
ARC
8
DEFAULT_255_2_778
10
12.7093093
20
152.4312781
40
137.9711633
50
269.5753704
51
269.6049559
0
ARC
8
DEFAULT_255_2_778
10
11.6530468
20
-10.2172306
40
24.6808482
50
88.8180755
51
89.7562828
0
ARC
8
DEFAULT_255_2_778
10
12.0525342
20
12.8127326
40
1.6492798
50
77.9325047
51
86.1895382
0
ARC
8
DEFAULT_255_2_778
10
10.3202593
20
15.7977893
40
2.4894287
50
317.5845659
51
326.5492515
0
ARC
8
DEFAULT_255_2_778
10
11.7859221
20
14.4657657
40
0.5089432
50
292.2454647
51
316.9998815
0
ARC
8
DEFAULT_255_2_778
10
11.9216071
20
14.1740445
40
0.1881784
50
270.2738077
51
287.6284084
0
ARC
8
DEFAULT_255_2_778
10
11.9243637
20
14.1753571
40
0.1894981
50
241.2675749
51
269.4384183
0
ARC
8
DEFAULT_255_2_778
10
11.9829607
20
14.2859541
40
0.3146516
50
227.0996665
51
241.5924132
0
ARC
8
DEFAULT_255_2_778
10
12.071998
20
14.3890558
40
0.4508148
50
225.0206931
51
227.730144
0
ARC
8
DEFAULT_255_2_778
10
11.6652206
20
13.9543952
40
0.1454916
50
52.7236999
51
91.5021479
0
ARC
8
DEFAULT_255_2_778
10
11.6216222
20
13.4702425
40
0.6308501
50
86.3842627
51
89.8819849
0
ARC
8
DEFAULT_255_2_778
10
11.6158278
20
12.9366166
40
1.164496
50
89.650964
51
90.00626
0
ARC
8
DEFAULT_255_2_778
10
11.6196975
20
11.5238766
40
2.577239
50
90.0888588
51
90.6547937
0
ARC
8
DEFAULT_255_2_778
10
11.5610214
20
16.6205314
40
2.5197537
50
270.1054421
51
270.6645127
0
ARC
8
DEFAULT_255_2_778
10
11.5651206
20
14.9618017
40
0.8610199
50
269.1960066
51
270.0357944
0
ARC
8
DEFAULT_255_2_778
10
12.2846697
20
65.751653
40
51.655968
50
268.9684384
51
269.1884625
0
ARC
8
DEFAULT_255_2_778
10
10.8594766
20
-10.2752456
40
24.3843317
50
88.8362993
51
89.8316569
0
ARC
8
DEFAULT_255_2_778
10
10.9300657
20
3.0119039
40
11.097077
50
89.9945508
51
90.3861688
0
ARC
8
DEFAULT_255_2_778
10
10.9034847
20
5.871321
40
8.2375488
50
90.3353366
51
92.0560925
0
ARC
8
DEFAULT_255_2_778
10
10.7965155
20
8.2268826
40
5.8797087
50
91.8379307
51
99.8187336
0
ARC
8
DEFAULT_255_2_778
10
9.8051919
20
13.9715661
40
0.0502009
50
103.0705223
51
133.5170756
0
ARC
8
DEFAULT_255_2_778
10
9.8391309
20
13.9286278
40
0.1048251
50
130.8080096
51
134.9038595
0
ARC
8
DEFAULT_255_2_778
10
9.9414105
20
13.8385838
40
0.2409674
50
137.0157837
51
154.3786082
0
ARC
8
DEFAULT_255_2_778
10
10.0819836
20
13.7616338
40
0.401085
50
153.1504635
51
161.3477969
0
ARC
8
DEFAULT_255_2_778
10
9.965947
20
13.7966782
40
0.2799623
50
160.5481113
51
175.1928406
0
ARC
8
DEFAULT_255_2_778
10
9.8361382
20
13.810887
40
0.1494554
50
176.4505755
51
179.9377371
0
ARC
8
DEFAULT_255_2_778
10
9.7729486
20
13.8090775
40
0.0862883
50
178.6905586
51
197.6443478
0
ARC
8
DEFAULT_255_2_778
10
9.739579
20
13.7999804
40
0.0517512
50
199.2448314
51
200.6067626
0
ARC
8
DEFAULT_255_2_778
10
11.3573543
20
14.4052673
40
1.7790523
50
200.5159424
51
203.2889994
0
ARC
8
DEFAULT_255_2_778
10
10.488469
20
13.9931121
40
0.8187585
50
200.8359592
51
228.3030856
0
ARC
8
DEFAULT_255_2_778
10
22.6218335
20
29.6670511
40
20.6383634
50
232.0994603
51
234.5003361
0
LINE
8
DEFAULT_255_2_778
10
10.6371735
20
12.8649689
11
10.6432267
21
12.8605875
0
ARC
8
DEFAULT_255_2_778
10
-2.3061228
20
-5.2540862
40
22.2671744
50
52.3865114
51
54.4407624
0
ARC
8
DEFAULT_255_2_778
10
9.0507192
20
9.2871347
40
3.8188915
50
33.494448
51
54.206848
0
ARC
8
DEFAULT_255_2_778
10
10.1975336
20
10.1466086
40
2.3896842
50
25.7598743
51
31.4830842
0
ARC
8
DEFAULT_255_2_778
10
9.9606969
20
10.0250036
40
2.6558425
50
13.2538082
51
25.9020642
0
ARC
8
DEFAULT_255_2_778
10
9.674004
20
9.9677528
40
2.9480417
50
359.7389265
51
13.059402
0
ARC
8
DEFAULT_255_2_778
10
8.5800073
20
9.9789129
40
4.0420825
50
349.3370826
51
359.6513949
0
ARC
8
DEFAULT_255_2_778
10
7.4667057
20
10.1569432
40
5.1691949
50
348.8334262
51
349.68112
0
ARC
8
DEFAULT_255_2_778
10
7.7706186
20
10.0807312
40
4.8563022
50
336.4859331
51
349.0211699
0
ARC
8
DEFAULT_255_2_778
10
8.2567706
20
9.8753387
40
4.3285766
50
310.1966843
51
336.4114764
0
ARC
8
DEFAULT_255_2_778
10
7.998529
20
10.1602652
40
4.7129045
50
306.2684533
51
310.3590828
0
ARC
8
DEFAULT_255_2_778
10
8.532565
20
9.6313737
40
3.9723083
50
291.5755124
51
304.5706287
0
ARC
8
DEFAULT_255_2_778
10
-0.1058453
20
29.5030605
40
25.6385132
50
292.9064447
51
293.1976925
0
ARC
8
DEFAULT_255_2_778
10
-73.0625192
20
201.8991063
40
212.8364609
50
292.9212222
51
292.93394
0
ARC
8
DEFAULT_255_2_778
10
14.9521666
20
-6.3881953
40
13.2834948
50
112.6818856
51
114.2260929
0
ARC
8
DEFAULT_255_2_778
10
1.3087513
20
23.7738805
40
19.820832
50
292.5298295
51
294.414647
0
LINE
8
DEFAULT_255_2_778
10
8.903388
20
5.4657709
11
8.8943822
21
5.4619773
0
ARC
8
DEFAULT_255_2_778
10
16.9611305
20
-13.939644
40
21.0117904
50
112.5764187
51
114.2190593
0
ARC
8
DEFAULT_255_2_778
10
9.0563664
20
3.6834864
40
1.6971627
50
114.9097215
51
173.7437123
0
ARC
8
DEFAULT_255_2_778
10
9.1841887
20
3.6486456
40
1.8281377
50
173.0948214
51
180.009771
0
ARC
8
DEFAULT_255_2_778
10
9.2200008
20
3.6487976
40
1.8639498
50
180.0142554
51
187.6975187
0
ARC
8
DEFAULT_255_2_778
10
9.245202
20
3.6516816
40
1.8893104
50
187.6818244
51
188.3331473
0
ARC
8
DEFAULT_255_2_778
10
9.0947718
20
3.6782776
40
1.7449863
50
189.9132395
51
241.732639
0
ARC
8
DEFAULT_255_2_778
10
9.1349659
20
3.6860167
40
1.7711223
50
240.7059344
51
260.1190604
0
ARC
8
DEFAULT_255_2_778
10
9.1082068
20
3.5553699
40
1.6378263
50
260.2569988
51
263.830624
0
ARC
8
DEFAULT_255_2_778
10
9.1097095
20
3.5707181
40
1.653247
50
263.8360095
51
270.0078634
0
ARC
8
DEFAULT_255_2_778
10
9.1008666
20
3.6712574
40
1.7538097
50
270.2963059
51
339.3506031
0
ARC
8
DEFAULT_255_2_778
10
9.1849422
20
3.6191236
40
1.656861
50
340.0123388
51
346.472594
0
ARC
8
DEFAULT_255_2_778
10
8.8038299
20
3.7118426
40
2.0490889
50
346.4446118
51
352.2376863
0
ARC
8
DEFAULT_255_2_778
10
8.9427375
20
3.6930825
40
1.9089203
50
352.2324894
51
358.9804176
0
ARC
8
DEFAULT_255_2_778
10
9.01278
20
3.6906486
40
1.8388461
50
359.0174062
51
359.9989052
0
ARC
8
DEFAULT_255_2_778
10
9.1552192
20
3.6987862
40
1.6964264
50
359.7239713
51
23.8098251
0
ARC
8
DEFAULT_255_2_778
10
9.1834941
20
3.6992132
40
1.6704221
50
24.1879524
51
55.0210126
0
ARC
8
DEFAULT_255_2_778
10
9.0180917
20
3.4715741
40
1.9517687
50
54.873515
51
70.7460882
0
ARC
8
DEFAULT_255_2_778
10
8.9298141
20
3.2422634
40
2.1973767
50
70.5447009
51
75.1213908
0
ARC
8
DEFAULT_255_2_778
10
13.8404294
20
-4.7665543
40
11.1403326
50
112.8439383
51
113.9769704
0
ARC
8
DEFAULT_255_2_778
10
-1.6901697
20
32.135637
40
28.8967914
50
292.816595
51
293.2251612
0
ARC
8
DEFAULT_255_2_778
10
8.2968181
20
8.931207
40
3.6345734
50
292.7979165
51
298.4399669
0
ARC
8
DEFAULT_255_2_778
10
0.5572976
20
22.9401244
40
19.6391547
50
298.8306547
51
302.5620483
0
ARC
8
DEFAULT_255_2_778
10
11.349893
20
6.0544507
40
0.4010359
50
111.9615318
51
123.7071327
0
ARC
8
DEFAULT_255_2_778
10
11.2581282
20
6.2810262
40
0.1565837
50
90.9435728
51
111.826054
0
ARC
8
DEFAULT_255_2_778
10
11.255562
20
6.3141485
40
0.1234401
50
77.680607
51
90.0057444
0
ARC
8
DEFAULT_255_2_778
10
11.2370429
20
6.255028
40
0.1852316
50
52.3737362
51
75.9856953
0
ARC
8
DEFAULT_255_2_778
10
11.0987747
20
6.0555543
40
0.4278066
50
48.8048923
51
54.0173494
0
ARC
8
DEFAULT_255_2_778
10
8.9170005
20
3.5037043
40
3.7851725
50
36.2577079
51
49.3950997
0
ARC
8
DEFAULT_255_2_778
10
9.2469831
20
3.7601023
40
3.3674677
50
12.0741436
51
36.0604628
0
ARC
8
DEFAULT_255_2_778
10
8.8003509
20
3.6495865
40
3.8273649
50
7.1876855
51
12.2933897
0
ARC
8
DEFAULT_255_2_778
10
8.771908
20
3.6425212
40
3.8564699
50
2.8539952
51
7.2389579
0
ARC
8
DEFAULT_255_2_778
10
8.8704487
20
3.6479235
40
3.7577824
50
0.0043952
51
2.8465365
0
ARC
8
DEFAULT_255_2_778
10
9.0656297
20
3.6407668
40
3.5626091
50
342.7032449
51
0.1197348
0
ARC
8
DEFAULT_255_2_778
10
9.1895093
20
3.6092529
40
3.4349685
50
310.6822336
51
342.5907659
0
ARC
8
DEFAULT_255_2_778
10
9.0050627
20
3.8162442
40
3.7121749
50
297.7052519
51
310.7585204
0
ARC
8
DEFAULT_255_2_778
10
9.0692376
20
3.6780723
40
3.5600156
50
292.078191
51
297.8247027
0
ARC
8
DEFAULT_255_2_778
10
9.1028066
20
3.5956927
40
3.471059
50
285.6538791
51
292.0758262
0
ARC
8
DEFAULT_255_2_778
10
9.1157037
20
3.5505252
40
3.424087
50
278.1086194
51
285.6500073
0
ARC
8
DEFAULT_255_2_778
10
9.1169363
20
3.5433452
40
3.4168049
50
277.4715506
51
278.1051395
0
ARC
8
DEFAULT_255_2_778
10
9.1164129
20
3.5478791
40
3.4213685
50
271.9097504
51
277.4703675
0
ARC
8
DEFAULT_255_2_778
10
9.1159211
20
3.5596935
40
3.4331925
50
269.9994961
51
271.9113835
0
ARC
8
DEFAULT_255_2_778
10
9.1318405
20
3.684675
40
3.5582099
50
217.5868226
51
269.7431714
0
ARC
8
DEFAULT_255_2_778
10
9.102278
20
3.6610608
40
3.52038
50
201.428284
51
217.5757466
0
ARC
8
DEFAULT_255_2_778
10
9.1820763
20
3.6914887
40
3.6057786
50
191.2138703
51
201.4151174
0
ARC
8
DEFAULT_255_2_778
10
9.0816254
20
3.6755717
40
3.5041522
50
187.0362268
51
191.2779933
0
ARC
8
DEFAULT_255_2_778
10
9.021524
20
3.6681048
40
3.4435889
50
182.1923094
51
187.0354217
0
ARC
8
DEFAULT_255_2_778
10
8.9951814
20
3.6668294
40
3.4172166
50
180.0005713
51
182.1878361
0
ARC
8
DEFAULT_255_2_778
10
9.0086838
20
3.6651346
40
3.4307193
50
162.1880172
51
179.972264
0
ARC
8
DEFAULT_255_2_778
10
9.1967965
20
3.5988059
40
3.630109
50
137.0983957
51
162.0995253
0
ARC
8
DEFAULT_255_2_778
10
9.1248412
20
3.6902376
40
3.5152045
50
112.7593759
51
137.3916719
0
ARC
8
DEFAULT_255_2_778
10
8.9563535
20
4.0576811
40
3.1112178
50
101.7263145
51
112.5159364
0
ARC
8
DEFAULT_255_2_778
10
7.6862062
20
10.632247
40
3.5854699
50
280.2471005
51
309.2537768
0
ARC
8
DEFAULT_255_2_778
10
7.9983415
20
10.1583423
40
3.0215557
50
310.3567706
51
317.3031318
0
ARC
8
DEFAULT_255_2_778
10
7.4800709
20
10.6381532
40
3.7278289
50
317.2848663
51
322.1689878
0
ARC
8
DEFAULT_255_2_778
10
7.8786728
20
10.3295552
40
3.2237301
50
322.1558617
51
326.8617326
0
ARC
8
DEFAULT_255_2_778
10
8.4050607
20
9.9871905
40
2.5957998
50
326.8379946
51
331.3358956
0
ARC
8
DEFAULT_255_2_778
10
9.1009066
20
9.608813
40
1.8037352
50
331.2795767
51
335.8213476
0
ARC
8
DEFAULT_255_2_778
10
9.7209159
20
9.3276353
40
1.1229549
50
335.9522405
51
338.4174727
0
ARC
8
DEFAULT_255_2_778
10
8.6855578
20
9.7279279
40
2.2329833
50
338.6386409
51
0.0035686
0
ARC
8
DEFAULT_255_2_778
10
8.785822
20
9.7280669
40
2.1327192
50
4e-7
51
0.0859547
0
ARC
8
DEFAULT_255_2_778
10
9.008419
20
9.6441298
40
1.9121064
50
2.6119329
51
24.3058334
0
ARC
8
DEFAULT_255_2_778
10
9.7928576
20
10.0021569
40
1.0498384
50
24.119645
51
30.2926669
0
ARC
8
DEFAULT_255_2_778
10
9.1558129
20
9.6319376
40
1.7866469
50
30.2392188
51
34.8581967
0
ARC
8
DEFAULT_255_2_778
10
8.1988864
20
8.965926
40
2.9525285
50
34.8500422
51
38.7061521
0
ARC
8
DEFAULT_255_2_778
10
7.3807067
20
8.3222481
40
3.9935257
50
38.5723374
51
39.5673894
0
ARC
8
DEFAULT_255_2_778
10
6.2666745
20
7.3855067
40
5.4490111
50
39.6987125
51
43.0722869
0
ARC
8
DEFAULT_255_2_778
10
4.946929
20
6.1662439
40
7.245743
50
42.9883188
51
44.782939
0
ARC
8
DEFAULT_255_2_778
10
4.6742496
20
5.8995697
40
7.6271374
50
44.7618949
51
46.2027123
0
ARC
8
DEFAULT_255_2_778
10
5.4578299
20
6.7190182
40
6.4933423
50
46.1889035
51
47.3729809
0
ARC
8
DEFAULT_255_2_778
10
6.8915934
20
8.2784171
40
4.3749938
50
47.358189
51
48.5359855
0
ARC
8
DEFAULT_255_2_778
10
8.4284705
20
10.022036
40
2.0507346
50
48.4565214
51
50.2954555
0
ARC
8
DEFAULT_255_2_778
10
8.0485831
20
12.7013324
40
0.1743533
50
51.0711135
51
92.542733
0
ARC
8
DEFAULT_255_2_778
10
8.0218578
20
12.3347077
40
0.5411398
50
87.9889085
51
90.0614858
0
ARC
8
DEFAULT_255_2_778
10
8.0300288
20
11.650683
40
1.2251954
50
90.4092753
51
93.6117627
0
ARC
8
DEFAULT_255_2_778
10
8.3042268
20
6.8621977
40
6.0215083
50
93.3453441
51
93.814486
0
ARC
8
DEFAULT_255_2_778
10
7.3530379
20
21.1161497
40
8.2641457
50
273.5424293
51
273.8201771
0
ARC
8
DEFAULT_255_2_778
10
7.3811717
20
20.6618331
40
7.8089587
50
273.1819275
51
273.5423646
0
ARC
8
DEFAULT_255_2_778
10
7.4163964
20
20.0119801
40
7.1581524
50
272.3702054
51
273.1891365
0
ARC
8
DEFAULT_255_2_778
10
7.4838463
20
18.2527426
40
5.3976333
50
270.3554829
51
272.4271339
0
ARC
8
DEFAULT_255_2_778
10
7.4984569
20
16.9419788
40
4.0868091
50
270.0012715
51
270.2646643
0
ARC
8
DEFAULT_255_2_778
10
7.4868955
20
15.55111
40
2.6959656
50
266.1380942
51
270.2476368
0
ARC
8
DEFAULT_255_2_778
10
7.3798225
20
13.9778517
40
1.1190684
50
260.388037
51
266.1825272
0
ARC
8
DEFAULT_255_2_778
10
7.2839796
20
13.3950376
40
0.5284406
50
255.4406662
51
260.0825174
0
ARC
8
DEFAULT_255_2_778
10
7.6472979
20
12.2087397
40
0.8375947
50
119.8897022
51
126.3247813
0
ARC
8
DEFAULT_255_2_778
10
8.658707
20
10.4666656
40
2.85198
50
117.0371748
51
120.0654208
0
ARC
8
DEFAULT_255_2_778
10
16.2672625
20
-4.3530456
40
19.5107231
50
116.6494448
51
117.1559794
0
ARC
8
DEFAULT_255_2_778
10
2.6139796
20
22.7991257
40
10.8809468
50
296.7773072
51
297.2180112
0
ARC
8
DEFAULT_255_2_778
10
5.9367532
20
16.365761
40
3.6401907
50
297.0232245
51
299.6668929
0
ARC
8
DEFAULT_255_2_778
10
7.0671906
20
14.3823972
40
1.3572935
50
299.6424981
51
304.2512612
0
ARC
8
DEFAULT_255_2_778
10
7.4212454
20
13.8553077
40
0.7223541
50
304.5688951
51
307.0864411
0
ARC
8
DEFAULT_255_2_778
10
7.1053769
20
12.1636554
40
1.3449301
50
56.0315126
51
71.5899284
0
ARC
8
DEFAULT_255_2_778
10
6.8160582
20
11.0779322
40
2.4674056
50
73.1779196
51
88.5632431
0
ARC
8
DEFAULT_255_2_778
10
5.7964787
20
-5.4270278
40
19.0023879
50
86.7374736
51
87.0927262
0
ARC
8
DEFAULT_255_2_778
10
6.8720009
20
17.4620774
40
3.9127703
50
260.4559216
51
268.363738
0
ARC
8
DEFAULT_255_2_778
10
6.5697001
20
13.4118536
40
0.3959177
50
140.4636619
51
151.0548967
0
ARC
8
DEFAULT_255_2_778
10
6.8417362
20
13.1907749
40
0.746454
50
133.712014
51
140.6685144
0
ARC
8
DEFAULT_255_2_778
10
7.1958268
20
12.8227558
40
1.2571561
50
128.4250124
51
133.7863404
0
ARC
8
DEFAULT_255_2_778
10
7.4204417
20
12.5481634
40
1.6118824
50
127.9754057
51
128.6138288
0
ARC
8
DEFAULT_255_2_778
10
7.6788383
20
12.2067027
40
2.0400549
50
122.5663963
51
127.7950677
0
ARC
8
DEFAULT_255_2_778
10
7.990337
20
11.7243874
40
2.6142088
50
115.3523324
51
122.6300026
0
ARC
8
DEFAULT_255_2_778
10
7.7892723
20
12.1599956
40
2.1344663
50
109.5662808
51
115.4817077
0
ARC
8
DEFAULT_255_2_778
10
7.5347916
20
12.8764932
40
1.374118
50
103.5968086
51
109.5732587
0
ARC
8
DEFAULT_255_2_778
10
7.4070969
20
13.4046261
40
0.8307672
50
96.8480555
51
103.5996871
0
ARC
8
DEFAULT_255_2_778
10
2.2048593
20
13.6900401
40
5.1316102
50
6.0339841
51
12.6022906
0
ARC
8
DEFAULT_255_2_778
10
6.8882457
20
14.6843737
40
0.3479353
50
21.1065559
51
57.0304214
0
ARC
8
DEFAULT_255_2_778
10
6.7253823
20
14.4960314
40
0.5955556
50
53.7440525
51
55.5757677
0
ARC
8
DEFAULT_255_2_778
10
6.7329099
20
14.5074192
40
0.5819066
50
55.55328
51
59.5697993
0
ARC
8
DEFAULT_255_2_778
10
4.1154106
20
9.8665399
40
5.9099646
50
60.4774686
51
63.3436318
0
ARC
8
DEFAULT_255_2_778
10
1.7792801
20
5.3164201
40
11.0246432
50
63.1021148
51
63.1295745
0
ARC
8
DEFAULT_255_2_778
10
1.5820126
20
4.9280456
40
11.460245
50
63.1274076
51
63.1543288
0
ARC
8
DEFAULT_255_2_778
10
74.1663344
20
150.0093797
40
150.7652791
50
243.3032367
51
243.441441
0
ARC
8
DEFAULT_255_2_778
10
7.104551
20
14.2758201
40
1.2386783
50
91.5132929
51
122.8721108
0
ARC
8
DEFAULT_255_2_778
10
7.1605703
20
13.0970464
40
2.4186482
50
91.8472767
51
92.1024443
0
ARC
8
DEFAULT_255_2_778
10
7.1612245
20
13.0800028
40
2.4357041
50
90.0006613
51
91.8497347
0
ARC
8
DEFAULT_255_2_778
10
7.1630363
20
13.1341066
40
2.381601
50
76.6724121
51
90.0442636
0
ARC
8
DEFAULT_255_2_778
10
8.0651715
20
16.9688329
40
1.557819
50
256.8980805
51
263.5438575
0
ARC
8
DEFAULT_255_2_778
10
8.0235121
20
16.6149718
40
1.2015188
50
263.6204444
51
269.8993058
0
ARC
8
DEFAULT_255_2_778
10
8.0273487
20
16.3701044
40
0.9566679
50
269.6437542
51
304.3137398
0
ARC
8
DEFAULT_255_2_778
10
7.8209481
20
16.7015537
40
1.3468852
50
303.6174933
51
310.6825571
0
ARC
8
DEFAULT_255_2_778
10
-1.5147508
20
-9.7693258
40
27.4225475
50
68.1328409
51
68.6865855
0
ARC
8
DEFAULT_255_2_778
10
12.2139738
20
25.5705288
40
10.4903944
50
246.2633463
51
248.9880193
0
ARC
8
DEFAULT_255_2_778
10
10.8417833
20
22.2479957
40
6.897057
50
239.3811133
51
245.5877793
0
ARC
8
DEFAULT_255_2_778
10
6.173366
20
8.6959394
40
7.7037884
50
77.1100713
51
81.3730385
0
ARC
8
DEFAULT_255_2_778
10
17.4643581
20
60.4514094
40
45.2694561
50
257.7923834
51
257.9236993
0
ARC
8
DEFAULT_255_2_778
10
8.9657175
20
20.1755613
40
4.1085126
50
256.3098234
51
268.3018233
0
ARC
8
DEFAULT_255_2_778
10
8.8473445
20
18.4495156
40
2.3806649
50
269.9186425
51
270.0000044
0
ARC
8
DEFAULT_255_2_778
10
8.8516606
20
18.1328131
40
2.063967
50
269.880189
51
277.5133426
0
LINE
8
DEFAULT_255_2_778
10
9.1215389
20
16.0865664
11
9.1373389
21
16.1701664
0
ARC
8
DEFAULT_255_2_778
10
8.7787507
20
5.1498693
40
11.3998344
50
92.7563471
51
95.3863319
0
ARC
8
DEFAULT_255_2_778
10
8.5448497
20
9.7372997
40
6.8064758
50
90.068551
51
92.6466925
0
ARC
8
DEFAULT_255_2_778
10
8.618645
20
12.8814762
40
3.6632109
50
70.3742795
51
91.2817018
0
ARC
8
DEFAULT_255_2_778
10
8.8250521
20
13.6139751
40
2.9043969
50
64.0376787
51
69.3560733
0
ARC
8
DEFAULT_255_2_778
10
13.1903096
20
22.6573188
40
7.1374165
50
244.3127818
51
246.2591241
0
ARC
8
DEFAULT_255_2_778
10
42.5285521
20
88.298243
40
79.0362818
50
245.948552
51
245.9540605
0
ARC
8
DEFAULT_255_2_778
10
8.7743062
20
12.4643318
40
3.9712059
50
60.5080002
51
67.0354454
0
ARC
8
DEFAULT_255_2_778
10
10.3507357
20
15.3645706
40
0.6729909
50
34.9863818
51
55.7664115
0
LINE
8
DEFAULT_255_2_778
10
10.9021093
20
15.7504513
11
10.9030426
21
15.7492845
0
ARC
8
DEFAULT_255_2_778
10
12.1686056
20
16.7377658
40
1.605847
50
217.9919901
51
221.9845429
0
ARC
8
DEFAULT_255_2_778
10
10.1307196
20
14.90932
40
1.1320751
50
37.1968189
51
41.7783925
0
LINE
8
DEFAULT_255_2_778
10
11.0324893
20
15.5937215
11
11.0330602
21
15.5929898
0
ARC
8
DEFAULT_255_2_778
10
11.4254033
20
15.8552367
40
0.4719179
50
213.7592462
51
237.1533865
0
ARC
8
DEFAULT_255_2_778
10
11.8827599
20
16.9527723
40
1.6555604
50
244.4776117
51
272.7868291
0
ARC
8
DEFAULT_255_2_778
10
11.9764144
20
19.8098027
40
4.5106522
50
269.8328252
51
270.000033
0
ARC
8
DEFAULT_255_2_778
10
11.9648699
20
21.9678556
40
6.668715
50
270.0992101
51
271.4467345
0
ARC
8
DEFAULT_255_2_778
10
11.891412
20
14.6252543
40
0.8269616
50
65.890453
51
72.4596959
0
ARC
8
DEFAULT_255_2_778
10
11.8454701
20
14.5175612
40
0.9440289
50
65.1374839
51
66.0152667
0
ARC
8
DEFAULT_255_2_778
10
11.6767325
20
14.2079255
40
1.2961145
50
35.3729238
51
64.1244591
0
ARC
8
DEFAULT_255_2_778
10
11.9829437
20
14.43662
40
0.9140856
50
29.0100007
51
34.7954077
0
ARC
8
DEFAULT_255_2_778
10
12.2059394
20
14.5566728
40
0.6608546
50
17.9295914
51
29.2834593
0
ARC
8
DEFAULT_255_2_778
10
12.4439676
20
14.6320436
40
0.4111864
50
1.3610066
51
18.1478124
0
ARC
8
DEFAULT_255_2_778
10
12.5311977
20
14.6381396
40
0.3238611
50
0.0005307
51
0.6493619
0
ARC
8
DEFAULT_255_2_778
10
12.5357761
20
14.63814
40
0.3192829
50
359.3586972
51
0.0004642
0
ARC
8
DEFAULT_255_2_778
10
12.9185807
20
441.5224916
40
426.8879299
50
269.9400947
51
269.9914716
0
ARC
8
DEFAULT_255_2_778
10
12.0259343
20
-412.2148708
40
426.8498993
50
89.9400913
51
89.9914658
0
ARC
8
DEFAULT_255_2_778
10
12.0887945
20
-182.0322795
40
196.6673033
50
89.9997904
51
90.0157191
0
ARC
8
DEFAULT_255_2_778
10
11.9952335
20
-81.8362911
40
96.4713157
50
89.9764777
51
90.463612
0
ARC
8
DEFAULT_255_2_778
10
11.2282515
20
14.4164502
40
0.2158459
50
93.6158274
51
117.8735388
0
ARC
8
DEFAULT_255_2_778
10
11.6611244
20
13.4785639
40
1.2485464
50
115.3106274
51
116.9378421
0
ARC
8
DEFAULT_255_2_778
10
10.7734437
20
15.2096196
40
0.6968643
50
292.4925914
51
297.5262876
0
ARC
8
DEFAULT_255_2_778
10
10.635691
20
13.9319082
40
0.7518467
50
52.7190984
51
57.4655714
0
ARC
8
DEFAULT_255_2_778
10
11.2492999
20
14.7049552
40
0.235773
50
227.8576435
51
259.4518655
0
ARC
8
DEFAULT_255_2_778
10
10.5491202
20
15.2121655
40
0.0823858
50
121.6917631
51
175.9623565
0
ARC
8
DEFAULT_255_2_778
10
10.5506597
20
15.2116015
40
0.0839624
50
175.6523937
51
179.9993938
0
ARC
8
DEFAULT_255_2_778
10
10.5511871
20
15.2116778
40
0.0844899
50
180.0511352
51
228.5329964
0
ARC
8
DEFAULT_255_2_778
10
10.6056614
20
15.2115235
40
0.1272083
50
209.7677507
51
254.6272944
0
ARC
8
DEFAULT_255_2_778
10
10.6042322
20
15.208932
40
0.1243326
50
254.945775
51
269.1694475
0
ARC
8
DEFAULT_255_2_778
10
10.604276
20
15.2080647
40
0.123466
50
269.1433043
51
270.0061407
0
ARC
8
DEFAULT_255_2_778
10
10.604289
20
15.2103949
40
0.1257961
50
270.0000832
51
300.5547726
0
ARC
8
DEFAULT_255_2_778
10
10.6148062
20
15.2036175
40
0.135193
50
48.7535065
51
74.9821881
0
ARC
8
DEFAULT_255_2_778
10
10.6261034
20
15.2370816
40
0.0999694
50
76.2662159
51
89.9999584
0
ARC
8
DEFAULT_255_2_778
10
10.6498924
20
15.1316916
40
0.2067328
50
96.6076984
51
133.2513802
0
LINE
8
DEFAULT_255_2_778
10
17.0510389
20
8.5848664
11
17.0510389
21
8.5848664
0
LINE
8
DEFAULT_255_2_778
10
7.6880389
20
7.1021664
11
7.3138389
21
6.9036664
0
LINE
8
DEFAULT_255_2_778
10
5.8838389
20
11.4555664
11
5.8864389
21
11.4555664
0
LINE
8
DEFAULT_255_2_778
10
4.3939389
20
3.9183664
11
4.3936389
21
3.9183664
0
LINE
8
DEFAULT_255_2_778
10
9.4940389
20
5.3659664
11
9.3133389
21
5.4124664
0
LINE
8
DEFAULT_255_2_778
10
9.7385389
20
11.5997664
11
8.1581389
21
12.8369664
0
LINE
8
DEFAULT_255_2_778
10
9.1373389
20
16.1701664
11
7.7086389
21
16.4993664
0
LINE
8
DEFAULT_255_2_778
10
12.1332389
20
15.3012664
11
12.1406389
21
15.4137664
0
LINE
8
DEFAULT_255_2_778
10
11.2061389
20
14.4731664
11
11.2114389
21
14.4726664
0
LINE
8
DEFAULT_255_2_778
10
10.6682389
20
15.1020664
11
10.8362389
21
15.1904664
0
LINE
8
DEFAULT_255_2_778
10
10.8362389
20
15.1904664
11
10.7039389
21
15.3052664
0
LINE
8
DEFAULT_255_2_778
10
10.5082389
20
15.2822664
11
10.5058389
21
15.2822664
0
ENDSEC
0
EOF