0
SECTION
2
HEADER
9
$MEASUREMENT
70
1
0
ENDSEC
0
SECTION
2
TABLES
0
TABLE
2
LTYPE
0
LTYPE
72
65
70
64
2
CONTINUOUS
3
______
73
0
40
0
0
ENDTAB
0
TABLE
2
LAYER
0
LAYER
2
DEFAULT_255_2_778
70
0
62
255
6
CONTINUOUS
0
ENDTAB
0
ENDSEC
0
SECTION
2
ENTITIES
0
ARC
8
DEFAULT_255_2_778
10
14.7029982
20
3.7710323
40
3.7044728
50
90.8648084
51
99.2325837
0
ARC
8
DEFAULT_255_2_778
10
14.6272853
20
4.2390845
40
3.2303366
50
99.2390299
51
109.2833305
0
ARC
8
DEFAULT_255_2_778
10
14.5551387
20
4.4518375
40
3.0056947
50
109.324515
51
121.7564392
0
ARC
8
DEFAULT_255_2_778
10
14.6183593
20
4.3613743
40
3.1158947
50
121.8694247
51
135.7541717
0
ARC
8
DEFAULT_255_2_778
10
14.9635849
20
4.0297502
40
3.5945864
50
135.8070468
51
148.1880061
0
ARC
8
DEFAULT_255_2_778
10
15.3126598
20
3.8004093
40
4.0121323
50
148.0326232
51
151.550783
0
ARC
8
DEFAULT_255_2_778
10
15.41595
20
3.7433972
40
4.1301086
50
151.5379934
51
152.5154194
0
ARC
8
DEFAULT_255_2_778
10
16.1066816
20
3.369226
40
4.9155821
50
152.3620157
51
157.769456
0
ARC
8
DEFAULT_255_2_778
10
16.1035425
20
3.3700273
40
4.9123733
50
157.7642549
51
162.2834067
0
ARC
8
DEFAULT_255_2_778
10
15.998606
20
3.4031252
40
4.8023415
50
162.2785758
51
165.8537177
0
ARC
8
DEFAULT_255_2_778
10
15.7641837
20
3.4618852
40
4.5606672
50
165.8497694
51
168.7899121
0
ARC
8
DEFAULT_255_2_778
10
15.4079272
20
3.5323677
40
4.1975056
50
168.7882594
51
171.205252
0
ARC
8
DEFAULT_255_2_778
10
15.1379136
20
3.5752293
40
3.9241135
50
171.2209311
51
172.9844005
0
ARC
8
DEFAULT_255_2_778
10
16.2230169
20
3.4415358
40
5.0174218
50
172.9825907
51
173.3073462
0
ARC
8
DEFAULT_255_2_778
10
11.3641474
20
3.8738582
40
0.1535136
50
271.2834646
51
355.0391397
0
ARC
8
DEFAULT_255_2_778
10
13.3782635
20
3.6990206
40
1.8681768
50
173.3777464
51
175.0387848
0
ARC
8
DEFAULT_255_2_778
10
14.6213363
20
3.5573037
40
3.1193001
50
171.6514681
51
173.4252001
0
ARC
8
DEFAULT_255_2_778
10
15.5175515
20
3.4264629
40
4.0250158
50
169.5097514
51
171.6610205
0
ARC
8
DEFAULT_255_2_778
10
16.1134964
20
3.316991
40
4.6309316
50
167.093172
51
169.5203966
0
ARC
8
DEFAULT_255_2_778
10
16.4502175
20
3.2401764
40
4.9763029
50
163.754444
51
167.0970666
0
ARC
8
DEFAULT_255_2_778
10
16.5322121
20
3.2173316
40
5.0614146
50
159.532347
51
163.7658298
0
ARC
8
DEFAULT_255_2_778
10
16.3924495
20
3.2708147
40
4.9117736
50
154.2157839
51
159.5467496
0
ARC
8
DEFAULT_255_2_778
10
16.2435246
20
3.3407415
40
4.7472593
50
152.8382705
51
154.1938774
0
ARC
8
DEFAULT_255_2_778
10
15.1543432
20
3.9018569
40
3.5220405
50
139.8952835
51
152.871149
0
ARC
8
DEFAULT_255_2_778
10
14.5946712
20
4.3668803
40
2.7944075
50
123.8554487
51
139.7958101
0
ARC
8
DEFAULT_255_2_778
10
14.5126006
20
4.4729321
40
2.6606312
50
110.658496
51
123.6600478
0
ARC
8
DEFAULT_255_2_778
10
14.6032878
20
4.2258321
40
2.9238378
50
100.3250923
51
110.6130303
0
ARC
8
DEFAULT_255_2_778
10
14.6800518
20
3.831119
40
3.3259214
50
95.2696992
51
100.4073556
0
ARC
8
DEFAULT_255_2_778
10
16.9558344
20
5.8492165
40
2.8873302
50
153.3791754
51
157.9840142
0
ARC
8
DEFAULT_255_2_778
10
17.0336086
20
5.8181929
40
2.9710629
50
157.9916019
51
162.9953164
0
ARC
8
DEFAULT_255_2_778
10
17.1263505
20
5.7891049
40
3.068257
50
162.9823585
51
165.147702
0
ARC
8
DEFAULT_255_2_778
10
17.2828362
20
5.7498139
40
3.2295866
50
165.1855496
51
171.329195
0
ARC
8
DEFAULT_255_2_778
10
17.5828563
20
5.7040344
40
3.5330794
50
171.3287719
51
176.7264185
0
ARC
8
DEFAULT_255_2_778
10
17.8808875
20
5.6854036
40
3.8316885
50
176.7027675
51
180.0180466
0
ARC
8
DEFAULT_255_2_778
10
18.2238831
20
5.6873753
40
4.1746853
50
180.0436243
51
184.9121928
0
ARC
8
DEFAULT_255_2_778
10
18.6106681
20
5.7190976
40
4.5627663
50
184.8931783
51
188.35236
0
ARC
8
DEFAULT_255_2_778
10
18.9071852
20
5.7620524
40
4.862378
50
188.3456079
51
191.2192157
0
ARC
8
DEFAULT_255_2_778
10
19.1188273
20
5.8036157
40
5.0780624
50
191.2146038
51
193.6845061
0
ARC
8
DEFAULT_255_2_778
10
19.2243564
20
5.8289505
40
5.1865895
50
193.68064
51
195.8212825
0
ARC
8
DEFAULT_255_2_778
10
19.2311232
20
5.8307797
40
5.1935986
50
195.8203452
51
196.4861675
0
ARC
8
DEFAULT_255_2_778
10
19.1773893
20
5.8147288
40
5.1375187
50
196.4845812
51
197.904928
0
ARC
8
DEFAULT_255_2_778
10
19.0164223
20
5.7624772
40
4.9682836
50
197.9022361
51
199.3390789
0
ARC
8
DEFAULT_255_2_778
10
18.7113151
20
5.6551313
40
4.6448436
50
199.3359918
51
200.6791513
0
ARC
8
DEFAULT_255_2_778
10
18.2583848
20
5.4839913
40
4.160659
50
200.6768286
51
201.8558533
0
ARC
8
DEFAULT_255_2_778
10
17.683612
20
5.2533858
40
3.5413509
50
201.8549135
51
202.8373184
0
ARC
8
DEFAULT_255_2_778
10
17.083012
20
5.0007109
40
2.8897645
50
202.8419703
51
203.5383296
0
ARC
8
DEFAULT_255_2_778
10
16.3626138
20
4.6861777
40
2.1036958
50
203.5203033
51
204.3832275
0
ARC
8
DEFAULT_255_2_778
10
15.4147655
20
4.2560689
40
1.0628261
50
204.3596459
51
205.1217956
0
ARC
8
DEFAULT_255_2_778
10
14.6898829
20
3.9165271
40
0.2623617
50
205.1918556
51
205.4018783
0
ARC
8
DEFAULT_255_2_778
10
14.5916744
20
3.8691806
40
0.1533393
50
205.1623155
51
268.6590249
0
ARC
8
DEFAULT_255_2_778
10
17.0882893
20
5.0410891
40
2.5996679
50
202.3981613
51
203.0846608
0
ARC
8
DEFAULT_255_2_778
10
17.5691135
20
5.2395136
40
3.1198257
50
201.749707
51
202.4025942
0
ARC
8
DEFAULT_255_2_778
10
18.01754
20
5.4181519
40
3.6025243
50
200.8273343
51
201.7458212
0
ARC
8
DEFAULT_255_2_778
10
18.4423133
20
5.5797939
40
4.0570137
50
199.7565696
51
200.8280451
0
ARC
8
DEFAULT_255_2_778
10
18.7335633
20
5.6847979
40
4.3666139
50
198.9037699
51
199.761471
0
ARC
8
DEFAULT_255_2_778
10
18.9572048
20
5.7611995
40
4.6029456
50
197.5247685
51
198.9015972
0
ARC
8
DEFAULT_255_2_778
10
19.1119462
20
5.8102418
40
4.7652724
50
196.0310486
51
197.5268202
0
ARC
8
DEFAULT_255_2_778
10
19.1623176
20
5.8248952
40
4.8177317
50
193.9580465
51
196.0331071
0
ARC
8
DEFAULT_255_2_778
10
19.0895031
20
5.8071485
40
4.7427865
50
191.5181248
51
193.9621668
0
ARC
8
DEFAULT_255_2_778
10
18.8914557
20
5.7673724
40
4.5407851
50
188.4394117
51
191.5253241
0
ARC
8
DEFAULT_255_2_778
10
18.5782716
20
5.7217176
40
4.2242918
50
184.5491739
51
188.450311
0
ARC
8
DEFAULT_255_2_778
10
18.1982879
20
5.6920018
40
3.8431483
50
180.0394493
51
184.5568688
0
ARC
8
DEFAULT_255_2_778
10
17.831784
20
5.6916192
40
3.4766444
50
175.3521132
51
180.0373027
0
ARC
8
DEFAULT_255_2_778
10
17.4924366
20
5.7200205
40
3.1361117
50
169.3010463
51
175.3669099
0
ARC
8
DEFAULT_255_2_778
10
17.2701409
20
5.7598294
40
2.9102907
50
166.1107816
51
169.2586787
0
ARC
8
DEFAULT_255_2_778
10
17.1017305
20
5.8030232
40
2.7364362
50
159.2418192
51
166.1422873
0
ARC
8
DEFAULT_255_2_778
10
16.9683753
20
5.8525879
40
2.5941708
50
152.8461876
51
159.221561
0
ARC
8
DEFAULT_255_2_778
10
16.9263891
20
5.8734479
40
2.5472921
50
147.6232322
51
152.8326756
0
ARC
8
DEFAULT_255_2_778
10
14.6452926
20
7.3187244
40
0.1531223
50
327.9564102
51
0.010077
0
ARC
8
DEFAULT_255_2_778
10
14.6455106
20
7.3187777
40
0.1529044
50
359.9901243
51
0.4247757
0
ARC
8
DEFAULT_255_2_778
10
14.6451263
20
7.3187591
40
0.1532886
50
0.4306642
51
28.6196195
0
ARC
8
DEFAULT_255_2_778
10
14.6449119
20
7.3186874
40
0.1535111
50
28.6047742
51
89.1885479
0
ARC
8
DEFAULT_255_2_778
10
-9.1542053
20
-1.2668171
40
10.4486109
50
8.5720693
51
12.5011621
0
ARC
8
DEFAULT_255_2_778
10
-7.9901397
20
-1.2948909
40
11.1859911
50
11.1978219
51
14.5054259
0
ARC
8
DEFAULT_255_2_778
10
-5.0995381
20
-0.7250356
40
8.2397552
50
7.0801894
51
11.2140904
0
ARC
8
DEFAULT_255_2_778
10
16.343675
20
-2.0724915
40
13.4751084
50
168.375842
51
169.9000477
0
ARC
8
DEFAULT_255_2_778
10
20.5951826
20
-2.9446047
40
17.8151423
50
167.0839802
51
168.3836048
0
ARC
8
DEFAULT_255_2_778
10
-8.5111621
20
5.0249123
40
10.8716055
50
346.1924704
51
348.3710036
0
ARC
8
DEFAULT_255_2_778
10
7.094076
20
0.4179711
40
2.8312387
50
84.4718617
51
90.2487159
0
ARC
8
DEFAULT_255_2_778
10
7.2214922
20
1.6862016
40
1.5566391
50
75.6831362
51
84.6429819
0
ARC
8
DEFAULT_255_2_778
10
7.3770272
20
2.3126427
40
0.9112016
50
67.7477276
51
75.4187633
0
ARC
8
DEFAULT_255_2_778
10
7.3987406
20
2.4757117
40
0.7532074
50
37.1916662
51
64.5774133
0
ARC
8
DEFAULT_255_2_778
10
7.3266494
20
2.415088
40
0.8472957
50
29.2258573
51
37.5105753
0
ARC
8
DEFAULT_255_2_778
10
7.0400997
20
2.300216
40
1.1541365
50
0.5345307
51
27.2565988
0
ARC
8
DEFAULT_255_2_778
10
7.2117461
20
2.3019996
40
0.9824809
50
335.3098966
51
0.5239017
0
ARC
8
DEFAULT_255_2_778
10
7.1947515
20
2.3170095
40
1.0042129
50
321.4935023
51
334.936814
0
ARC
8
DEFAULT_255_2_778
10
7.3404477
20
2.2643252
40
0.8588256
50
292.7815989
51
318.1904262
0
ARC
8
DEFAULT_255_2_778
10
7.1257492
20
2.7495299
40
1.3893501
50
279.8100031
51
293.1968265
0
ARC
8
DEFAULT_255_2_778
10
7.0374913
20
3.1650691
40
1.813923
50
279.1610421
51
280.3206775
0
ARC
8
DEFAULT_255_2_778
10
6.7049193
20
0.1979102
40
1.3303946
50
55.9065595
51
62.1567415
0
ARC
8
DEFAULT_255_2_778
10
6.8693851
20
0.4484769
40
1.0307125
50
54.6330039
51
55.6699987
0
ARC
8
DEFAULT_255_2_778
10
7.0168693
20
0.647532
40
0.7830416
50
45.3241833
51
55.0026878
0
ARC
8
DEFAULT_255_2_778
10
7.1986561
20
0.8363581
40
0.5209664
50
44.8363182
51
44.9398329
0
ARC
8
DEFAULT_255_2_778
10
6.1858678
20
-0.1627314
40
1.9436089
50
27.9614594
51
44.6705745
0
ARC
8
DEFAULT_255_2_778
10
2.4715351
20
-2.2428933
40
5.7549058
50
28.7878379
51
31.2175271
0
ARC
8
DEFAULT_255_2_778
10
4.2119261
20
-1.1834529
40
3.7174198
50
31.1556496
51
34.7057282
0
ARC
8
DEFAULT_255_2_778
10
5.2104847
20
-0.4980342
40
2.5062718
50
34.8215698
51
36.8400228
0
ARC
8
DEFAULT_255_2_778
10
6.2624158
20
0.3792052
40
1.1406537
50
33.2539192
51
43.3636052
0
ARC
8
DEFAULT_255_2_778
10
6.7235121
20
0.8142342
40
0.5067296
50
43.4008896
51
55.5878938
0
ARC
8
DEFAULT_255_2_778
10
6.6844982
20
0.7830809
40
0.5546709
50
54.081632
51
65.253729
0
ARC
8
DEFAULT_255_2_778
10
6.431195
20
0.2437088
40
1.1505535
50
65.0415384
51
70.0011398
0
ARC
8
DEFAULT_255_2_778
10
6.6129451
20
-0.2371528
40
1.5763218
50
82.2803583
51
89.982968
0
ARC
8
DEFAULT_255_2_778
10
6.613395
20
-0.2109208
40
1.5500897
50
89.9993117
51
90.602843
0
ARC
8
DEFAULT_255_2_778
10
7.0178931
20
3.4550192
40
1.7274961
50
269.5221522
51
276.9940037
0
ARC
8
DEFAULT_255_2_778
10
7.1440256
20
2.4835848
40
0.7479637
50
276.4649211
51
292.7448681
0
ARC
8
DEFAULT_255_2_778
10
7.2275165
20
2.2590871
40
0.5087384
50
293.8485165
51
295.2571579
0
ARC
8
DEFAULT_255_2_778
10
7.2848379
20
2.2339735
40
0.4633962
50
290.1655038
51
330.0581983
0
ARC
8
DEFAULT_255_2_778
10
7.1091147
20
2.3133842
40
0.655574
50
331.7098058
51
359.8338466
0
ARC
8
DEFAULT_255_2_778
10
7.2371537
20
2.3342332
40
0.5280225
50
357.5306269
51
45.6919336
0
ARC
8
DEFAULT_255_2_778
10
7.2443704
20
2.3192247
40
0.5339509
50
47.3712737
51
76.8162244
0
ARC
8
DEFAULT_255_2_778
10
7.1207389
20
1.8490771
40
1.0199889
50
76.0778674
51
89.9489541
0
ARC
8
DEFAULT_255_2_778
10
7.1033493
20
1.4455581
40
1.4236251
50
89.2635385
51
90.0025519
0
ARC
8
DEFAULT_255_2_778
10
13.5092651
20
1.2339896
40
1.3885559
50
189.9240146
51
200.6524758
0
ARC
8
DEFAULT_255_2_778
10
12.8471823
20
0.9769652
40
0.6784045
50
200.0619995
51
222.948609
0
ARC
8
DEFAULT_255_2_778
10
12.7232513
20
0.8755113
40
0.5186663
50
224.07309
51
226.919015
0
ARC
8
DEFAULT_255_2_778
10
12.7829268
20
0.9462309
40
0.6110976
50
227.3613213
51
266.0924279
0
ARC
8
DEFAULT_255_2_778
10
12.8163334
20
1.1702227
40
0.8370401
50
264.8558064
51
270.0583585
0
ARC
8
DEFAULT_255_2_778
10
12.8287723
20
1.2581561
40
0.9250456
50
269.2823427
51
283.3936375
0
ARC
8
DEFAULT_255_2_778
10
12.9037601
20
0.9355963
40
0.5938913
50
283.5643422
51
309.2335081
0
ARC
8
DEFAULT_255_2_778
10
12.9748693
20
0.8027743
40
0.4469725
50
312.9443041
51
0.0161482
0
ARC
8
DEFAULT_255_2_778
10
12.9735235
20
0.8028973
40
0.4483184
50
0.000378
51
0.9056161
0
ARC
8
DEFAULT_255_2_778
10
13.0870774
20
0.8287543
40
0.3352344
50
356.7900902
51
34.0346618
0
ARC
8
DEFAULT_255_2_778
10
12.991228
20
0.6796747
40
0.5029839
50
42.022459
51
63.0434062
0
ARC
8
DEFAULT_255_2_778
10
12.8267826
20
0.3851597
40
0.8401472
50
62.1520124
51
68.3028167
0
ARC
8
DEFAULT_255_2_778
10
12.6902606
20
0.0148759
40
1.2347099
50
68.7689446
51
72.311193
0
ARC
8
DEFAULT_255_2_778
10
11.5899302
20
-3.3788308
40
4.8023276
50
72.1066942
51
73.6516197
0
ARC
8
DEFAULT_255_2_778
10
9.2374221
20
-11.3262197
40
13.0905804
50
73.5624031
51
74.1843755
0
ARC
8
DEFAULT_255_2_778
10
4.7928594
20
-26.9872549
40
29.3700807
50
74.1687527
51
74.504628
0
ARC
8
DEFAULT_255_2_778
10
13.4158833
20
4.1663086
40
2.9548764
50
248.9625875
51
254.764618
0
ARC
8
DEFAULT_255_2_778
10
12.954851
20
2.9788769
40
1.6810961
50
240.3489806
51
249.1003311
0
ARC
8
DEFAULT_255_2_778
10
12.556722
20
2.2905739
40
0.8859795
50
225.4414941
51
240.7034639
0
ARC
8
DEFAULT_255_2_778
10
12.5681099
20
2.3346122
40
0.9256288
50
178.7946729
51
226.8519889
0
ARC
8
DEFAULT_255_2_778
10
12.5771727
20
2.3621711
40
0.9345217
50
180.0014977
51
180.4958813
0
ARC
8
DEFAULT_255_2_778
10
12.5715805
20
2.3622247
40
0.9289296
50
148.6955461
51
180.0048151
0
ARC
8
DEFAULT_255_2_778
10
12.4979718
20
2.4357571
40
0.8281955
50
113.9264462
51
150.3963704
0
ARC
8
DEFAULT_255_2_778
10
12.6926023
20
2.0319902
40
1.2762789
50
96.3316162
51
114.5617908
0
ARC
8
DEFAULT_255_2_778
10
12.7619779
20
1.5270535
40
1.7858358
50
89.8489499
51
96.7572576
0
ARC
8
DEFAULT_255_2_778
10
12.7791474
20
1.4370943
40
1.8758302
50
79.6330362
51
90.3806284
0
ARC
8
DEFAULT_255_2_778
10
12.9081743
20
2.1134073
40
1.1873505
50
62.3273171
51
79.8847719
0
ARC
8
DEFAULT_255_2_778
10
13.0452604
20
2.3888022
40
0.879815
50
46.6881738
51
61.9044511
0
ARC
8
DEFAULT_255_2_778
10
12.9351726
20
2.3150927
40
1.0093976
50
9.5793459
51
45.0111233
0
ARC
8
DEFAULT_255_2_778
10
12.4698754
20
2.2089018
40
1.4861289
50
2.4134559
51
10.6310924
0
ARC
8
DEFAULT_255_2_778
10
12.3367406
20
2.0968385
40
1.0023494
50
8.2624138
51
20.8360037
0
ARC
8
DEFAULT_255_2_778
10
12.8874695
20
2.3114061
40
0.4113427
50
20.1890944
51
48.8797002
0
ARC
8
DEFAULT_255_2_778
10
12.8769246
20
2.2950155
40
0.4306344
50
49.256942
51
79.1400889
0
ARC
8
DEFAULT_255_2_778
10
12.7696818
20
1.831856
40
0.9058846
50
77.9978026
51
90.6448849
0
ARC
8
DEFAULT_255_2_778
10
12.7466053
20
1.9074757
40
0.8303074
50
89.1111287
51
106.4515876
0
ARC
8
DEFAULT_255_2_778
10
12.659578
20
2.2124645
40
0.5131666
50
106.7765059
51
128.534018
0
ARC
8
DEFAULT_255_2_778
10
12.4854483
20
2.4162354
40
0.245465
50
126.370675
51
183.2818326
0
ARC
8
DEFAULT_255_2_778
10
12.5088451
20
2.3958032
40
0.268535
50
178.6386122
51
179.9972763
0
ARC
8
DEFAULT_255_2_778
10
12.507316
20
2.3958509
40
0.2670058
50
180.0075128
51
229.1821656
0
ARC
8
DEFAULT_255_2_778
10
12.6311205
20
2.5319671
40
0.4509677
50
228.5823448
51
244.3400798
0
ARC
8
DEFAULT_255_2_778
10
13.0584587
20
3.372696
40
1.3939939
50
243.4713776
51
250.5269679
0
ARC
8
DEFAULT_255_2_778
10
13.6891333
20
5.1154381
40
3.2473208
50
250.2864244
51
254.1910688
0
ARC
8
DEFAULT_255_2_778
10
14.2601991
20
7.0651503
40
5.2788936
50
253.9923908
51
255.086111
0
ARC
8
DEFAULT_255_2_778
10
11.7601522
20
-2.4696047
40
4.5782593
50
72.0790027
51
75.5629546
0
ARC
8
DEFAULT_255_2_778
10
12.2837165
20
-0.8617909
40
2.8873524
50
67.3507849
51
72.1470462
0
ARC
8
DEFAULT_255_2_778
10
12.7326363
20
0.2140524
40
1.7216047
50
61.8898632
51
67.3509349
0
ARC
8
DEFAULT_255_2_778
10
12.9636507
20
0.6567725
40
1.2222693
50
59.8591368
51
61.6634104
0
ARC
8
DEFAULT_255_2_778
10
13.0961331
20
0.9010986
40
0.9444894
50
29.4369857
51
59.3669731
0
ARC
8
DEFAULT_255_2_778
10
13.0779512
20
0.8947955
40
0.963428
50
6.9993225
51
29.2320231
0
ARC
8
DEFAULT_255_2_778
10
12.6092837
20
0.8230694
40
1.4374121
50
359.785299
51
7.5605995
0
ARC
8
DEFAULT_255_2_778
10
12.8465579
20
0.8432408
40
1.2004001
50
331.0822546
51
358.7800253
0
ARC
8
DEFAULT_255_2_778
10
13.114646
20
0.7119488
40
0.9023719
50
293.7161958
51
330.148012
0
ARC
8
DEFAULT_255_2_778
10
12.9623934
20
0.9513386
40
1.1835674
50
277.0453626
51
295.80361
0
ARC
8
DEFAULT_255_2_778
10
12.8173954
20
1.973719
40
2.21609
50
269.5990082
51
277.5237541
0
ARC
8
DEFAULT_255_2_778
10
12.7890007
20
1.5974454
40
1.8398074
50
259.392511
51
270.4012774
0
ARC
8
DEFAULT_255_2_778
10
12.6609778
20
0.9415433
40
1.1715586
50
240.9598846
51
259.6417737
0
ARC
8
DEFAULT_255_2_778
10
12.5479971
20
0.7218017
40
0.9246332
50
225.9993903
51
240.4709298
0
ARC
8
DEFAULT_255_2_778
10
12.6982432
20
0.8606639
40
1.1289518
50
201.4026193
51
225.4099551
0
ARC
8
DEFAULT_255_2_778
10
13.2080873
20
1.0702488
40
1.6801427
50
189.308523
51
201.7122542
0
ARC
8
DEFAULT_255_2_778
10
13.7477144
20
1.1733242
40
2.2293829
50
186.2509087
51
189.679461
0
ARC
8
DEFAULT_255_2_778
10
22.1325514
20
-0.8639498
40
4.1131515
50
86.2019982
51
90.1722508
0
ARC
8
DEFAULT_255_2_778
10
22.2606453
20
1.0010538
40
2.2437632
50
80.3329759
51
86.3111968
0
ARC
8
DEFAULT_255_2_778
10
22.4635544
20
2.1592299
40
1.0679743
50
70.2965481
51
80.630441
0
ARC
8
DEFAULT_255_2_778
10
22.5951387
20
2.5523531
40
0.6535619
50
67.4582523
51
69.537136
0
ARC
8
DEFAULT_255_2_778
10
22.5532547
20
2.4843641
40
0.7325217
50
31.9026498
51
66.4710924
0
ARC
8
DEFAULT_255_2_778
10
22.5108748
20
2.4544381
40
0.7843209
50
28.3255332
51
32.1224513
0
ARC
8
DEFAULT_255_2_778
10
22.2131775
20
2.2922396
40
1.1233349
50
359.9982211
51
28.4033774
0
ARC
8
DEFAULT_255_2_778
10
22.2070269
20
2.2922056
40
1.1294856
50
359.6082577
51
359.9999579
0
ARC
8
DEFAULT_255_2_778
10
22.2039191
20
2.272513
40
1.1326301
50
341.6459393
51
0.6055371
0
ARC
8
DEFAULT_255_2_778
10
22.4087705
20
2.2113275
40
0.9189556
50
321.7242272
51
341.2448852
0
ARC
8
DEFAULT_255_2_778
10
22.5091352
20
2.1618689
40
0.809865
50
291.6348816
51
320.0724944
0
ARC
8
DEFAULT_255_2_778
10
22.3293825
20
2.5762685
40
1.2614252
50
278.6172602
51
292.2846171
0
ARC
8
DEFAULT_255_2_778
10
21.4804367
20
-0.2199262
40
1.8646095
50
44.8878512
51
56.1750301
0
ARC
8
DEFAULT_255_2_778
10
22.1128917
20
0.4390516
40
0.9516889
50
38.962383
51
43.6510479
0
ARC
8
DEFAULT_255_2_778
10
21.7831573
20
0.1272387
40
1.4045869
50
34.0939961
51
40.3948458
0
ARC
8
DEFAULT_255_2_778
10
19.9040569
20
-1.1598872
40
3.6822285
50
31.0575073
51
34.2894237
0
ARC
8
DEFAULT_255_2_778
10
15.0127118
20
-4.1240967
40
9.4016425
50
29.5893095
51
31.1541256
0
ARC
8
DEFAULT_255_2_778
10
8.6821626
20
-7.7568059
40
16.7003967
50
29.5623802
51
29.7027346
0
ARC
8
DEFAULT_255_2_778
10
-22.1299394
20
-27.0538196
40
52.3921697
50
31.8082938
51
32.0401578
0
ARC
8
DEFAULT_255_2_778
10
11.6721711
20
-5.8864026
40
12.5093194
50
31.991402
51
32.8586914
0
ARC
8
DEFAULT_255_2_778
10
19.3822183
20
-0.8976003
40
3.3260319
50
32.7309081
51
35.0680203
0
ARC
8
DEFAULT_255_2_778
10
21.3781787
20
0.5044799
40
0.8868343
50
35.0172906
51
39.0915327
0
ARC
8
DEFAULT_255_2_778
10
21.1640006
20
0.1714889
40
1.269051
50
44.6714561
51
48.5332156
0
ARC
8
DEFAULT_255_2_778
10
21.6966741
20
0.7871752
40
0.4550442
50
47.4571946
51
67.0120577
0
ARC
8
DEFAULT_255_2_778
10
21.6847268
20
0.58868
40
0.6458771
50
72.923643
51
83.5747142
0
ARC
8
DEFAULT_255_2_778
10
21.576945
20
-0.2586161
40
1.4999629
50
83.1054091
51
89.5288571
0
ARC
8
DEFAULT_255_2_778
10
21.5615484
20
-0.8146697
40
2.0561529
50
89.2272457
51
90.0045263
0
ARC
8
DEFAULT_255_2_778
10
21.9112076
20
8.9041619
40
7.1125867
50
269.9144366
51
271.5728938
0
ARC
8
DEFAULT_255_2_778
10
22.0215461
20
5.1021102
40
3.3089443
50
271.4701193
51
274.4937721
0
ARC
8
DEFAULT_255_2_778
10
22.1921676
20
3.0033898
40
1.2033207
50
274.2242371
51
280.2355866
0
ARC
8
DEFAULT_255_2_778
10
22.3366134
20
2.2035139
40
0.3905071
50
280.2337922
51
288.8194434
0
ARC
8
DEFAULT_255_2_778
10
22.3663996
20
2.1173547
40
0.2993459
50
288.7428686
51
333.0705617
0
ARC
8
DEFAULT_255_2_778
10
22.2894281
20
2.2142299
40
0.4150538
50
325.9414281
51
0.9069275
0
ARC
8
DEFAULT_255_2_778
10
21.9873478
20
2.2399552
40
0.7173381
50
358.4697984
51
0.0102183
0
ARC
8
DEFAULT_255_2_778
10
22.2643306
20
2.2564367
40
0.4406588
50
357.8731725
51
28.8725655
0
ARC
8
DEFAULT_255_2_778
10
22.3965426
20
2.3172088
40
0.2957276
50
30.931047
51
43.209276
0
ARC
8
DEFAULT_255_2_778
10
22.3466331
20
2.3249686
40
0.3292096
50
36.2607352
51
83.3799552
0
ARC
8
DEFAULT_255_2_778
10
22.2976597
20
2.0238701
40
0.6340995
50
82.120734
51
87.2177558
0
ARC
8
DEFAULT_255_2_778
10
22.1527026
20
-0.482281
40
3.1444178
50
86.7961624
51
88.7770487
0
ARC
8
DEFAULT_255_2_778
10
22.0167647
20
-5.9621614
40
8.6259723
50
88.6511757
51
89.5008436
0
ARC
8
DEFAULT_255_2_778
10
21.9371313
20
-14.4164889
40
17.0806737
50
89.4807913
51
90.0256459
0
LINE
8
DEFAULT_255_2_778
10
11.2397859
20
4.0262831
11
0.2002859
21
4.0262831
0
LINE
8
DEFAULT_255_2_778
10
0.2002859
20
4.0262831
11
0.2002859
21
3.7203831
0
LINE
8
DEFAULT_255_2_778
10
0.2002859
20
3.7203831
11
11.3675859
21
3.7203831
0
LINE
8
DEFAULT_255_2_778
10
14.5880859
20
3.7158831
11
28.1526859
21
3.7158831
0
LINE
8
DEFAULT_255_2_778
10
28.1526859
20
3.7158831
11
28.1526859
21
4.0217831
0
LINE
8
DEFAULT_255_2_778
10
28.1526859
20
4.0217831
11
14.6967859
21
4.0217831
0
LINE
8
DEFAULT_255_2_778
10
14.6470859
20
7.4721831
11
14.6470859
21
7.4750831
0
LINE
8
DEFAULT_255_2_778
10
0.9799859
20
-0.1859169
11
0.1576859
21
3.2491831
0
LINE
8
DEFAULT_255_2_778
10
0.1576859
20
3.2491831
11
0.5764859
21
3.2491831
0
LINE
8
DEFAULT_255_2_778
10
0.5764859
20
3.2491831
11
1.0466859
21
0.9948831
0
LINE
8
DEFAULT_255_2_778
10
1.1776859
20
0.2905831
11
1.3162859
21
0.9237831
0
LINE
8
DEFAULT_255_2_778
10
1.3162859
20
0.9237831
11
1.9044859
21
3.2488831
0
LINE
8
DEFAULT_255_2_778
10
1.9044859
20
3.2488831
11
2.3973859
21
3.2488831
0
LINE
8
DEFAULT_255_2_778
10
2.3973859
20
3.2488831
11
2.8392859
21
1.5068831
0
LINE
8
DEFAULT_255_2_778
10
3.2307859
20
1.0374831
11
3.7149859
21
3.2488831
0
LINE
8
DEFAULT_255_2_778
10
3.7149859
20
3.2488831
11
4.1285859
21
3.2488831
0
LINE
8
DEFAULT_255_2_778
10
4.1285859
20
3.2488831
11
3.2818859
21
-0.1859169
0
LINE
8
DEFAULT_255_2_778
10
3.2818859
20
-0.1859169
11
2.8849859
21
-0.1859169
0
LINE
8
DEFAULT_255_2_778
10
2.8849859
20
-0.1859169
11
2.2340859
21
2.4302831
0
LINE
8
DEFAULT_255_2_778
10
2.2340859
20
2.4302831
11
2.1372859
21
2.8334831
0
LINE
8
DEFAULT_255_2_778
10
2.0462859
20
2.4302831
11
1.3945859
21
-0.1859169
0
LINE
8
DEFAULT_255_2_778
10
1.3945859
20
-0.1859169
11
0.9799859
21
-0.1859169
0
LINE
8
DEFAULT_255_2_778
10
4.5783859
20
-0.1859169
11
4.5783859
21
3.2491831
0
LINE
8
DEFAULT_255_2_778
10
4.5783859
20
3.2491831
11
4.9884859
21
3.2491831
0
LINE
8
DEFAULT_255_2_778
10
4.9884859
20
3.2491831
11
4.9884859
21
-0.1859169
0
LINE
8
DEFAULT_255_2_778
10
4.9884859
20
-0.1859169
11
4.5783859
21
-0.1859169
0
LINE
8
DEFAULT_255_2_778
10
5.7160859
20
-0.1859169
11
5.7160859
21
3.2491831
0
LINE
8
DEFAULT_255_2_778
10
5.7160859
20
3.2491831
11
7.0817859
21
3.2491831
0
LINE
8
DEFAULT_255_2_778
10
7.9025859
20
0.7485831
11
8.4430859
21
-0.1833169
0
LINE
8
DEFAULT_255_2_778
10
8.4430859
20
-0.1833169
11
7.9252859
21
-0.1833169
0
LINE
8
DEFAULT_255_2_778
10
7.9252859
20
-0.1833169
11
7.5151859
21
0.5284831
0
LINE
8
DEFAULT_255_2_778
10
6.5970859
20
1.3390831
11
6.1208859
21
1.3390831
0
LINE
8
DEFAULT_255_2_778
10
6.1208859
20
1.3390831
11
6.1208859
21
-0.1859169
0
LINE
8
DEFAULT_255_2_778
10
6.1208859
20
-0.1859169
11
5.7160859
21
-0.1859169
0
LINE
8
DEFAULT_255_2_778
10
6.1213859
20
1.7275831
11
7.0034859
21
1.7275831
0
LINE
8
DEFAULT_255_2_778
10
7.1032859
20
2.8691831
11
6.1242859
21
2.8691831
0
LINE
8
DEFAULT_255_2_778
10
6.1242859
20
2.8691831
11
6.1213859
21
1.7275831
0
LINE
8
DEFAULT_255_2_778
10
8.8380859
20
-0.1859169
11
8.8380859
21
3.2491831
0
LINE
8
DEFAULT_255_2_778
10
8.8380859
20
3.2491831
11
11.0717859
21
3.2491831
0
LINE
8
DEFAULT_255_2_778
10
11.0717859
20
3.2491831
11
11.0717859
21
2.8429831
0
LINE
8
DEFAULT_255_2_778
10
11.0717859
20
2.8429831
11
9.2482859
21
2.8429831
0
LINE
8
DEFAULT_255_2_778
10
9.2482859
20
2.8429831
11
9.2482859
21
1.7917831
0
LINE
8
DEFAULT_255_2_778
10
9.2482859
20
1.7917831
11
10.9481859
21
1.7917831
0
LINE
8
DEFAULT_255_2_778
10
10.9481859
20
1.7917831
11
10.9481859
21
1.3864831
0
LINE
8
DEFAULT_255_2_778
10
10.9481859
20
1.3864831
11
9.2482859
21
1.3864831
0
LINE
8
DEFAULT_255_2_778
10
9.2482859
20
1.3864831
11
9.2482859
21
0.2222831
0
LINE
8
DEFAULT_255_2_778
10
9.2482859
20
0.2222831
11
11.1399859
21
0.2222831
0
LINE
8
DEFAULT_255_2_778
10
11.1399859
20
0.2222831
11
11.1399859
21
-0.1859169
0
LINE
8
DEFAULT_255_2_778
10
11.1399859
20
-0.1859169
11
8.8380859
21
-0.1859169
0
LINE
8
DEFAULT_255_2_778
10
11.5368859
20
0.9305831
11
12.1414859
21
0.9946831
0
LINE
8
DEFAULT_255_2_778
10
13.9546859
20
2.2714831
11
13.3286859
21
2.2408831
0
LINE
8
DEFAULT_255_2_778
10
11.5315859
20
0.9305831
11
11.5368859
21
0.9305831
0
LINE
8
DEFAULT_255_2_778
10
14.5811859
20
-0.1859169
11
14.5811859
21
3.2491831
0
LINE
8
DEFAULT_255_2_778
10
14.5811859
20
3.2491831
11
15.2071859
21
3.2491831
0
LINE
8
DEFAULT_255_2_778
10
15.2071859
20
3.2491831
11
15.2071859
21
1.8984831
0
LINE
8
DEFAULT_255_2_778
10
15.2071859
20
1.8984831
11
16.4234859
21
1.8984831
0
LINE
8
DEFAULT_255_2_778
10
16.4234859
20
1.8984831
11
16.4234859
21
3.2491831
0
LINE
8
DEFAULT_255_2_778
10
16.4234859
20
3.2491831
11
17.0494859
21
3.2491831
0
LINE
8
DEFAULT_255_2_778
10
17.0494859
20
3.2491831
11
17.0494859
21
-0.1859169
0
LINE
8
DEFAULT_255_2_778
10
17.0494859
20
-0.1859169
11
16.4184859
21
-0.1859169
0
LINE
8
DEFAULT_255_2_778
10
16.4184859
20
-0.1859169
11
16.4184859
21
1.3150831
0
LINE
8
DEFAULT_255_2_778
10
16.4184859
20
1.3150831
11
15.2021859
21
1.3150831
0
LINE
8
DEFAULT_255_2_778
10
15.2021859
20
1.3150831
11
15.2021859
21
-0.1859169
0
LINE
8
DEFAULT_255_2_778
10
15.2021859
20
-0.1859169
11
14.5811859
21
-0.1859169
0
LINE
8
DEFAULT_255_2_778
10
20.4850859
20
-0.1859169
11
19.8024859
21
-0.1859169
0
LINE
8
DEFAULT_255_2_778
10
19.8024859
20
-0.1859169
11
19.5320859
21
0.5892831
0
LINE
8
DEFAULT_255_2_778
10
19.5320859
20
0.5892831
11
18.3017859
21
0.5892831
0
LINE
8
DEFAULT_255_2_778
10
18.3017859
20
0.5892831
11
18.0456859
21
-0.1859169
0
LINE
8
DEFAULT_255_2_778
10
18.0456859
20
-0.1859169
11
17.3841859
21
-0.1859169
0
LINE
8
DEFAULT_255_2_778
10
17.3841859
20
-0.1859169
11
18.5861859
21
3.2488831
0
LINE
8
DEFAULT_255_2_778
10
18.5861859
20
3.2488831
11
19.2404859
21
3.2488831
0
LINE
8
DEFAULT_255_2_778
10
19.2404859
20
3.2488831
11
20.4850859
21
-0.1859169
0
LINE
8
DEFAULT_255_2_778
10
19.3328859
20
1.1726831
11
18.9060859
21
2.4466831
0
LINE
8
DEFAULT_255_2_778
10
18.9060859
20
2.4466831
11
18.4863859
21
1.1726831
0
LINE
8
DEFAULT_255_2_778
10
18.4863859
20
1.1726831
11
19.3328859
21
1.1726831
0
LINE
8
DEFAULT_255_2_778
10
20.8123859
20
-0.1859169
11
20.8123859
21
3.2491831
0
LINE
8
DEFAULT_255_2_778
10
20.8123859
20
3.2491831
11
22.1201859
21
3.2491831
0
LINE
8
DEFAULT_255_2_778
10
23.2084859
20
0.4826831
11
23.5886859
21
-0.1859169
0
LINE
8
DEFAULT_255_2_778
10
23.5886859
20
-0.1859169
11
22.8488859
21
-0.1859169
0
LINE
8
DEFAULT_255_2_778
10
22.8488859
20
-0.1859169
11
22.3937859
21
0.5609831
0
LINE
8
DEFAULT_255_2_778
10
21.5613859
20
1.2414831
11
21.4333859
21
1.2414831
0
LINE
8
DEFAULT_255_2_778
10
21.4333859
20
1.2414831
11
21.4333859
21
-0.1859169
0
LINE
8
DEFAULT_255_2_778
10
21.4333859
20
-0.1859169
11
20.8123859
21
-0.1859169
0
LINE
8
DEFAULT_255_2_778
10
21.4383859
20
1.7915831
11
21.9005859
21
1.7915831
0
LINE
8
DEFAULT_255_2_778
10
21.9294859
20
2.6641831
11
21.4386859
21
2.6641831
0
LINE
8
DEFAULT_255_2_778
10
21.4386859
20
2.6641831
11
21.4383859
21
1.7915831
0
LINE
8
DEFAULT_255_2_778
10
23.9420859
20
-0.1859169
11
23.9420859
21
3.2491831
0
LINE
8
DEFAULT_255_2_778
10
23.9420859
20
3.2491831
11
24.5612859
21
3.2491831
0
LINE
8
DEFAULT_255_2_778
10
24.5612859
20
3.2491831
11
24.5612859
21
1.7206831
0
LINE
8
DEFAULT_255_2_778
10
24.5612859
20
1.7206831
11
25.8272859
21
3.2491831
0
LINE
8
DEFAULT_255_2_778
10
25.8272859
20
3.2491831
11
26.6665859
21
3.2491831
0
LINE
8
DEFAULT_255_2_778
10
26.6665859
20
3.2491831
11
25.5023859
21
1.9055831
0
LINE
8
DEFAULT_255_2_778
10
25.5023859
20
1.9055831
11
26.7326859
21
-0.1856169
0
LINE
8
DEFAULT_255_2_778
10
26.7326859
20
-0.1856169
11
25.9217859
21
-0.1856169
0
LINE
8
DEFAULT_255_2_778
10
25.9217859
20
-0.1856169
11
25.0681859
21
1.4219831
0
LINE
8
DEFAULT_255_2_778
10
25.0681859
20
1.4219831
11
24.5654859
21
0.8530831
0
LINE
8
DEFAULT_255_2_778
10
24.5654859
20
0.8530831
11
24.5654859
21
-0.1859169
0
LINE
8
DEFAULT_255_2_778
10
24.5654859
20
-0.1859169
11
23.9420859
21
-0.1859169
0
ENDSEC
0
EOF