0
SECTION
2
HEADER
9
$MEASUREMENT
70
1
0
ENDSEC
0
SECTION
2
TABLES
0
TABLE
2
LTYPE
0
LTYPE
72
65
70
64
2
CONTINUOUS
3
______
73
0
40
0
0
ENDTAB
0
TABLE
2
LAYER
0
LAYER
2
DEFAULT_255_2_778
70
0
62
255
6
CONTINUOUS
0
ENDTAB
0
ENDSEC
0
SECTION
2
ENTITIES
0
ARC
8
DEFAULT_255_2_778
10
12.4581725
20
-0.2367889
40
8.6631675
50
90.8104657
51
95.9726141
0
ARC
8
DEFAULT_255_2_778
10
12.3734756
20
0.5700069
40
7.8519382
50
95.9705159
51
101.8982063
0
ARC
8
DEFAULT_255_2_778
10
12.2491704
20
1.1611242
40
7.2478923
50
101.9000891
51
108.7532694
0
ARC
8
DEFAULT_255_2_778
10
12.1351795
20
1.5011241
40
6.8892951
50
108.7646496
51
116.584843
0
ARC
8
DEFAULT_255_2_778
10
12.1149179
20
1.5483925
40
6.8379574
50
116.6102677
51
125.3953791
0
ARC
8
DEFAULT_255_2_778
10
12.3138405
20
1.276665
40
7.1746835
50
125.4334547
51
134.7860123
0
ARC
8
DEFAULT_255_2_778
10
12.8338542
20
0.7563917
40
7.9102733
50
134.8045821
51
143.470564
0
ARC
8
DEFAULT_255_2_778
10
13.5655071
20
0.21033
40
8.8232297
50
143.4492472
51
150.335724
0
ARC
8
DEFAULT_255_2_778
10
13.9876689
20
-0.0401549
40
9.3140363
50
150.2820744
51
151.2188391
0
ARC
8
DEFAULT_255_2_778
10
14.0841601
20
-0.0931834
40
9.4241389
50
151.2187148
51
152.1486805
0
ARC
8
DEFAULT_255_2_778
10
14.153051
20
-0.129726
40
9.5021217
50
152.147925
51
152.4534496
0
ARC
8
DEFAULT_255_2_778
10
15.6570296
20
-0.9354373
40
11.2082349
50
152.3571995
51
156.0374257
0
ARC
8
DEFAULT_255_2_778
10
15.6851314
20
-0.9481913
40
11.2390944
50
156.036195
51
159.0244905
0
ARC
8
DEFAULT_255_2_778
10
15.646305
20
-0.933621
40
11.1976251
50
159.0229866
51
161.8941627
0
ARC
8
DEFAULT_255_2_778
10
15.5081395
20
-0.8886662
40
11.0523304
50
161.8930779
51
164.2684078
0
ARC
8
DEFAULT_255_2_778
10
15.2499121
20
-0.8162762
40
10.7841484
50
164.2666272
51
166.4833328
0
ARC
8
DEFAULT_255_2_778
10
14.8507446
20
-0.7204905
40
10.3736491
50
166.4824264
51
168.4077707
0
ARC
8
DEFAULT_255_2_778
10
14.3507785
20
-0.6178218
40
9.86325
50
168.4084029
51
169.9749445
0
ARC
8
DEFAULT_255_2_778
10
13.8711713
20
-0.5325141
40
9.3761155
50
169.978096
51
171.0463052
0
ARC
8
DEFAULT_255_2_778
10
13.4405805
20
-0.4648627
40
8.9402426
50
171.0450977
51
172.349022
0
ARC
8
DEFAULT_255_2_778
10
13.7408675
20
-0.5033732
40
9.2429838
50
172.3602545
51
173.1763917
0
ARC
8
DEFAULT_255_2_778
10
16.9663057
20
-0.8916867
40
12.4917119
50
173.1656649
51
173.3264094
0
ARC
8
DEFAULT_255_2_778
10
4.8443019
20
0.211012
40
0.3493709
50
271.1532449
51
355.1727633
0
ARC
8
DEFAULT_255_2_778
10
8.554986
20
-0.103969
40
3.3746578
50
174.2769676
51
175.1455306
0
ARC
8
DEFAULT_255_2_778
10
10.3001703
20
-0.2775096
40
5.1284489
50
173.4110952
51
174.2920925
0
ARC
8
DEFAULT_255_2_778
10
11.7141348
20
-0.4399975
40
6.5517188
50
172.5463729
51
173.4183567
0
ARC
8
DEFAULT_255_2_778
10
13.0828784
20
-0.6200581
40
7.932255
50
171.2388329
51
172.5392898
0
ARC
8
DEFAULT_255_2_778
10
14.3600363
20
-0.8164236
40
9.2244205
50
169.7655851
51
171.2416731
0
ARC
8
DEFAULT_255_2_778
10
15.3154485
20
-0.9883296
40
10.1951748
50
168.1506954
51
169.768861
0
ARC
8
DEFAULT_255_2_778
10
15.9820434
20
-1.1278651
40
10.8762173
50
166.2370632
51
168.1523567
0
ARC
8
DEFAULT_255_2_778
10
16.3703277
20
-1.2223729
40
11.2758371
50
164.1308149
51
166.2400127
0
ARC
8
DEFAULT_255_2_778
10
16.5050967
20
-1.2601452
40
11.4157983
50
161.6360961
51
164.1334187
0
ARC
8
DEFAULT_255_2_778
10
16.4149846
20
-1.2294001
40
11.320589
50
158.539477
51
161.6400917
0
ARC
8
DEFAULT_255_2_778
10
16.131921
20
-1.1171981
40
11.0161002
50
154.9528967
51
158.5439572
0
ARC
8
DEFAULT_255_2_778
10
15.8239117
20
-0.9745338
40
10.6766573
50
152.6009048
51
154.9467165
0
ARC
8
DEFAULT_255_2_778
10
13.8433798
20
0.0801088
40
8.4330015
50
144.7090521
51
152.7702378
0
ARC
8
DEFAULT_255_2_778
10
12.6713458
20
0.9114275
40
6.996077
50
134.3000102
51
144.7207525
0
ARC
8
DEFAULT_255_2_778
10
12.1114046
20
1.4740622
40
6.2023368
50
123.8819335
51
134.2280202
0
ARC
8
DEFAULT_255_2_778
10
12.0103608
20
1.6139711
40
6.0298587
50
114.8834305
51
123.8259808
0
ARC
8
DEFAULT_255_2_778
10
12.1104626
20
1.3927673
40
6.2726479
50
107.3470159
51
114.8627165
0
ARC
8
DEFAULT_255_2_778
10
12.2680304
20
0.8856207
40
6.8037079
50
100.8063641
51
107.3402042
0
ARC
8
DEFAULT_255_2_778
10
12.4118513
20
0.1345555
40
7.5684192
50
95.2758112
51
100.8097927
0
ARC
8
DEFAULT_255_2_778
10
17.5896158
20
4.7264831
40
6.5703732
50
153.3757675
51
156.4655993
0
ARC
8
DEFAULT_255_2_778
10
17.6809631
20
4.6869677
40
6.6699007
50
156.4677161
51
159.7647128
0
ARC
8
DEFAULT_255_2_778
10
17.8329566
20
4.6311932
40
6.8318042
50
159.7667153
51
163.0925417
0
ARC
8
DEFAULT_255_2_778
10
18.0006568
20
4.5796553
40
7.0072443
50
163.0881386
51
165.1405723
0
ARC
8
DEFAULT_255_2_778
10
18.2539049
20
4.5143395
40
7.2687736
50
165.1548682
51
169.2978018
0
ARC
8
DEFAULT_255_2_778
10
18.6604448
20
4.4373241
40
7.6825441
50
169.296462
51
172.9412086
0
ARC
8
DEFAULT_255_2_778
10
19.1293878
20
4.3793769
40
8.1550538
50
172.9420474
51
176.4166218
0
ARC
8
DEFAULT_255_2_778
10
19.6177089
20
4.3479559
40
8.6443841
50
176.4110605
51
179.1442746
0
ARC
8
DEFAULT_255_2_778
10
19.9355629
20
4.3415412
40
8.9622986
50
179.133618
51
180.0011748
0
ARC
8
DEFAULT_255_2_778
10
20.3395016
20
4.3446231
40
9.3662378
50
180.0199768
51
183.3485299
0
ARC
8
DEFAULT_255_2_778
10
20.9746051
20
4.3809432
40
10.0023786
50
183.3437297
51
186.1439859
0
ARC
8
DEFAULT_255_2_778
10
21.5302264
20
4.4399677
40
10.5611255
50
186.1397473
51
188.4510484
0
ARC
8
DEFAULT_255_2_778
10
21.992844
20
4.508236
40
11.028753
50
188.448652
51
190.464817
0
ARC
8
DEFAULT_255_2_778
10
22.352439
20
4.5741817
40
11.3943446
50
190.4624785
51
192.1309848
0
ARC
8
DEFAULT_255_2_778
10
22.6122386
20
4.6298492
40
11.6600411
50
192.1301406
51
193.7315859
0
ARC
8
DEFAULT_255_2_778
10
22.7688408
20
4.6678767
40
11.821194
50
193.7304584
51
195.155338
0
ARC
8
DEFAULT_255_2_778
10
22.801059
20
4.6763888
40
11.8545171
50
195.1543377
51
196.4459336
0
ARC
8
DEFAULT_255_2_778
10
23.126564
20
4.7727636
40
12.1939894
50
196.44724
51
196.4863071
0
ARC
8
DEFAULT_255_2_778
10
22.7032832
20
4.6473366
40
11.7525163
50
196.4855799
51
197.561127
0
ARC
8
DEFAULT_255_2_778
10
22.5003305
20
4.5830084
40
11.5396128
50
197.5606568
51
198.4846964
0
ARC
8
DEFAULT_255_2_778
10
22.1852489
20
4.4774575
40
11.2073217
50
198.4836314
51
199.4113466
0
ARC
8
DEFAULT_255_2_778
10
21.7176348
20
4.3124869
40
10.7114606
50
199.4103702
51
200.3062366
0
ARC
8
DEFAULT_255_2_778
10
21.1303261
20
4.0951968
40
10.0852444
50
200.3064209
51
201.0529707
0
ARC
8
DEFAULT_255_2_778
10
20.4915875
20
3.8493748
40
9.4008355
50
201.0532242
51
201.6794949
0
ARC
8
DEFAULT_255_2_778
10
19.8339137
20
3.5880017
40
8.6931274
50
201.6799511
51
202.2080104
0
ARC
8
DEFAULT_255_2_778
10
18.997954
20
3.2461614
40
7.7899755
50
202.20423
51
202.8711001
0
ARC
8
DEFAULT_255_2_778
10
17.8893404
20
2.7782145
40
6.5866475
50
202.8686241
51
203.5165573
0
ARC
8
DEFAULT_255_2_778
10
16.7109784
20
2.2655926
40
5.3016111
50
203.5180381
51
204.0268619
0
ARC
8
DEFAULT_255_2_778
10
15.439053
20
1.6980214
40
3.9087969
50
204.0193792
51
204.5700252
0
ARC
8
DEFAULT_255_2_778
10
14.0621753
20
1.0684461
40
2.3948098
50
204.5686644
51
205.00844
0
ARC
8
DEFAULT_255_2_778
10
12.7388288
20
0.4507582
40
0.9344044
50
204.9882134
51
205.3692843
0
ARC
8
DEFAULT_255_2_778
10
12.2110443
20
0.1982594
40
0.3493393
50
205.038085
51
268.6860375
0
ARC
8
DEFAULT_255_2_778
10
17.6567744
20
2.7737522
40
5.6624778
50
202.6042417
51
203.1213444
0
ARC
8
DEFAULT_255_2_778
10
18.6077578
20
3.1696977
40
6.6925954
50
202.0196673
51
202.6042946
0
ARC
8
DEFAULT_255_2_778
10
19.4937334
20
3.528112
40
7.6483222
50
201.391823
51
202.0203836
0
ARC
8
DEFAULT_255_2_778
10
20.2118008
20
3.8097093
40
8.4196315
50
200.8166553
51
201.3937742
0
ARC
8
DEFAULT_255_2_778
10
20.7666296
20
4.0208718
40
9.0132851
50
200.2931317
51
200.8179517
0
ARC
8
DEFAULT_255_2_778
10
21.2610177
20
4.2034481
40
9.5403085
50
199.5730689
51
200.2918024
0
ARC
8
DEFAULT_255_2_778
10
21.7448107
20
4.375477
40
10.0537767
50
198.7556993
51
199.5731451
0
ARC
8
DEFAULT_255_2_778
10
22.078049
20
4.4889549
40
10.4058065
50
198.1158804
51
198.7573768
0
ARC
8
DEFAULT_255_2_778
10
22.3395054
20
4.5743608
40
10.6808584
50
197.1707839
51
198.1152102
0
ARC
8
DEFAULT_255_2_778
10
22.5336738
20
4.6344731
40
10.8841189
50
196.1824496
51
197.1713653
0
ARC
8
DEFAULT_255_2_778
10
22.6729336
20
4.6749639
40
11.0291458
50
196.0380954
51
196.1828403
0
ARC
8
DEFAULT_255_2_778
10
22.6322391
20
4.6631097
40
10.9867602
50
194.7410006
51
196.0373139
0
ARC
8
DEFAULT_255_2_778
10
22.5983136
20
4.6543869
40
10.9517317
50
193.3289346
51
194.7420296
0
ARC
8
DEFAULT_255_2_778
10
22.439139
20
4.6169613
40
10.7882168
50
191.6666683
51
193.3304153
0
ARC
8
DEFAULT_255_2_778
10
22.1631714
20
4.5602499
40
10.5064823
50
189.845817
51
191.6681174
0
ARC
8
DEFAULT_255_2_778
10
21.7824736
20
4.4946353
40
10.1201717
50
187.702663
51
189.8483659
0
ARC
8
DEFAULT_255_2_778
10
21.2823847
20
4.4277393
40
9.6156289
50
185.0574507
51
187.707046
0
ARC
8
DEFAULT_255_2_778
10
20.6883657
20
4.3757643
40
9.0193407
50
182.0074467
51
185.061217
0
ARC
8
DEFAULT_255_2_778
10
20.1899546
20
4.3566863
40
8.5205675
50
180.0074373
51
181.9966389
0
ARC
8
DEFAULT_255_2_778
10
19.7376243
20
4.3578743
40
8.0682374
50
176.9542563
51
180.0162906
0
ARC
8
DEFAULT_255_2_778
10
19.211064
20
4.3864241
40
7.540904
50
173.3511637
51
176.9582955
0
ARC
8
DEFAULT_255_2_778
10
18.7144365
20
4.4444132
40
7.0409025
50
169.4016823
51
173.3519584
0
ARC
8
DEFAULT_255_2_778
10
18.3308217
20
4.5151393
40
6.6508238
50
166.0856434
51
169.392759
0
ARC
8
DEFAULT_255_2_778
10
18.0152081
20
4.5940954
40
6.3254848
50
161.580373
51
166.092376
0
ARC
8
DEFAULT_255_2_778
10
17.7656657
20
4.6764253
40
6.0627129
50
157.4269501
51
161.573408
0
ARC
8
DEFAULT_255_2_778
10
17.6168006
20
4.737909
40
5.901651
50
153.2404539
51
157.4233575
0
ARC
8
DEFAULT_255_2_778
10
17.5471801
20
4.7725885
40
5.8238723
50
149.0567601
51
153.2367059
0
ARC
8
DEFAULT_255_2_778
10
17.5402112
20
4.7765645
40
5.8158509
50
147.6366475
51
149.0550545
0
ARC
8
DEFAULT_255_2_778
10
12.332837
20
8.0761513
40
0.3488891
50
327.6981178
51
0.0181132
0
ARC
8
DEFAULT_255_2_778
10
12.3284462
20
8.0762413
40
0.35328
50
0.0032938
51
0.5686758
0
ARC
8
DEFAULT_255_2_778
10
12.3321926
20
8.0762973
40
0.3495332
50
0.5655885
51
28.5805583
0
ARC
8
DEFAULT_255_2_778
10
12.3325131
20
8.0762528
40
0.3492731
50
28.6121209
51
89.4881067
0
LINE
8
DEFAULT_255_2_778
10
4.5592336
20
0.5600119
11
0.2645336
21
0.5174119
0
LINE
8
DEFAULT_255_2_778
10
0.2645336
20
0.5174119
11
0.2645336
21
-0.1805881
0
LINE
8
DEFAULT_255_2_778
10
0.2645336
20
-0.1805881
11
4.8513336
21
-0.1382881
0
LINE
8
DEFAULT_255_2_778
10
12.2030336
20
-0.1509881
11
17.1978336
21
-0.1900881
0
LINE
8
DEFAULT_255_2_778
10
17.1978336
20
-0.1900881
11
17.1978336
21
0.5078119
0
LINE
8
DEFAULT_255_2_778
10
17.1978336
20
0.5078119
11
12.4491336
21
0.5502119
0
LINE
8
DEFAULT_255_2_778
10
12.3356336
20
8.4255119
11
12.3356336
21
8.4255119
0
ENDSEC
0
EOF