0
SECTION
2
HEADER
9
$MEASUREMENT
70
1
0
ENDSEC
0
SECTION
2
TABLES
0
TABLE
2
LTYPE
0
LTYPE
72
65
70
64
2
CONTINUOUS
3
______
73
0
40
0
0
ENDTAB
0
TABLE
2
LAYER
0
LAYER
2
DEFAULT_255_2_778
70
0
62
255
6
CONTINUOUS
0
ENDTAB
0
ENDSEC
0
SECTION
2
ENTITIES
0
ARC
8
DEFAULT_255_2_778
10
20.8572485
20
114.8863835
40
20.7249804
50
173.886013
51
180.011755
0
ARC
8
DEFAULT_255_2_778
10
20.501686
20
114.9237827
40
20.3674571
50
166.8527399
51
173.8840907
0
ARC
8
DEFAULT_255_2_778
10
20.3358695
20
114.9613545
40
20.1974409
50
158.3761194
51
166.8495381
0
ARC
8
DEFAULT_255_2_778
10
20.3476891
20
114.9546487
40
20.2109
50
147.2481015
51
158.3707948
0
ARC
8
DEFAULT_255_2_778
10
20.4344182
20
114.8989904
40
20.3139522
50
117.5455429
51
147.2484141
0
ARC
8
DEFAULT_255_2_778
10
20.368849
20
115.0105666
40
20.1847022
50
108.1855724
51
117.5269853
0
ARC
8
DEFAULT_255_2_778
10
20.3846018
20
114.9577633
40
20.2397843
50
100.3371356
51
108.1812872
0
ARC
8
DEFAULT_255_2_778
10
20.4264294
20
114.7242745
40
20.4769889
50
93.8756307
51
100.3350412
0
ARC
8
DEFAULT_255_2_778
10
20.4504369
20
114.3942384
40
20.8078931
50
89.9949565
51
93.8801608
0
ARC
8
DEFAULT_255_2_778
10
115.2832206
20
114.4771515
40
20.7249804
50
83.886013
51
90.011755
0
ARC
8
DEFAULT_255_2_778
10
115.3206198
20
114.832714
40
20.3674571
50
76.8527399
51
83.8840907
0
ARC
8
DEFAULT_255_2_778
10
115.3581916
20
114.9985305
40
20.1974409
50
68.3761194
51
76.8495381
0
ARC
8
DEFAULT_255_2_778
10
115.3514858
20
114.9867109
40
20.2109
50
57.2481015
51
68.3707948
0
ARC
8
DEFAULT_255_2_778
10
115.2958275
20
114.8999818
40
20.3139522
50
27.5455429
51
57.2484141
0
ARC
8
DEFAULT_255_2_778
10
115.4074037
20
114.965551
40
20.1847022
50
18.1855724
51
27.5269853
0
ARC
8
DEFAULT_255_2_778
10
115.3546004
20
114.9497982
40
20.2397843
50
10.3371356
51
18.1812872
0
ARC
8
DEFAULT_255_2_778
10
115.1211116
20
114.9079706
40
20.4769889
50
3.8756307
51
10.3350412
0
ARC
8
DEFAULT_255_2_778
10
114.7910755
20
114.8839631
40
20.8078931
50
359.9949565
51
3.8801608
0
ARC
8
DEFAULT_255_2_778
10
114.8739886
20
20.0511794
40
20.7249804
50
353.886013
51
0.011755
0
ARC
8
DEFAULT_255_2_778
10
115.2295511
20
20.0137802
40
20.3674571
50
346.8527399
51
353.8840907
0
ARC
8
DEFAULT_255_2_778
10
115.3953676
20
19.9762084
40
20.1974409
50
338.3761194
51
346.8495381
0
ARC
8
DEFAULT_255_2_778
10
115.383548
20
19.9829142
40
20.2109
50
327.2481015
51
338.3707948
0
ARC
8
DEFAULT_255_2_778
10
115.2968189
20
20.0385725
40
20.3139522
50
297.5455429
51
327.2484141
0
ARC
8
DEFAULT_255_2_778
10
115.3623881
20
19.9269963
40
20.1847022
50
288.1855724
51
297.5269853
0
ARC
8
DEFAULT_255_2_778
10
115.3466353
20
19.9797996
40
20.2397843
50
280.3371356
51
288.1812872
0
ARC
8
DEFAULT_255_2_778
10
115.3048077
20
20.2132884
40
20.4769889
50
273.8756307
51
280.3350412
0
ARC
8
DEFAULT_255_2_778
10
115.2808002
20
20.5433245
40
20.8078931
50
269.9949565
51
273.8801608
0
ARC
8
DEFAULT_255_2_778
10
20.4480165
20
20.4604114
40
20.7249804
50
263.886013
51
270.011755
0
ARC
8
DEFAULT_255_2_778
10
20.4106173
20
20.1048489
40
20.3674571
50
256.8527399
51
263.8840907
0
ARC
8
DEFAULT_255_2_778
10
20.3730455
20
19.9390324
40
20.1974409
50
248.3761194
51
256.8495381
0
ARC
8
DEFAULT_255_2_778
10
20.3797513
20
19.950852
40
20.2109
50
237.2481015
51
248.3707948
0
ARC
8
DEFAULT_255_2_778
10
20.4354096
20
20.0375811
40
20.3139522
50
207.5455429
51
237.2484141
0
ARC
8
DEFAULT_255_2_778
10
20.3238334
20
19.9720119
40
20.1847022
50
198.1855724
51
207.5269853
0
ARC
8
DEFAULT_255_2_778
10
20.3766367
20
19.9877647
40
20.2397843
50
190.3371356
51
198.1812872
0
ARC
8
DEFAULT_255_2_778
10
20.6101255
20
20.0295923
40
20.4769889
50
183.8756307
51
190.3350412
0
ARC
8
DEFAULT_255_2_778
10
20.9401616
20
20.0535998
40
20.8078931
50
179.9949565
51
183.8801608
0
LINE
8
DEFAULT_255_2_778
10
20.4522686
20
135.2021314
11
115.2789686
21
135.2021314
0
LINE
8
DEFAULT_255_2_778
10
135.5989686
20
114.8821314
11
135.5989686
21
20.0554314
0
LINE
8
DEFAULT_255_2_778
10
115.2789686
20
-0.2645686
11
20.4522686
21
-0.2645686
0
LINE
8
DEFAULT_255_2_778
10
0.1322686
20
20.0554314
11
0.1322686
21
114.8821314
0
ARC
8
DEFAULT_255_2_778
10
69.100774
20
67.4727652
40
51.506006
50
176.4002407
51
180.0043754
0
ARC
8
DEFAULT_255_2_778
10
68.4401309
20
67.51446
40
50.8440487
50
172.2502592
51
176.4003908
0
ARC
8
DEFAULT_255_2_778
10
67.947064
20
67.5810538
40
50.3465054
50
167.6941671
51
172.2496871
0
ARC
8
DEFAULT_255_2_778
10
67.6507234
20
67.6448998
40
50.0433662
50
162.7567758
51
167.693274
0
ARC
8
DEFAULT_255_2_778
10
67.5388094
20
67.6787347
40
49.9264527
50
157.0216723
51
162.7557886
0
ARC
8
DEFAULT_255_2_778
10
67.5889511
20
67.6561777
40
49.9814216
50
150.2220743
51
157.020305
0
ARC
8
DEFAULT_255_2_778
10
67.7497593
20
67.5623004
40
50.1676193
50
140.9306161
51
150.2202268
0
ARC
8
DEFAULT_255_2_778
10
67.8399449
20
67.4937408
40
50.2808485
50
123.0930969
51
140.9347319
0
ARC
8
DEFAULT_255_2_778
10
67.7074031
20
67.6897222
40
50.0442906
50
115.4817821
51
123.0884767
0
ARC
8
DEFAULT_255_2_778
10
67.6564461
20
67.7934251
40
49.9287528
50
109.3934406
51
115.4801934
0
ARC
8
DEFAULT_255_2_778
10
67.6713523
20
67.748005
40
49.9765455
50
104.133629
51
109.3922696
0
ARC
8
DEFAULT_255_2_778
10
67.7248533
20
67.5334965
40
50.1976248
50
99.7347644
51
104.1330604
0
ARC
8
DEFAULT_255_2_778
10
67.7910309
20
67.1429106
40
50.5937764
50
95.4798465
51
99.7338375
0
ARC
8
DEFAULT_255_2_778
10
67.8471269
20
66.5532411
40
51.1861081
50
91.53812
51
95.479319
0
ARC
8
DEFAULT_255_2_778
10
67.8648049
20
66.0209139
40
51.718718
50
89.9991545
51
91.5418678
0
ARC
8
DEFAULT_255_2_778
10
67.8695013
20
66.2332678
40
51.5063643
50
86.4002532
51
90.0043754
0
ARC
8
DEFAULT_255_2_778
10
67.9111998
20
66.8939676
40
50.8443501
50
82.2502833
51
86.4004036
0
ARC
8
DEFAULT_255_2_778
10
67.9778004
20
67.38708
40
50.3467608
50
77.6942019
51
82.2497121
0
ARC
8
DEFAULT_255_2_778
10
68.0416497
20
67.6834424
40
50.0435996
50
72.7568197
51
77.6933075
0
ARC
8
DEFAULT_255_2_778
10
68.0755031
20
67.7954202
40
49.9266196
50
67.0217214
51
72.755831
0
ARC
8
DEFAULT_255_2_778
10
68.05296
20
67.7453156
40
49.9815489
50
60.2221269
51
67.0203521
0
ARC
8
DEFAULT_255_2_778
10
67.9591249
20
67.5845842
40
50.167659
50
50.9306627
51
60.2202775
0
ARC
8
DEFAULT_255_2_778
10
67.8906125
20
67.4944549
40
50.2808147
50
33.0931222
51
50.9347797
0
ARC
8
DEFAULT_255_2_778
10
68.0865817
20
67.6269924
40
50.0442694
50
25.4817994
51
33.0884986
0
ARC
8
DEFAULT_255_2_778
10
68.1902565
20
67.6779413
40
49.9287605
50
19.3934528
51
25.4802052
0
ARC
8
DEFAULT_255_2_778
10
68.1449265
20
67.6630671
40
49.9764576
50
14.1336314
51
19.3922815
0
ARC
8
DEFAULT_255_2_778
10
67.930462
20
67.6095715
40
50.1974929
50
9.7347614
51
14.1330691
0
ARC
8
DEFAULT_255_2_778
10
67.5397465
20
67.5433691
40
50.5937765
50
5.4798465
51
9.7338375
0
ARC
8
DEFAULT_255_2_778
10
66.9500772
20
67.4872731
40
51.1861081
50
1.53812
51
5.479319
0
ARC
8
DEFAULT_255_2_778
10
66.41775
20
67.4695951
40
51.718718
50
359.9991545
51
1.5418678
0
ARC
8
DEFAULT_255_2_778
10
66.6301039
20
67.4648987
40
51.5063643
50
356.4002532
51
0.0043754
0
ARC
8
DEFAULT_255_2_778
10
67.2908036
20
67.4232002
40
50.8443502
50
352.2502833
51
356.4004036
0
ARC
8
DEFAULT_255_2_778
10
67.7839156
20
67.3565996
40
50.3467612
50
347.6942019
51
352.2497121
0
ARC
8
DEFAULT_255_2_778
10
68.0802774
20
67.2927551
40
50.0436014
50
342.7568146
51
347.6933023
0
ARC
8
DEFAULT_255_2_778
10
68.1923236
20
67.2588818
40
49.9265503
50
337.0217065
51
342.7558244
0
ARC
8
DEFAULT_255_2_778
10
68.1421893
20
67.2814353
40
49.9815111
50
330.2221082
51
337.0203396
0
ARC
8
DEFAULT_255_2_778
10
67.9814643
20
67.3752693
40
50.167615
50
320.9306303
51
330.2202563
0
ARC
8
DEFAULT_255_2_778
10
67.8913087
20
67.4438045
40
50.2808054
50
303.0930702
51
320.9347461
0
ARC
8
DEFAULT_255_2_778
10
68.0238012
20
67.2479011
40
50.0443397
50
295.4817482
51
303.0884485
0
ARC
8
DEFAULT_255_2_778
10
68.074715
20
67.1442991
40
49.9289118
50
289.393408
51
295.4801542
0
ARC
8
DEFAULT_255_2_778
10
68.059828
20
67.1896675
40
49.9766494
50
284.1335933
51
289.392236
0
ARC
8
DEFAULT_255_2_778
10
68.0063177
20
67.4041944
40
50.1977487
50
279.7347327
51
284.1330301
0
ARC
8
DEFAULT_255_2_778
10
67.9401092
20
67.7949517
40
50.5940746
50
275.4798286
51
279.7338077
0
ARC
8
DEFAULT_255_2_778
10
67.8840101
20
68.3846581
40
51.1864433
50
271.5381145
51
275.4793009
0
ARC
8
DEFAULT_255_2_778
10
67.8663314
20
68.9170046
40
51.7190726
50
269.9991544
51
271.5418625
0
ARC
8
DEFAULT_255_2_778
10
67.8616348
20
68.7039378
40
51.506006
50
266.4002407
51
270.0043754
0
ARC
8
DEFAULT_255_2_778
10
67.81994
20
68.0432949
40
50.8440488
50
262.2502592
51
266.4003908
0
ARC
8
DEFAULT_255_2_778
10
67.7533462
20
67.5502284
40
50.3465059
50
257.6941671
51
262.2496871
0
ARC
8
DEFAULT_255_2_778
10
67.689505
20
67.2538883
40
50.043368
50
252.7567707
51
257.6932688
0
ARC
8
DEFAULT_255_2_778
10
67.6556503
20
67.141906
40
49.9263834
50
247.0216573
51
252.755782
0
ARC
8
DEFAULT_255_2_778
10
67.6782176
20
67.1920774
40
49.9813837
50
240.2220556
51
247.0202925
0
ARC
8
DEFAULT_255_2_778
10
67.7720938
20
67.3528792
40
50.1675753
50
230.9305838
51
240.2202056
0
ARC
8
DEFAULT_255_2_778
10
67.8406762
20
67.4430911
40
50.2808392
50
213.0930449
51
230.9346983
0
ARC
8
DEFAULT_255_2_778
10
67.6447606
20
67.3105943
40
50.0443609
50
205.4817309
51
213.0884266
0
ARC
8
DEFAULT_255_2_778
10
67.5411306
20
67.2596724
40
49.9289041
50
199.3933958
51
205.4801424
0
ARC
8
DEFAULT_255_2_778
10
67.5865891
20
67.2745914
40
49.9767373
50
194.1335909
51
199.3922241
0
ARC
8
DEFAULT_255_2_778
10
67.8011599
20
67.3281071
40
50.1978806
50
189.7347356
51
194.1330214
0
ARC
8
DEFAULT_255_2_778
10
68.1917876
20
67.3942907
40
50.5940744
50
185.4798286
51
189.7338077
0
ARC
8
DEFAULT_255_2_778
10
68.7814942
20
67.4503899
40
51.1864433
50
181.5381145
51
185.4793009
0
ARC
8
DEFAULT_255_2_778
10
69.3138407
20
67.4680686
40
51.7190726
50
179.9991544
51
181.5418625
0
LINE
8
DEFAULT_255_2_778
10
17.5947681
20
67.4688319
11
17.5947681
21
67.4688319
0
ARC
8
DEFAULT_255_2_778
10
47.7773888
20
90.9546861
40
63.1965659
50
338.9568138
51
340.1898288
0
ARC
8
DEFAULT_255_2_778
10
50.8367978
20
89.8517586
40
59.9444234
50
340.1906012
51
341.372232
0
ARC
8
DEFAULT_255_2_778
10
53.7589751
20
88.8684982
40
56.8612564
50
341.3705727
51
342.7844413
0
ARC
8
DEFAULT_255_2_778
10
56.6736241
20
87.9659053
40
53.8100513
50
342.7839235
51
344.3134127
0
ARC
8
DEFAULT_255_2_778
10
59.2609861
20
87.2383632
40
51.1223462
50
344.3144064
51
345.7916778
0
ARC
8
DEFAULT_255_2_778
10
61.5953186
20
86.6483359
40
48.7146005
50
345.7905258
51
347.4865257
0
ARC
8
DEFAULT_255_2_778
10
63.6444329
20
86.1924465
40
46.6153855
50
347.4878529
51
349.0994096
0
ARC
8
DEFAULT_255_2_778
10
65.3563188
20
85.862951
40
44.8720781
50
349.0991837
51
350.8683463
0
ARC
8
DEFAULT_255_2_778
10
66.7627519
20
85.6362467
40
43.447491
50
350.8691708
51
352.6557035
0
ARC
8
DEFAULT_255_2_778
10
67.7952755
20
85.5027208
40
42.4063696
50
352.6562999
51
354.5708693
0
ARC
8
DEFAULT_255_2_778
10
68.3823608
20
85.4458905
40
41.8165411
50
354.5722787
51
356.5050201
0
ARC
8
DEFAULT_255_2_778
10
68.4170355
20
85.4425759
40
41.7817287
50
356.5066584
51
358.2926568
0
ARC
8
DEFAULT_255_2_778
10
67.8572956
20
85.4581071
40
42.341683
50
358.2942166
51
0.0032363
0
ARC
8
DEFAULT_255_2_778
10
81.2235734
20
86.3384934
40
28.9887043
50
358.2643902
51
359.0762655
0
ARC
8
DEFAULT_255_2_778
10
81.4247917
20
86.3352004
40
28.7874592
50
359.0763623
51
359.7684738
0
ARC
8
DEFAULT_255_2_778
10
81.531903
20
86.3345799
40
28.6803463
50
359.7688487
51
359.9998269
0
ARC
8
DEFAULT_255_2_778
10
82.230767
20
86.3420685
40
27.9814833
50
359.9844887
51
3.952468
0
ARC
8
DEFAULT_255_2_778
10
83.7530284
20
86.4480518
40
26.455537
50
3.9507281
51
7.7265606
0
ARC
8
DEFAULT_255_2_778
10
85.5551278
20
86.6949563
40
24.6366041
50
7.7210288
51
11.723889
0
ARC
8
DEFAULT_255_2_778
10
87.5782233
20
87.1164444
40
22.5700695
50
11.7197992
51
15.8606118
0
ARC
8
DEFAULT_255_2_778
10
89.6143032
20
87.6950254
40
20.453379
50
15.8603386
51
19.9684818
0
ARC
8
DEFAULT_255_2_778
10
91.6127515
20
88.4240842
40
18.3261005
50
19.9598783
51
24.5671527
0
ARC
8
DEFAULT_255_2_778
10
93.5484592
20
89.3111251
40
16.196828
50
24.5602462
51
29.623779
0
ARC
8
DEFAULT_255_2_778
10
95.3033288
20
90.3114415
40
14.1768788
50
29.6151779
51
35.3040267
0
ARC
8
DEFAULT_255_2_778
10
96.8196065
20
91.3884231
40
12.3170457
50
35.2917379
51
41.9199376
0
ARC
8
DEFAULT_255_2_778
10
98.057757
20
92.505233
40
10.6496333
50
41.8995089
51
50.1323131
0
ARC
8
DEFAULT_255_2_778
10
99.0103545
20
93.6630676
40
9.1503398
50
50.0631386
51
63.1540666
0
ARC
8
DEFAULT_255_2_778
10
99.3817514
20
94.3675563
40
8.3540682
50
63.2447837
51
78.8601995
0
ARC
8
DEFAULT_255_2_778
10
99.3581389
20
94.2398018
40
8.4839779
50
78.8704308
51
82.8822539
0
ARC
8
DEFAULT_255_2_778
10
99.6201044
20
93.9805607
40
8.7136575
50
84.8030838
51
86.0876413
0
ARC
8
DEFAULT_255_2_778
10
99.6303444
20
94.128021
40
8.5658421
50
86.088677
51
87.0585681
0
ARC
8
DEFAULT_255_2_778
10
99.6374604
20
94.2686629
40
8.4250203
50
87.0578171
51
88.3391579
0
ARC
8
DEFAULT_255_2_778
10
99.6415867
20
94.4101642
40
8.2834588
50
88.3393203
51
89.582427
0
ARC
8
DEFAULT_255_2_778
10
99.6424411
20
94.5018979
40
8.1917214
50
89.5837266
51
89.9998366
0
ARC
8
DEFAULT_255_2_778
10
99.6382961
20
94.7774022
40
7.9162181
50
89.9698305
51
95.7799024
0
ARC
8
DEFAULT_255_2_778
10
99.5994663
20
95.1652857
40
7.5263963
50
95.7831783
51
102.4404535
0
ARC
8
DEFAULT_255_2_778
10
99.5579451
20
95.3593086
40
7.3279845
50
102.4502353
51
110.105551
0
ARC
8
DEFAULT_255_2_778
10
99.5796148
20
95.3088317
40
7.3828348
50
110.128815
51
119.4622367
0
ARC
8
DEFAULT_255_2_778
10
99.7873899
20
94.9528693
40
7.7949606
50
119.5050569
51
130.4099239
0
ARC
8
DEFAULT_255_2_778
10
100.2653395
20
94.3950034
40
8.5295664
50
130.425278
51
141.3694722
0
ARC
8
DEFAULT_255_2_778
10
100.7473764
20
94.0006057
40
9.1523514
50
141.3246166
51
150.090128
0
ARC
8
DEFAULT_255_2_778
10
100.8426455
20
93.9399968
40
9.2651548
50
150.0590116
51
156.8211648
0
ARC
8
DEFAULT_255_2_778
10
100.6234272
20
94.0350026
40
9.0262372
50
156.8278439
51
159.9027295
0
ARC
8
DEFAULT_255_2_778
10
100.331586
20
94.1410893
40
8.7157131
50
159.8984314
51
163.2332142
0
ARC
8
DEFAULT_255_2_778
10
99.9485979
20
94.2566924
40
8.3156581
50
163.2346285
51
166.0847498
0
ARC
8
DEFAULT_255_2_778
10
99.4943815
20
94.3684887
40
7.8478865
50
166.079511
51
169.2740786
0
ARC
8
DEFAULT_255_2_778
10
98.9597649
20
94.4696295
40
7.3037869
50
169.2731031
51
172.4060667
0
ARC
8
DEFAULT_255_2_778
10
98.3963347
20
94.544544
40
6.7353982
50
172.4043602
51
175.5838227
0
ARC
8
DEFAULT_255_2_778
10
97.8190337
20
94.5889482
40
6.1563922
50
175.5821463
51
178.8391695
0
ARC
8
DEFAULT_255_2_778
10
97.4322748
20
94.5990729
40
5.769508
50
178.8618845
51
179.9969316
0
ARC
8
DEFAULT_255_2_778
10
97.2140767
20
94.5988636
40
5.5513099
50
179.9946503
51
181.4614687
0
ARC
8
DEFAULT_255_2_778
10
96.9766974
20
94.5928255
40
5.3138539
50
181.4616647
51
182.9050036
0
ARC
8
DEFAULT_255_2_778
10
96.7469441
20
94.5811279
40
5.0838031
50
182.9045684
51
184.3932717
0
ARC
8
DEFAULT_255_2_778
10
104.1232098
20
95.0217252
40
12.4727797
50
183.8156838
51
187.3866053
0
ARC
8
DEFAULT_255_2_778
10
104.4031482
20
95.0600934
40
12.755328
50
187.3958581
51
191.5307311
0
ARC
8
DEFAULT_255_2_778
10
105.3495026
20
95.261215
40
13.7227878
50
191.5636836
51
196.9375718
0
ARC
8
DEFAULT_255_2_778
10
108.9596083
20
96.4320125
40
17.517518
50
197.1609037
51
205.3618297
0
ARC
8
DEFAULT_255_2_778
10
117.3207816
20
100.2939479
40
26.7272008
50
205.1653717
51
208.2197312
0
ARC
8
DEFAULT_255_2_778
10
129.3269714
20
106.7050929
40
40.3378898
50
208.1798791
51
209.7735969
0
ARC
8
DEFAULT_255_2_778
10
148.8510627
20
117.8343991
40
62.8112253
50
209.7416872
51
210.4412206
0
ARC
8
DEFAULT_255_2_778
10
181.6901017
20
137.1093756
40
100.8891317
50
210.4297907
51
210.7589331
0
ARC
8
DEFAULT_255_2_778
10
300.8897065
20
208.0972419
40
239.6256529
50
210.7684645
51
210.9517555
0
ARC
8
DEFAULT_255_2_778
10
-339.4258516
20
-175.8869295
40
506.9986554
50
30.8652847
51
30.9495473
0
ARC
8
DEFAULT_255_2_778
10
-51.0188296
20
-3.4512479
40
170.9738567
50
30.7628536
51
30.8466189
0
ARC
8
DEFAULT_255_2_778
10
26.6011443
20
42.6237566
40
80.7090189
50
29.7605028
51
30.8406959
0
ARC
8
DEFAULT_255_2_778
10
57.8015625
20
60.4797666
40
44.7604051
50
27.9450172
51
29.7428193
0
ARC
8
DEFAULT_255_2_778
10
68.6387679
20
66.2326352
40
32.4909104
50
25.4567508
51
27.9388525
0
ARC
8
DEFAULT_255_2_778
10
74.0285864
20
68.8054631
40
26.5185125
50
22.6297249
51
25.4430782
0
ARC
8
DEFAULT_255_2_778
10
76.9653372
20
70.0347618
40
23.3348579
50
19.6912878
51
22.6182588
0
ARC
8
DEFAULT_255_2_778
10
78.6539126
20
70.6420354
40
21.5404054
50
16.6727168
51
19.6838604
0
ARC
8
DEFAULT_255_2_778
10
79.5858553
20
70.9235173
40
20.5668842
50
13.7459955
51
16.6663937
0
ARC
8
DEFAULT_255_2_778
10
79.9906079
20
71.0242358
40
20.1497917
50
11.259329
51
13.7412831
0
ARC
8
DEFAULT_255_2_778
10
80.0605074
20
71.0389475
40
20.0783652
50
8.4880777
51
11.2571013
0
ARC
8
DEFAULT_255_2_778
10
79.8450797
20
71.0075532
40
20.2960671
50
5.8444854
51
8.4859675
0
ARC
8
DEFAULT_255_2_778
10
79.4169045
20
70.9637311
40
20.7264789
50
3.6473481
51
5.8444683
0
ARC
8
DEFAULT_255_2_778
10
78.8160258
20
70.9260372
40
21.3285386
50
1.3585219
51
3.645716
0
ARC
8
DEFAULT_255_2_778
10
78.180027
20
70.9094604
40
21.9647518
50
359.9972308
51
1.3624181
0
ARC
8
DEFAULT_255_2_778
10
79.7058904
20
70.9206658
40
20.4388919
50
357.539411
51
359.9656121
0
ARC
8
DEFAULT_255_2_778
10
76.1019132
20
71.0730214
40
24.0460872
50
355.5035846
51
357.5453952
0
ARC
8
DEFAULT_255_2_778
10
71.7940687
20
71.4132547
40
28.3673463
50
353.5024309
51
355.5006252
0
ARC
8
DEFAULT_255_2_778
10
66.4863807
20
72.0163589
40
33.7091892
50
351.7362275
51
353.5047991
0
ARC
8
DEFAULT_255_2_778
10
60.2474288
20
72.9207542
40
40.0133506
50
350.1881026
51
351.7386946
0
ARC
8
DEFAULT_255_2_778
10
53.2050545
20
74.1348952
40
47.1596196
50
348.9185336
51
350.1926449
0
ARC
8
DEFAULT_255_2_778
10
45.5616857
20
75.6286116
40
54.9475763
50
347.8671351
51
348.9218957
0
ARC
8
DEFAULT_255_2_778
10
37.3110528
20
77.399513
40
63.3861204
50
346.990806
51
347.8696376
0
ARC
8
DEFAULT_255_2_778
10
28.4326651
20
79.4482863
40
72.4978292
50
346.2564232
51
346.9927039
0
ARC
8
DEFAULT_255_2_778
10
16.4026666
20
82.4003221
40
84.8847295
50
345.3445895
51
346.250035
0
ARC
8
DEFAULT_255_2_778
10
-1.2047067
20
87.0051567
40
103.0842925
50
344.5354054
51
345.3444447
0
ARC
8
DEFAULT_255_2_778
10
-24.476566
20
93.4416552
40
127.2298501
50
343.8526936
51
344.5362194
0
ARC
8
DEFAULT_255_2_778
10
-53.4960961
20
101.833281
40
157.4383328
50
343.3630466
51
343.8563269
0
ARC
8
DEFAULT_255_2_778
10
-97.1195458
20
114.8868772
40
202.9729516
50
342.8461429
51
343.3581135
0
ARC
8
DEFAULT_255_2_778
10
-180.4089237
20
140.6011931
40
290.1414464
50
342.4494875
51
342.8451178
0
ARC
8
DEFAULT_255_2_778
10
-380.2103197
20
203.8140262
40
499.7039904
50
342.1841239
51
342.4470843
0
ARC
8
DEFAULT_255_2_778
10
-2012.0077726
20
728.5269095
40
2213.7887371
50
342.1013663
51
342.1767016
0
ARC
8
DEFAULT_255_2_778
10
1615.1453456
20
-442.3218478
40
1597.658101
50
162.1216464
51
162.1567203
0
ARC
8
DEFAULT_255_2_778
10
869.7819888
20
-202.4143913
40
814.6369516
50
162.1551301
51
162.2439046
0
ARC
8
DEFAULT_255_2_778
10
462.6790923
20
-72.285517
40
387.2423001
50
162.2109965
51
162.7728553
0
ARC
8
DEFAULT_255_2_778
10
325.184782
20
-29.5221991
40
243.2514599
50
162.8021754
51
163.2090506
0
ARC
8
DEFAULT_255_2_778
10
285.9476352
20
-17.6652713
40
202.2619479
50
163.2137416
51
163.5273013
0
ARC
8
DEFAULT_255_2_778
10
262.367074
20
-10.6929416
40
177.6721887
50
163.5271991
51
163.8828683
0
ARC
8
DEFAULT_255_2_778
10
79.7146149
20
32.2212837
40
57.973906
50
94.1149616
51
95.1802634
0
ARC
8
DEFAULT_255_2_778
10
80.277334
20
24.4960618
40
65.7195927
50
93.336629
51
94.120997
0
ARC
8
DEFAULT_255_2_778
10
80.5851218
20
19.2802487
40
70.9444782
50
92.7429463
51
93.3396123
0
ARC
8
DEFAULT_255_2_778
10
80.7225996
20
16.4515449
40
73.7765201
50
92.2791286
51
92.7444625
0
ARC
8
DEFAULT_255_2_778
10
80.7531387
20
15.70773
40
74.5209609
50
91.9098376
51
92.2798475
0
ARC
8
DEFAULT_255_2_778
10
80.720467
20
16.7026523
40
73.5255026
50
91.6113495
51
91.9102303
0
ARC
8
DEFAULT_255_2_778
10
80.6567925
20
18.9702596
40
71.2570014
50
91.3671935
51
91.6114419
0
ARC
8
DEFAULT_255_2_778
10
80.5764133
20
22.3381443
40
67.8881576
50
91.1651895
51
91.367194
0
ARC
8
DEFAULT_255_2_778
10
80.4759498
20
27.3414012
40
62.8838924
50
90.9169494
51
91.1663725
0
ARC
8
DEFAULT_255_2_778
10
80.3511072
20
35.1910861
40
55.033215
50
90.6809396
51
90.9177746
0
ARC
8
DEFAULT_255_2_778
10
80.2392673
20
44.5766392
40
45.6469957
50
90.4982864
51
90.6805747
0
ARC
8
DEFAULT_255_2_778
10
80.1447232
20
55.6101347
40
34.6130952
50
90.3071228
51
90.5006265
0
ARC
8
DEFAULT_255_2_778
10
80.0756484
20
68.5160855
40
21.7069595
50
90.1551826
51
90.3074018
0
ARC
8
DEFAULT_255_2_778
10
80.0413228
20
81.6131266
40
8.6098737
50
90.0322365
51
90.1628159
0
ARC
8
DEFAULT_255_2_778
10
79.7935749
20
92.690487
40
2.4794153
50
275.6221781
51
283.0625602
0
ARC
8
DEFAULT_255_2_778
10
79.863387
20
92.391157
40
2.1720525
50
283.053259
51
292.1059003
0
ARC
8
DEFAULT_255_2_778
10
79.9434167
20
92.1937755
40
1.9590638
50
292.109756
51
303.2843783
0
ARC
8
DEFAULT_255_2_778
10
79.9941737
20
92.1141364
40
1.8646342
50
303.3235525
51
318.4865681
0
ARC
8
DEFAULT_255_2_778
10
79.8664693
20
92.2062233
40
2.0213551
50
318.9312279
51
350.3707506
0
ARC
8
DEFAULT_255_2_778
10
79.6704136
20
92.2561093
40
2.2230534
50
349.9483589
51
358.7280032
0
ARC
8
DEFAULT_255_2_778
10
79.6537879
20
92.2569579
40
2.239694
50
358.7157416
51
0.0000762
0
ARC
8
DEFAULT_255_2_778
10
79.76438
20
92.2686283
40
2.1291339
50
359.686024
51
29.1146905
0
ARC
8
DEFAULT_255_2_778
10
80.0923406
20
92.4467731
40
1.7559384
50
29.2431367
51
57.4317589
0
ARC
8
DEFAULT_255_2_778
10
80.1169245
20
92.4682528
40
1.724627
50
57.7359265
51
71.5507377
0
ARC
8
DEFAULT_255_2_778
10
80.0623665
20
92.3030742
40
1.8985818
50
71.5664067
51
82.1277136
0
ARC
8
DEFAULT_255_2_778
10
80.0239045
20
92.0309244
40
2.173435
50
82.1059808
51
90.096832
0
ARC
8
DEFAULT_255_2_778
10
80.0204789
20
91.8173551
40
2.3870012
50
90.005944
51
91.830741
0
ARC
8
DEFAULT_255_2_778
10
80.0236258
20
91.7191593
40
2.4852476
50
91.8309308
51
93.6754193
0
ARC
8
DEFAULT_255_2_778
10
80.0300662
20
91.6177276
40
2.5868836
50
93.6737559
51
95.2097363
0
ARC
8
DEFAULT_255_2_778
10
80.0358777
20
91.5520926
40
2.6527752
50
95.2060152
51
95.7114199
0
ARC
8
DEFAULT_255_2_778
10
69.1192168
20
211.3862576
40
117.6777117
50
274.4751171
51
275.1937554
0
ARC
8
DEFAULT_255_2_778
10
69.0199294
20
212.6766897
40
118.9719566
50
273.5521011
51
274.4742971
0
ARC
8
DEFAULT_255_2_778
10
68.8436292
20
215.5501061
40
121.8507757
50
272.5868832
51
273.5511304
0
ARC
8
DEFAULT_255_2_778
10
68.6160667
20
220.6694892
40
126.9752128
50
271.5544776
51
272.5852005
0
ARC
8
DEFAULT_255_2_778
10
68.3508637
20
231.1237929
40
137.4328646
50
270.1694891
51
271.5467679
0
ARC
8
DEFAULT_255_2_778
10
68.287834
20
241.1235486
40
147.4327668
50
269.9996537
51
270.182488
0
ARC
8
DEFAULT_255_2_778
10
68.2926041
20
246.7911542
40
153.1003725
50
269.5428461
51
269.9978814
0
ARC
8
DEFAULT_255_2_778
10
68.4765158
20
264.9054665
40
171.2155801
50
268.4826413
51
269.5296692
0
ARC
8
DEFAULT_255_2_778
10
69.3355446
20
298.1868824
40
204.5080742
50
267.8281553
51
268.4889612
0
ARC
8
DEFAULT_255_2_778
10
70.724976
20
335.2746177
40
241.6218235
50
267.4098317
51
267.8322035
0
ARC
8
DEFAULT_255_2_778
10
72.9371131
20
384.0015229
40
290.3989164
50
267.009556
51
267.4082865
0
ARC
8
DEFAULT_255_2_778
10
76.5915641
20
454.2203509
40
360.7127748
50
266.7415292
51
267.0117479
0
ARC
8
DEFAULT_255_2_778
10
82.2307082
20
553.2773934
40
459.9302006
50
266.5273621
51
266.7415808
0
ARC
8
DEFAULT_255_2_778
10
54.1116884
20
91.5926741
40
2.6120161
50
84.2831281
51
86.0269784
0
ARC
8
DEFAULT_255_2_778
10
54.1192142
20
91.7010882
40
2.503341
50
86.0268868
51
87.864399
0
ARC
8
DEFAULT_255_2_778
10
54.1230111
20
91.8024132
40
2.4019448
50
87.8648394
51
89.7252091
0
ARC
8
DEFAULT_255_2_778
10
54.1235515
20
91.8681557
40
2.3362006
50
89.730728
51
90.0008499
0
ARC
8
DEFAULT_255_2_778
10
54.1193281
20
92.0417131
40
2.1626473
50
89.8890257
51
98.4865554
0
ARC
8
DEFAULT_255_2_778
10
54.0782232
20
92.315968
40
1.8853294
50
98.4810544
51
109.0611241
0
ARC
8
DEFAULT_255_2_778
10
54.0244875
20
92.4729622
40
1.7193943
50
109.0771605
51
123.1027837
0
ARC
8
DEFAULT_255_2_778
10
54.0900635
20
92.4072806
40
1.8103295
50
123.706062
51
159.7857816
0
ARC
8
DEFAULT_255_2_778
10
54.4298976
20
92.2615775
40
2.1796627
50
159.2782974
51
180.1205532
0
ARC
8
DEFAULT_255_2_778
10
54.4894596
20
92.2569882
40
2.23922
50
179.9999203
51
181.2853071
0
ARC
8
DEFAULT_255_2_778
10
54.3404997
20
92.2354354
40
2.0898935
50
180.7861684
51
217.4631099
0
ARC
8
DEFAULT_255_2_778
10
54.1497963
20
92.1146702
40
1.8651769
50
218.0817554
51
234.1366634
0
ARC
8
DEFAULT_255_2_778
10
54.1864682
20
92.1686032
40
1.9303704
50
234.1923858
51
245.9295474
0
ARC
8
DEFAULT_255_2_778
10
54.2647085
20
92.3443467
40
2.1227432
50
245.9360753
51
255.2980917
0
ARC
8
DEFAULT_255_2_778
10
54.3383098
20
92.6237384
40
2.4116668
50
255.2913273
51
263.0078945
0
ARC
8
DEFAULT_255_2_778
10
54.368719
20
92.8387855
40
2.6288194
50
262.9206093
51
264.2924054
0
ARC
8
DEFAULT_255_2_778
10
59.6091851
20
146.866085
40
56.909667
50
264.4520996
51
269.5219665
0
ARC
8
DEFAULT_255_2_778
10
44.373365
20
28.1568838
40
62.0557855
50
94.3235767
51
95.1885136
0
ARC
8
DEFAULT_255_2_778
10
44.6963954
20
23.9232343
40
66.3017399
50
93.6437796
51
94.3261176
0
ARC
8
DEFAULT_255_2_778
10
44.8647102
20
21.3036582
40
68.9267173
50
93.0593465
51
93.6450202
0
ARC
8
DEFAULT_255_2_778
10
44.9195623
20
20.2983435
40
69.9335267
50
92.5627387
51
93.0602641
0
ARC
8
DEFAULT_255_2_778
10
44.8945879
20
20.8704197
40
69.3609059
50
92.1590661
51
92.5632591
0
ARC
8
DEFAULT_255_2_778
10
44.8221554
20
22.7973338
40
67.4326308
50
91.8295351
51
92.1592472
0
ARC
8
DEFAULT_255_2_778
10
44.7297273
20
25.6917856
40
64.5367037
50
91.5578061
51
91.8295594
0
ARC
8
DEFAULT_255_2_778
10
44.6307739
20
29.3303641
40
60.89678
50
91.3316313
51
91.5578059
0
ARC
8
DEFAULT_255_2_778
10
44.5150416
20
34.3698708
40
55.8559447
50
91.0519955
51
91.3330811
0
ARC
8
DEFAULT_255_2_778
10
44.3824882
20
41.6068686
40
48.6177331
50
90.8008514
51
91.0523944
0
ARC
8
DEFAULT_255_2_778
10
44.2670645
20
49.8644259
40
40.3593692
50
90.5877788
51
90.8008568
0
ARC
8
DEFAULT_255_2_778
10
44.1657254
20
59.8930767
40
30.3302066
50
90.3629837
51
90.5906976
0
ARC
8
DEFAULT_255_2_778
10
44.0935059
20
71.336626
40
18.8864295
50
90.1838009
51
90.3638311
0
ARC
8
DEFAULT_255_2_778
10
44.0578334
20
82.8208797
40
7.4021205
50
90.0368047
51
90.1928443
0
ARC
8
DEFAULT_255_2_778
10
43.8101647
20
92.6906783
40
2.4796067
50
275.6219796
51
283.062062
0
ARC
8
DEFAULT_255_2_778
10
43.879985
20
92.3912993
40
2.1721943
50
283.0527714
51
292.1051368
0
ARC
8
DEFAULT_255_2_778
10
43.9600245
20
92.1938875
40
1.959174
50
292.1089784
51
303.2833119
0
ARC
8
DEFAULT_255_2_778
10
44.010811
20
92.1142016
40
1.8646889
50
303.32246
51
318.4853744
0
ARC
8
DEFAULT_255_2_778
10
43.8831732
20
92.2062392
40
2.0213268
50
318.9299303
51
350.3701577
0
ARC
8
DEFAULT_255_2_778
10
43.6871869
20
92.2561137
40
2.222955
50
349.9477929
51
358.7278323
0
ARC
8
DEFAULT_255_2_778
10
43.6715193
20
92.256955
40
2.2386375
50
358.7152105
51
0.0003043
0
ARC
8
DEFAULT_255_2_778
10
43.7811204
20
92.2686321
40
2.1290683
50
359.6860728
51
29.1156558
0
ARC
8
DEFAULT_255_2_778
10
44.1090051
20
92.4467388
40
1.7559577
50
29.2441896
51
57.4329126
0
ARC
8
DEFAULT_255_2_778
10
44.1335506
20
92.4681664
40
1.7247112
50
57.7369407
51
71.5514613
0
ARC
8
DEFAULT_255_2_778
10
44.078975
20
92.30293
40
1.8987264
50
71.5671133
51
82.1279656
0
ARC
8
DEFAULT_255_2_778
10
44.040514
20
92.0307721
40
2.1735874
50
82.1062569
51
90.0968292
0
ARC
8
DEFAULT_255_2_778
10
44.0370883
20
91.8171784
40
2.387178
50
90.0059435
51
91.830674
0
ARC
8
DEFAULT_255_2_778
10
44.0402369
20
91.7189388
40
2.4854682
50
91.8308738
51
93.6752678
0
ARC
8
DEFAULT_255_2_778
10
44.0466821
20
91.6174531
40
2.5871584
50
93.6736413
51
95.2095162
0
ARC
8
DEFAULT_255_2_778
10
44.0523939
20
91.5528611
40
2.6520021
50
95.2057002
51
95.7112712
0
LINE
8
DEFAULT_255_2_778
10
43.7884786
20
94.1916988
11
43.7871927
21
94.191613
0
ARC
8
DEFAULT_255_2_778
10
-153.5323189
20
3048.141513
40
2960.5328915
50
273.7908408
51
273.8215966
0
ARC
8
DEFAULT_255_2_778
10
-6.4883163
20
829.2337605
40
736.7582735
50
273.6821762
51
273.7892433
0
ARC
8
DEFAULT_255_2_778
10
13.2564958
20
522.5635911
40
429.4531315
50
273.5223924
51
273.6809595
0
ARC
8
DEFAULT_255_2_778
10
20.8938294
20
398.5744939
40
305.2290395
50
273.3292283
51
273.521419
0
ARC
8
DEFAULT_255_2_778
10
24.8285548
20
330.9913413
40
237.5314431
50
273.1159132
51
273.3284304
0
ARC
8
DEFAULT_255_2_778
10
27.1548513
20
288.2993875
40
194.7761562
50
272.8923015
51
273.1152403
0
ARC
8
DEFAULT_255_2_778
10
28.9350104
20
252.9000568
40
159.3320946
50
272.5450773
51
272.8952914
0
ARC
8
DEFAULT_255_2_778
10
30.2891743
20
222.4326853
40
128.8346441
50
272.1453861
51
272.5451159
0
ARC
8
DEFAULT_255_2_778
10
31.1317611
20
199.9764847
40
106.3626418
50
271.7242941
51
272.1446634
0
ARC
8
DEFAULT_255_2_778
10
31.6029402
20
184.4527161
40
90.8317246
50
271.3620519
51
271.7218627
0
ARC
8
DEFAULT_255_2_778
10
31.9239605
20
170.6676036
40
77.0428765
50
270.787742
51
271.3670667
0
ARC
8
DEFAULT_255_2_778
10
32.1012593
20
157.9099093
40
64.2839504
50
270.2161137
51
270.7860611
0
ARC
8
DEFAULT_255_2_778
10
32.1343763
20
151.0532472
40
57.4272125
50
270.001066
51
270.2088761
0
ARC
8
DEFAULT_255_2_778
10
32.1290423
20
145.3939297
40
51.7678953
50
269.4302584
51
270.0070861
0
ARC
8
DEFAULT_255_2_778
10
32.0586183
20
138.3019398
40
44.6755556
50
268.8235094
51
269.4301301
0
ARC
8
DEFAULT_255_2_778
10
31.9368026
20
132.3663929
40
38.7387588
50
268.1886396
51
268.8233914
0
ARC
8
DEFAULT_255_2_778
10
31.7785581
20
127.3586805
40
33.7285468
50
267.5270368
51
268.1884305
0
ARC
8
DEFAULT_255_2_778
10
31.5956662
20
123.1211751
40
29.4870964
50
266.8404707
51
267.5268074
0
ARC
8
DEFAULT_255_2_778
10
31.3465695
20
118.6844629
40
25.0433994
50
265.7592209
51
266.850041
0
ARC
8
DEFAULT_255_2_778
10
31.0255547
20
114.3508356
40
20.6978987
50
264.6196909
51
265.7583154
0
ARC
8
DEFAULT_255_2_778
10
30.6768653
20
110.665726
40
16.9963299
50
263.2337718
51
264.6251337
0
ARC
8
DEFAULT_255_2_778
10
30.285325
20
107.3768239
40
13.6842037
50
261.580939
51
263.2392956
0
ARC
8
DEFAULT_255_2_778
10
29.8938642
20
104.7279099
40
11.0065206
50
259.8797325
51
261.5778632
0
ARC
8
DEFAULT_255_2_778
10
29.5000546
20
102.5327124
40
8.7762801
50
257.7077592
51
259.8924846
0
ARC
8
DEFAULT_255_2_778
10
29.0801051
20
100.6113914
40
6.8096001
50
255.0683773
51
257.7184978
0
ARC
8
DEFAULT_255_2_778
10
28.6708896
20
99.0786726
40
5.223194
50
252.04272
51
255.0735136
0
ARC
8
DEFAULT_255_2_778
10
28.2723924
20
97.8547434
40
3.9360272
50
248.1461454
51
252.0680225
0
ARC
8
DEFAULT_255_2_778
10
27.8775576
20
96.874395
40
2.8791572
50
243.139581
51
248.1766977
0
ARC
8
DEFAULT_255_2_778
10
27.5053769
20
96.142847
40
2.0583784
50
236.6048601
51
243.1813089
0
ARC
8
DEFAULT_255_2_778
10
27.2902234
20
95.8069887
40
1.6595577
50
234.4773155
51
236.4243208
0
LINE
8
DEFAULT_255_2_778
10
54.1072786
20
19.8437988
11
68.9239786
21
63.2354988
0
LINE
8
DEFAULT_255_2_778
10
68.9239786
20
63.2354988
11
84.2697786
21
21.1666988
0
LINE
8
DEFAULT_255_2_778
10
84.2697786
20
21.1666988
11
91.9426786
21
25.4000988
0
LINE
8
DEFAULT_255_2_778
10
91.9426786
20
25.4000988
11
106.7593786
21
68.2625988
0
LINE
8
DEFAULT_255_2_778
10
91.6780786
20
38.6291988
11
74.4801786
21
89.9583988
0
LINE
8
DEFAULT_255_2_778
10
59.1343786
20
89.9583988
11
66.5426786
21
69.5854988
0
LINE
8
DEFAULT_255_2_778
10
66.5426786
20
69.5854988
11
55.9593786
21
38.1000988
0
LINE
8
DEFAULT_255_2_778
10
55.9593786
20
38.1000988
11
38.7614786
21
89.9583988
0
LINE
8
DEFAULT_255_2_778
10
26.3259786
20
94.4562988
11
23.9447786
21
87.8416988
0
LINE
8
DEFAULT_255_2_778
10
23.9447786
20
87.8416988
11
47.2280786
21
23.5479988
0
LINE
8
DEFAULT_255_2_778
10
47.2280786
20
23.5479988
11
54.1072786
21
19.8437988
0
ENDSEC
0
EOF