0
SECTION
2
HEADER
9
$MEASUREMENT
70
1
0
ENDSEC
0
SECTION
2
TABLES
0
TABLE
2
LTYPE
0
LTYPE
72
65
70
64
2
CONTINUOUS
3
______
73
0
40
0
0
ENDTAB
0
TABLE
2
LAYER
0
LAYER
2
DEFAULT_255_2_778
70
0
62
255
6
CONTINUOUS
0
ENDTAB
0
ENDSEC
0
SECTION
2
ENTITIES
0
ARC
8
DEFAULT_255_2_778
10
22.8416485
20
112.9019835
40
20.7249804
50
173.886013
51
180.011755
0
ARC
8
DEFAULT_255_2_778
10
22.486086
20
112.9393827
40
20.3674571
50
166.8527399
51
173.8840907
0
ARC
8
DEFAULT_255_2_778
10
22.3202695
20
112.9769545
40
20.1974409
50
158.3761194
51
166.8495381
0
ARC
8
DEFAULT_255_2_778
10
22.3320891
20
112.9702487
40
20.2109
50
147.2481015
51
158.3707948
0
ARC
8
DEFAULT_255_2_778
10
22.4188182
20
112.9145904
40
20.3139522
50
117.5455429
51
147.2484141
0
ARC
8
DEFAULT_255_2_778
10
22.353249
20
113.0261666
40
20.1847022
50
108.1855724
51
117.5269853
0
ARC
8
DEFAULT_255_2_778
10
22.3690018
20
112.9733633
40
20.2397843
50
100.3371356
51
108.1812872
0
ARC
8
DEFAULT_255_2_778
10
22.4108294
20
112.7398745
40
20.4769889
50
93.8756307
51
100.3350412
0
ARC
8
DEFAULT_255_2_778
10
22.4348369
20
112.4098384
40
20.8078931
50
89.9949565
51
93.8801608
0
ARC
8
DEFAULT_255_2_778
10
117.2676206
20
112.4927515
40
20.7249804
50
83.886013
51
90.011755
0
ARC
8
DEFAULT_255_2_778
10
117.3050198
20
112.848314
40
20.3674571
50
76.8527399
51
83.8840907
0
ARC
8
DEFAULT_255_2_778
10
117.3425916
20
113.0141305
40
20.1974409
50
68.3761194
51
76.8495381
0
ARC
8
DEFAULT_255_2_778
10
117.3358858
20
113.0023109
40
20.2109
50
57.2481015
51
68.3707948
0
ARC
8
DEFAULT_255_2_778
10
117.2802275
20
112.9155818
40
20.3139522
50
27.5455429
51
57.2484141
0
ARC
8
DEFAULT_255_2_778
10
117.3918037
20
112.981151
40
20.1847022
50
18.1855724
51
27.5269853
0
ARC
8
DEFAULT_255_2_778
10
117.3390004
20
112.9653982
40
20.2397843
50
10.3371356
51
18.1812872
0
ARC
8
DEFAULT_255_2_778
10
117.1055116
20
112.9235706
40
20.4769889
50
3.8756307
51
10.3350412
0
ARC
8
DEFAULT_255_2_778
10
116.7754755
20
112.8995631
40
20.8078931
50
359.9949565
51
3.8801608
0
ARC
8
DEFAULT_255_2_778
10
116.8583886
20
18.0667794
40
20.7249804
50
353.886013
51
0.011755
0
ARC
8
DEFAULT_255_2_778
10
117.2139511
20
18.0293802
40
20.3674571
50
346.8527399
51
353.8840907
0
ARC
8
DEFAULT_255_2_778
10
117.3797676
20
17.9918084
40
20.1974409
50
338.3761194
51
346.8495381
0
ARC
8
DEFAULT_255_2_778
10
117.367948
20
17.9985142
40
20.2109
50
327.2481015
51
338.3707948
0
ARC
8
DEFAULT_255_2_778
10
117.2812189
20
18.0541725
40
20.3139522
50
297.5455429
51
327.2484141
0
ARC
8
DEFAULT_255_2_778
10
117.3467881
20
17.9425963
40
20.1847022
50
288.1855724
51
297.5269853
0
ARC
8
DEFAULT_255_2_778
10
117.3310353
20
17.9953996
40
20.2397843
50
280.3371356
51
288.1812872
0
ARC
8
DEFAULT_255_2_778
10
117.2892077
20
18.2288884
40
20.4769889
50
273.8756307
51
280.3350412
0
ARC
8
DEFAULT_255_2_778
10
117.2652002
20
18.5589245
40
20.8078931
50
269.9949565
51
273.8801608
0
ARC
8
DEFAULT_255_2_778
10
22.4324165
20
18.4760114
40
20.7249804
50
263.886013
51
270.011755
0
ARC
8
DEFAULT_255_2_778
10
22.3950173
20
18.1204489
40
20.3674571
50
256.8527399
51
263.8840907
0
ARC
8
DEFAULT_255_2_778
10
22.3574455
20
17.9546324
40
20.1974409
50
248.3761194
51
256.8495381
0
ARC
8
DEFAULT_255_2_778
10
22.3641513
20
17.966452
40
20.2109
50
237.2481015
51
248.3707948
0
ARC
8
DEFAULT_255_2_778
10
22.4198096
20
18.0531811
40
20.3139522
50
207.5455429
51
237.2484141
0
ARC
8
DEFAULT_255_2_778
10
22.3082334
20
17.9876119
40
20.1847022
50
198.1855724
51
207.5269853
0
ARC
8
DEFAULT_255_2_778
10
22.3610367
20
18.0033647
40
20.2397843
50
190.3371356
51
198.1812872
0
ARC
8
DEFAULT_255_2_778
10
22.5945255
20
18.0451923
40
20.4769889
50
183.8756307
51
190.3350412
0
ARC
8
DEFAULT_255_2_778
10
22.9245616
20
18.0691998
40
20.8078931
50
179.9949565
51
183.8801608
0
LINE
8
DEFAULT_255_2_778
10
22.4366686
20
133.2177314
11
117.2633686
21
133.2177314
0
LINE
8
DEFAULT_255_2_778
10
137.5833686
20
112.8977314
11
137.5833686
21
18.0710314
0
LINE
8
DEFAULT_255_2_778
10
117.2633686
20
-2.2489686
11
22.4366686
21
-2.2489686
0
LINE
8
DEFAULT_255_2_778
10
2.1166686
20
18.0710314
11
2.1166686
21
112.8977314
0
ARC
8
DEFAULT_255_2_778
10
92.502479
20
87.3965032
40
0.424325
50
332.6288698
51
343.4441909
0
ARC
8
DEFAULT_255_2_778
10
92.6310049
20
87.3546549
40
0.2892239
50
344.1355795
51
350.5601537
0
ARC
8
DEFAULT_255_2_778
10
92.3287308
20
87.3880542
40
0.5931156
50
352.1668086
51
1.6573676
0
ARC
8
DEFAULT_255_2_778
10
77.8344248
20
87.411818
40
15.0871749
50
359.9748995
51
0.0045598
0
ARC
8
DEFAULT_255_2_778
10
92.4799909
20
90.895347
40
0.4417439
50
358.5824183
51
34.4708102
0
ARC
8
DEFAULT_255_2_778
10
92.5250581
20
90.9088825
40
0.3971882
50
36.5410891
51
86.3668752
0
ARC
8
DEFAULT_255_2_778
10
92.4987397
20
90.7647303
40
0.5429886
50
84.5589276
51
90.0464392
0
ARC
8
DEFAULT_255_2_778
10
65.5568624
20
90.8364523
40
0.4719218
50
93.0199792
51
141.6691414
0
ARC
8
DEFAULT_255_2_778
10
65.6334884
20
90.7480797
40
0.5872442
50
139.5417221
51
153.3568784
0
ARC
8
DEFAULT_255_2_778
10
44.3128707
20
90.9015883
40
0.4062568
50
15.6849379
51
88.5713327
0
ARC
8
DEFAULT_255_2_778
10
37.1748424
20
90.7872192
40
0.5227582
50
95.3280973
51
137.7480056
0
ARC
8
DEFAULT_255_2_778
10
37.0120349
20
90.9138333
40
0.3175057
50
134.9043896
51
134.9808347
0
ARC
8
DEFAULT_255_2_778
10
37.3495993
20
90.9478691
40
0.5934247
50
161.2704371
51
179.9087625
0
ARC
8
DEFAULT_255_2_778
10
37.3000013
20
90.9478812
40
0.5438268
50
179.9017226
51
180
0
ARC
8
DEFAULT_255_2_778
10
37.3489177
20
90.947856
40
0.5927431
50
179.9975615
51
198.7404309
0
ARC
8
DEFAULT_255_2_778
10
23.4812351
20
90.8825016
40
0.4694046
50
21.3924339
51
82.1448155
0
ARC
8
DEFAULT_255_2_778
10
23.4955463
20
90.8553655
40
0.4946537
50
84.2169517
51
90.0633206
0
ARC
8
DEFAULT_255_2_778
10
16.2619045
20
90.830159
40
0.5220992
50
95.3086297
51
137.8214772
0
ARC
8
DEFAULT_255_2_778
10
16.3839878
20
90.9195782
40
0.5720694
50
152.8395391
51
170.0413846
0
ARC
8
DEFAULT_255_2_778
10
16.2280267
20
90.9515936
40
0.4129468
50
170.6743157
51
179.8712283
0
ARC
8
DEFAULT_255_2_778
10
16.162981
20
90.9510359
40
0.3479032
50
179.7553032
51
198.2615318
0
ARC
8
DEFAULT_255_2_778
10
33.2750876
20
33.3766981
40
0.3970526
50
195.7804707
51
255.1509959
0
ARC
8
DEFAULT_255_2_778
10
33.3149275
20
33.471935
40
0.4995181
50
253.5331576
51
270.1573835
0
ARC
8
DEFAULT_255_2_778
10
33.3249029
20
33.3859027
40
0.4135735
50
268.808029
51
305.0339319
0
ARC
8
DEFAULT_255_2_778
10
33.2086124
20
33.5121006
40
0.584108
50
307.2684943
51
335.3752986
0
ARC
8
DEFAULT_255_2_778
10
54.7380876
20
33.4189981
40
0.3970526
50
195.7804707
51
255.1509959
0
ARC
8
DEFAULT_255_2_778
10
54.7779275
20
33.514235
40
0.4995181
50
253.5331576
51
270.1573835
0
ARC
8
DEFAULT_255_2_778
10
54.7879029
20
33.4282027
40
0.4135735
50
268.808029
51
305.0339319
0
ARC
8
DEFAULT_255_2_778
10
54.6716124
20
33.5544006
40
0.584108
50
307.2684943
51
335.3752986
0
ARC
8
DEFAULT_255_2_778
10
73.3183134
20
67.4902319
40
0.4255696
50
152.6546189
51
163.4442647
0
ARC
8
DEFAULT_255_2_778
10
73.1887184
20
67.5324092
40
0.2893501
50
164.1375121
51
170.5596219
0
ARC
8
DEFAULT_255_2_778
10
73.4911212
20
67.4990125
40
0.5933689
50
172.168143
51
181.6586284
0
ARC
8
DEFAULT_255_2_778
10
88.0182936
20
67.4752209
40
15.1202941
50
179.9749267
51
180.0045555
0
ARC
8
DEFAULT_255_2_778
10
73.3396083
20
63.5260905
40
0.4417439
50
178.5824183
51
214.4708102
0
ARC
8
DEFAULT_255_2_778
10
73.2945411
20
63.512555
40
0.3971882
50
216.5410891
51
266.3668752
0
ARC
8
DEFAULT_255_2_778
10
73.3208595
20
63.6567071
40
0.5429886
50
264.5589276
51
270.0464392
0
ARC
8
DEFAULT_255_2_778
10
78.9027736
20
58.4051646
40
4.7085587
50
58.3154801
51
89.9205886
0
ARC
8
DEFAULT_255_2_778
10
78.3666264
20
57.4712741
40
5.7849642
50
48.1758962
51
58.6550213
0
ARC
8
DEFAULT_255_2_778
10
77.5955496
20
56.6020588
40
6.9468907
50
40.3411393
51
48.2173804
0
ARC
8
DEFAULT_255_2_778
10
76.5972574
20
55.7484829
40
8.2603454
50
34.1498285
51
40.3714302
0
ARC
8
DEFAULT_255_2_778
10
75.3735877
20
54.9173213
40
9.739601
50
28.4924344
51
34.1552909
0
ARC
8
DEFAULT_255_2_778
10
73.908667
20
54.1197214
40
11.4075799
50
23.4851886
51
28.503308
0
ARC
8
DEFAULT_255_2_778
10
72.3034398
20
53.4191317
40
13.1590289
50
19.1307611
51
23.4976097
0
ARC
8
DEFAULT_255_2_778
10
70.6025312
20
52.827753
40
14.9598114
50
15.0587486
51
19.1356946
0
ARC
8
DEFAULT_255_2_778
10
68.8101616
20
52.3442444
40
16.8162509
50
11.2083288
51
15.0629411
0
ARC
8
DEFAULT_255_2_778
10
66.9752216
20
51.9795138
40
18.6870883
50
7.5129576
51
11.2117138
0
ARC
8
DEFAULT_255_2_778
10
65.1997333
20
51.7432345
40
20.4782282
50
4.1354889
51
7.5188474
0
ARC
8
DEFAULT_255_2_778
10
63.5089677
20
51.6205182
40
22.1734412
50
0.7452231
51
4.1366953
0
ARC
8
DEFAULT_255_2_778
10
62.5021883
20
51.5994168
40
23.1804114
50
359.999016
51
0.7650097
0
ARC
8
DEFAULT_255_2_778
10
55.7523738
20
51.5874105
40
29.9302281
50
358.197814
51
0.0222218
0
ARC
8
DEFAULT_255_2_778
10
59.8319502
20
51.4591171
40
25.8486349
50
356.2787148
51
358.1976627
0
ARC
8
DEFAULT_255_2_778
10
63.5184269
20
51.2161208
40
22.1541598
50
353.9203339
51
356.2870438
0
ARC
8
DEFAULT_255_2_778
10
66.9444615
20
50.8489878
40
18.7085113
50
351.1526311
51
353.9271104
0
ARC
8
DEFAULT_255_2_778
10
69.8685185
20
50.3934863
40
15.7491887
50
348.1341888
51
351.1539174
0
ARC
8
DEFAULT_255_2_778
10
72.3348825
20
49.8731286
40
13.2285303
50
344.5637582
51
348.1433027
0
ARC
8
DEFAULT_255_2_778
10
74.4312042
20
49.2926816
40
11.0533338
50
340.4016913
51
344.5717374
0
ARC
8
DEFAULT_255_2_778
10
76.1908752
20
48.6630253
40
9.1844041
50
335.1983716
51
340.4200522
0
ARC
8
DEFAULT_255_2_778
10
77.5978771
20
48.0112678
40
7.6337787
50
328.9619234
51
335.2091553
0
ARC
8
DEFAULT_255_2_778
10
78.6400054
20
47.3815685
40
6.4161799
50
320.9472402
51
328.9816828
0
ARC
8
DEFAULT_255_2_778
10
79.3477201
20
46.8019872
40
5.5014373
50
308.2340233
51
320.9909577
0
ARC
8
DEFAULT_255_2_778
10
79.4726751
20
46.6731819
40
5.3229624
50
289.5551685
51
308.0355748
0
ARC
8
DEFAULT_255_2_778
10
79.1659141
20
47.5086372
40
6.2129129
50
280.8190277
51
289.6421144
0
ARC
8
DEFAULT_255_2_778
10
78.9413731
20
48.6623108
40
7.3882291
50
274.3948737
51
280.8500213
0
ARC
8
DEFAULT_255_2_778
10
78.8333083
20
49.9939595
40
8.7242451
50
269.9428066
51
274.4323283
0
ARC
8
DEFAULT_255_2_778
10
78.8212971
20
49.8772334
40
8.6075153
50
266.1472398
51
270.021983
0
ARC
8
DEFAULT_255_2_778
10
78.7866416
20
49.3609302
40
8.0900505
50
261.9803789
51
266.146428
0
ARC
8
DEFAULT_255_2_778
10
78.731737
20
48.9686055
40
7.6939026
50
257.6326071
51
261.9776505
0
ARC
8
DEFAULT_255_2_778
10
78.6723379
20
48.6964271
40
7.4153183
50
252.8329114
51
257.6304876
0
ARC
8
DEFAULT_255_2_778
10
78.6269771
20
48.5477728
40
7.2598981
50
247.309588
51
252.8286743
0
ARC
8
DEFAULT_255_2_778
10
78.6303512
20
48.5528778
40
7.2659095
50
241.426996
51
247.3005699
0
ARC
8
DEFAULT_255_2_778
10
78.7234192
20
48.721288
40
7.4583212
50
235.6491147
51
241.4178834
0
ARC
8
DEFAULT_255_2_778
10
78.9402041
20
49.0362319
40
7.8406612
50
229.8834789
51
235.6398558
0
ARC
8
DEFAULT_255_2_778
10
79.301274
20
49.463905
40
8.4003713
50
224.5174258
51
229.8796984
0
ARC
8
DEFAULT_255_2_778
10
79.7736546
20
49.9294
40
9.0635672
50
219.9402845
51
224.5219574
0
ARC
8
DEFAULT_255_2_778
10
80.2862149
20
50.359985
40
9.7329851
50
216.0974134
51
219.9466273
0
ARC
8
DEFAULT_255_2_778
10
80.5616323
20
50.5652985
40
10.07649
50
215.8757515
51
216.1180645
0
ARC
8
DEFAULT_255_2_778
10
80.7944014
20
50.7307044
40
10.3620334
50
212.8023676
51
215.8625754
0
ARC
8
DEFAULT_255_2_778
10
81.1723108
20
50.9752879
40
10.8121844
50
210.270509
51
212.8068905
0
ARC
8
DEFAULT_255_2_778
10
81.4313284
20
51.1271785
40
11.1124518
50
208.1484244
51
210.2736783
0
ARC
8
DEFAULT_255_2_778
10
81.556504
20
51.1946327
40
11.2546446
50
206.3506155
51
208.150582
0
ARC
8
DEFAULT_255_2_778
10
81.5358747
20
51.1848209
40
11.2318039
50
204.5631281
51
206.3524741
0
ARC
8
DEFAULT_255_2_778
10
81.3280454
20
51.0902252
40
11.0034594
50
202.9494232
51
204.564995
0
ARC
8
DEFAULT_255_2_778
10
80.9078994
20
50.9126388
40
10.547324
50
201.4942433
51
202.9510112
0
ARC
8
DEFAULT_255_2_778
10
80.2927592
20
50.6704712
40
9.8862322
50
200.2549448
51
201.4946272
0
ARC
8
DEFAULT_255_2_778
10
79.4349589
20
50.3547556
40
8.972177
50
198.9186312
51
200.2599037
0
ARC
8
DEFAULT_255_2_778
10
78.4478792
20
50.0155717
40
7.9284475
50
197.9969212
51
198.9126682
0
ARC
8
DEFAULT_255_2_778
10
77.3090599
20
49.6471122
40
6.7315059
50
196.759855
51
198.0090447
0
ARC
8
DEFAULT_255_2_778
10
75.763663
20
49.182893
40
5.1178922
50
195.3726455
51
196.7725293
0
ARC
8
DEFAULT_255_2_778
10
74.1951991
20
48.7518012
40
3.491264
50
194.0098244
51
195.3746973
0
ARC
8
DEFAULT_255_2_778
10
72.7197475
20
48.3860137
40
1.9711492
50
191.9791892
51
194.0761725
0
ARC
8
DEFAULT_255_2_778
10
71.466292
20
48.1232759
40
0.6904645
50
188.1197554
51
192.2402971
0
ARC
8
DEFAULT_255_2_778
10
70.9223514
20
48.046169
40
0.1410869
50
181.2794335
51
188.3202387
0
ARC
8
DEFAULT_255_2_778
10
70.3696086
20
47.9151109
40
0.4311031
50
17.2594395
51
62.3606087
0
ARC
8
DEFAULT_255_2_778
10
70.3781513
20
47.7372358
40
0.5916159
50
71.1190785
51
89.3948625
0
ARC
8
DEFAULT_255_2_778
10
70.3778317
20
47.9678822
40
0.3609963
50
88.9575047
51
111.1894165
0
ARC
8
DEFAULT_255_2_778
10
70.3418886
20
48.0754355
40
0.2477811
50
112.4294975
51
116.585187
0
ARC
8
DEFAULT_255_2_778
10
65.1572042
20
45.3494894
40
0.3493234
50
112.4155724
51
164.2627944
0
ARC
8
DEFAULT_255_2_778
10
65.2945119
20
45.2948855
40
0.4965305
50
162.4951924
51
173.3224939
0
ARC
8
DEFAULT_255_2_778
10
65.3401249
20
45.2886214
40
0.5425633
50
173.2255887
51
180.0139359
0
ARC
8
DEFAULT_255_2_778
10
65.3176199
20
45.2871885
40
0.5200599
50
179.8566716
51
192.8417101
0
ARC
8
DEFAULT_255_2_778
10
65.249737
20
45.2737074
40
0.4508829
50
193.0886986
51
194.0275309
0
ARC
8
DEFAULT_255_2_778
10
93.0104958
20
56.7533295
40
30.4867368
50
202.3417101
51
204.7667547
0
ARC
8
DEFAULT_255_2_778
10
90.0674112
20
55.3929084
40
27.2444404
50
204.7617956
51
207.5839548
0
ARC
8
DEFAULT_255_2_778
10
87.5217058
20
54.0640844
40
24.3727878
50
207.5863116
51
210.4344783
0
ARC
8
DEFAULT_255_2_778
10
85.2931401
20
52.7509335
40
21.7861184
50
210.425735
51
213.931135
0
ARC
8
DEFAULT_255_2_778
10
83.3053004
20
51.4121893
40
19.389508
50
213.9276956
51
217.8748023
0
ARC
8
DEFAULT_255_2_778
10
81.6500982
20
50.1226567
40
17.2912742
50
217.8691486
51
222.4698742
0
ARC
8
DEFAULT_255_2_778
10
80.3167492
20
48.8998329
40
15.4820992
50
222.463531
51
227.9387223
0
ARC
8
DEFAULT_255_2_778
10
79.3163246
20
47.7881508
40
13.986545
50
227.9305307
51
234.8190268
0
ARC
8
DEFAULT_255_2_778
10
78.6593702
20
46.8474299
40
12.8391493
50
234.7964732
51
246.5167566
0
ARC
8
DEFAULT_255_2_778
10
78.6306146
20
46.8295435
40
12.8113002
50
246.6028331
51
258.0768602
0
ARC
8
DEFAULT_255_2_778
10
78.8581461
20
47.8875271
40
13.893467
50
258.060183
51
264.9922807
0
ARC
8
DEFAULT_255_2_778
10
78.983117
20
49.2665705
40
15.2781557
50
264.9768405
51
270.0408117
0
ARC
8
DEFAULT_255_2_778
10
78.9905009
20
42.6039366
40
8.6155186
50
270.0232675
51
271.9205158
0
ARC
8
DEFAULT_255_2_778
10
78.9510713
20
43.7986908
40
9.8109231
50
271.9168226
51
273.7006975
0
ARC
8
DEFAULT_255_2_778
10
78.8823349
20
44.8747996
40
10.8892248
50
273.6961526
51
275.2898863
0
ARC
8
DEFAULT_255_2_778
10
78.7982542
20
45.7896484
40
11.8079289
50
275.2868694
51
276.7321856
0
ARC
8
DEFAULT_255_2_778
10
78.69737
20
46.6416784
40
12.6659105
50
276.7335711
51
278.3865219
0
ARC
8
DEFAULT_255_2_778
10
78.5755181
20
47.4681793
40
13.5013457
50
278.3865367
51
280.1848981
0
ARC
8
DEFAULT_255_2_778
10
78.4542357
20
48.1472103
40
14.1911224
50
280.1820776
51
281.8004457
0
ARC
8
DEFAULT_255_2_778
10
78.3395644
20
48.6954564
40
14.7512325
50
281.8009485
51
283.6978035
0
ARC
8
DEFAULT_255_2_778
10
78.2382476
20
49.1134023
40
15.1812832
50
283.695785
51
285.4316236
0
ARC
8
DEFAULT_255_2_778
10
78.1597155
20
49.3983512
40
15.4768558
50
285.4311771
51
287.3575156
0
ARC
8
DEFAULT_255_2_778
10
78.1043484
20
49.5762954
40
15.6632146
50
287.3566344
51
289.34729
0
ARC
8
DEFAULT_255_2_778
10
78.0778484
20
49.6523822
40
15.7437838
50
289.3465493
51
291.5594758
0
ARC
8
DEFAULT_255_2_778
10
78.0840267
20
49.6373815
40
15.7275624
50
291.5586241
51
293.912302
0
ARC
8
DEFAULT_255_2_778
10
78.1221781
20
49.5516748
40
15.6337478
50
293.9118014
51
296.2344196
0
ARC
8
DEFAULT_255_2_778
10
78.1858688
20
49.4226802
40
15.4898864
50
296.2340175
51
298.6369675
0
ARC
8
DEFAULT_255_2_778
10
78.2847903
20
49.2427668
40
15.2845723
50
298.634734
51
301.9690397
0
ARC
8
DEFAULT_255_2_778
10
78.4229745
20
49.0219823
40
15.02411
50
301.9677825
51
305.863178
0
ARC
8
DEFAULT_255_2_778
10
78.5632957
20
48.827478
40
14.7842729
50
305.8640764
51
309.844647
0
ARC
8
DEFAULT_255_2_778
10
78.6643144
20
48.7056897
40
14.6260422
50
309.8464888
51
313.6682443
0
ARC
8
DEFAULT_255_2_778
10
78.7020284
20
48.6655219
40
14.5709458
50
313.6700322
51
317.6780674
0
ARC
8
DEFAULT_255_2_778
10
78.6506216
20
48.711546
40
14.6399426
50
317.6803489
51
321.6995264
0
ARC
8
DEFAULT_255_2_778
10
78.4891309
20
48.8385003
40
14.8453602
50
321.7012999
51
325.4972953
0
ARC
8
DEFAULT_255_2_778
10
78.2179748
20
49.02462
40
15.1742465
50
325.4981031
51
328.9717518
0
ARC
8
DEFAULT_255_2_778
10
77.8315013
20
49.256605
40
15.6249999
50
328.9732949
51
332.392909
0
ARC
8
DEFAULT_255_2_778
10
77.3111949
20
49.5283754
40
16.2120075
50
332.3939148
51
335.6909114
0
ARC
8
DEFAULT_255_2_778
10
76.658093
20
49.8232684
40
16.9285992
50
335.6912772
51
338.8088153
0
ARC
8
DEFAULT_255_2_778
10
75.8816357
20
50.1244011
40
17.7614057
50
338.8085081
51
341.703931
0
ARC
8
DEFAULT_255_2_778
10
74.9736025
20
50.424455
40
18.7177302
50
341.7044548
51
344.504237
0
ARC
8
DEFAULT_255_2_778
10
73.927414
20
50.7146798
40
19.8034285
50
344.5037509
51
347.1206686
0
ARC
8
DEFAULT_255_2_778
10
72.7514641
20
50.9836642
40
21.0097496
50
347.1203963
51
349.5990803
0
ARC
8
DEFAULT_255_2_778
10
71.5209185
20
51.2107715
40
22.2610765
50
349.5959426
51
351.6655213
0
ARC
8
DEFAULT_255_2_778
10
70.1851303
20
51.4057019
40
23.6110127
50
351.6673485
51
353.8511471
0
ARC
8
DEFAULT_255_2_778
10
68.6802086
20
51.5683914
40
25.1247023
50
353.8498732
51
355.8393968
0
ARC
8
DEFAULT_255_2_778
10
67.0336955
20
51.6878381
40
26.7755422
50
355.8400957
51
357.8310366
0
ARC
8
DEFAULT_255_2_778
10
65.3271293
20
51.7539714
40
28.4833887
50
357.8280228
51
359.4705975
0
ARC
8
DEFAULT_255_2_778
10
64.2035496
20
51.7679846
40
29.6070502
50
359.4635705
51
0.0008401
0
ARC
8
DEFAULT_255_2_778
10
62.0279506
20
51.7729259
40
31.7826493
50
359.9918748
51
1.6042906
0
ARC
8
DEFAULT_255_2_778
10
63.8366835
20
51.8232719
40
29.9732159
50
1.6048867
51
3.1952187
0
ARC
8
DEFAULT_255_2_778
10
65.5099445
20
51.9170996
40
28.2973262
50
3.1943739
51
4.9179234
0
ARC
8
DEFAULT_255_2_778
10
67.1141981
20
52.0554759
40
26.687116
50
4.9172009
51
6.7616611
0
ARC
8
DEFAULT_255_2_778
10
68.5664331
20
52.2272517
40
25.2247571
50
6.7625798
51
8.5613422
0
ARC
8
DEFAULT_255_2_778
10
69.9183074
20
52.4314859
40
23.8575426
50
8.5596434
51
10.6037634
0
ARC
8
DEFAULT_255_2_778
10
71.2021542
20
52.6718314
40
22.5513924
50
10.6037811
51
12.7176435
0
ARC
8
DEFAULT_255_2_778
10
72.3506389
20
52.9309368
40
21.3740425
50
12.7178748
51
14.8799999
0
ARC
8
DEFAULT_255_2_778
10
73.3918635
20
53.2078305
40
20.2966295
50
14.8793604
51
17.1968957
0
ARC
8
DEFAULT_255_2_778
10
74.337221
20
53.5004463
40
19.307021
50
17.1967967
51
19.6236726
0
ARC
8
DEFAULT_255_2_778
10
75.1700328
20
53.7972676
40
18.4228952
50
19.6240165
51
22.1110257
0
ARC
8
DEFAULT_255_2_778
10
75.880936
20
54.085852
40
17.6556505
50
22.1117559
51
24.608651
0
ARC
8
DEFAULT_255_2_778
10
76.493619
20
54.3665113
40
16.9817438
50
24.6085306
51
27.2566149
0
ARC
8
DEFAULT_255_2_778
10
77.0168325
20
54.6358592
40
16.3932708
50
27.2572401
51
29.9497431
0
ARC
8
DEFAULT_255_2_778
10
77.455641
20
54.888673
40
15.8868444
50
29.9498041
51
32.8048182
0
ARC
8
DEFAULT_255_2_778
10
77.8156711
20
55.1205581
40
15.4586013
50
32.8053827
51
35.7360876
0
ARC
8
DEFAULT_255_2_778
10
78.0950547
20
55.3213025
40
15.1145758
50
35.7369494
51
38.6837255
0
ARC
8
DEFAULT_255_2_778
10
78.3028762
20
55.487431
40
14.848515
50
38.6845419
51
41.6275707
0
ARC
8
DEFAULT_255_2_778
10
78.4473085
20
55.61545
40
14.6555138
50
41.6285593
51
44.3871409
0
ARC
8
DEFAULT_255_2_778
10
78.5430225
20
55.7088864
40
14.5217546
50
44.3878505
51
46.9701361
0
ARC
8
DEFAULT_255_2_778
10
78.5893491
20
55.7579901
40
14.4542477
50
46.9715524
51
47.8141046
0
ARC
8
DEFAULT_255_2_778
10
78.6209582
20
55.7930848
40
14.4070168
50
47.8135238
51
49.8193713
0
ARC
8
DEFAULT_255_2_778
10
78.6579243
20
55.8368109
40
14.3497589
50
49.8194932
51
51.6474283
0
ARC
8
DEFAULT_255_2_778
10
78.6910144
20
55.8787198
40
14.2963612
50
51.6472082
51
53.722319
0
ARC
8
DEFAULT_255_2_778
10
78.7283449
20
55.9296077
40
14.2332492
50
53.7222546
51
55.751398
0
ARC
8
DEFAULT_255_2_778
10
78.7739598
20
55.9966798
40
14.1521358
50
55.751229
51
57.6988617
0
ARC
8
DEFAULT_255_2_778
10
78.8281064
20
56.082357
40
14.0507828
50
57.6987975
51
59.3983904
0
ARC
8
DEFAULT_255_2_778
10
78.8968484
20
56.1987825
40
13.915578
50
59.3979784
51
61.1279424
0
ARC
8
DEFAULT_255_2_778
10
78.9874266
20
56.3632325
40
13.727833
50
61.1275826
51
62.7930161
0
ARC
8
DEFAULT_255_2_778
10
79.0955423
20
56.5734618
40
13.4914321
50
62.7931676
51
64.2211003
0
ARC
8
DEFAULT_255_2_778
10
79.21097
20
56.8123878
40
13.226085
50
64.2212363
51
65.4287597
0
ARC
8
DEFAULT_255_2_778
10
79.3502758
20
57.1179115
40
12.8903012
50
65.4271898
51
66.8294449
0
ARC
8
DEFAULT_255_2_778
10
79.5191171
20
57.5123484
40
12.4612466
50
66.8295519
51
68.0506827
0
ARC
8
DEFAULT_255_2_778
10
79.710266
20
57.987349
40
11.9492277
50
68.0494586
51
69.3059273
0
ARC
8
DEFAULT_255_2_778
10
79.9072123
20
58.5077189
40
11.3928352
50
69.3076983
51
70.239749
0
ARC
8
DEFAULT_255_2_778
10
80.109486
20
59.0717276
40
10.7936522
50
70.2380503
51
71.2570691
0
ARC
8
DEFAULT_255_2_778
10
80.3237206
20
59.7025178
40
10.1274745
50
71.2581245
51
72.0849638
0
ARC
8
DEFAULT_255_2_778
10
80.5351369
20
60.3568924
40
9.4397951
50
72.0842096
51
72.892492
0
ARC
8
DEFAULT_255_2_778
10
98.8438584
20
59.3752679
40
0.5530945
50
283.7477091
51
337.7245549
0
ARC
8
DEFAULT_255_2_778
10
98.2657474
20
59.7114375
40
1.218963
50
333.3987587
51
338.3348432
0
ARC
8
DEFAULT_255_2_778
10
182.3588496
20
56.054873
40
83.0221959
50
176.8608714
51
177.7865287
0
ARC
8
DEFAULT_255_2_778
10
176.8207081
20
56.3584631
40
77.4757394
50
175.9271314
51
176.8607693
0
ARC
8
DEFAULT_255_2_778
10
171.7264388
20
56.7210365
40
72.3685837
50
174.9895085
51
175.9270021
0
ARC
8
DEFAULT_255_2_778
10
167.0534021
20
57.1305654
40
67.6776364
50
174.0485433
51
174.9893642
0
ARC
8
DEFAULT_255_2_778
10
162.7568545
20
57.5783134
40
63.3578217
50
173.104675
51
174.0484019
0
ARC
8
DEFAULT_255_2_778
10
158.815759
20
58.0547641
40
59.3880309
50
172.1585053
51
173.1045332
0
ARC
8
DEFAULT_255_2_778
10
155.1904729
20
58.5538681
40
55.7285495
50
171.2104685
51
172.1583285
0
ARC
8
DEFAULT_255_2_778
10
151.8564045
20
59.0692348
40
52.3548845
50
170.2611287
51
171.2103057
0
ARC
8
DEFAULT_255_2_778
10
148.789481
20
59.5954868
40
49.2431388
50
169.3110218
51
170.2609812
0
ARC
8
DEFAULT_255_2_778
10
145.9688228
20
60.127776
40
46.3726955
50
168.3607141
51
169.3108789
0
ARC
8
DEFAULT_255_2_778
10
142.7545976
20
60.7942167
40
43.0901101
50
166.9305479
51
168.3663896
0
ARC
8
DEFAULT_255_2_778
10
139.2854558
20
61.5992139
40
39.5287952
50
165.4969749
51
166.9300568
0
ARC
8
DEFAULT_255_2_778
10
136.2201695
20
62.3917948
40
36.362699
50
164.0681356
51
165.4964734
0
ARC
8
DEFAULT_255_2_778
10
133.2982072
20
63.2276338
40
33.3235399
50
162.4065978
51
164.0710107
0
ARC
8
DEFAULT_255_2_778
10
130.4054598
20
64.1459718
40
30.2885224
50
160.5747634
51
162.4085291
0
ARC
8
DEFAULT_255_2_778
10
127.7500716
20
65.082302
40
27.4728874
50
158.7002809
51
160.5745777
0
ARC
8
DEFAULT_255_2_778
10
125.4471424
20
65.9796011
40
25.0013235
50
156.8501878
51
158.69908
0
ARC
8
DEFAULT_255_2_778
10
123.4830418
20
66.8188634
40
22.8654275
50
155.0299225
51
156.8489976
0
ARC
8
DEFAULT_255_2_778
10
121.610468
20
67.6931838
40
20.7987964
50
152.7916779
51
155.0357041
0
ARC
8
DEFAULT_255_2_778
10
119.7151227
20
68.6695365
40
18.6667562
50
150.1781848
51
152.7969452
0
ARC
8
DEFAULT_255_2_778
10
118.0442708
20
69.6261925
40
16.7414158
50
147.6426647
51
150.1749336
0
ARC
8
DEFAULT_255_2_778
10
116.5616595
20
70.5678704
40
14.9850307
50
144.6034555
51
147.6501968
0
ARC
8
DEFAULT_255_2_778
10
115.2468387
20
71.501497
40
13.3724516
50
141.5491092
51
144.6011903
0
ARC
8
DEFAULT_255_2_778
10
114.1159753
20
72.4012432
40
11.9273242
50
138.0037817
51
141.5558744
0
ARC
8
DEFAULT_255_2_778
10
113.130258
20
73.2891543
40
10.600665
50
134.1720505
51
138.0057302
0
ARC
8
DEFAULT_255_2_778
10
112.2980337
20
74.1475091
40
9.405103
50
129.749269
51
134.1793689
0
ARC
8
DEFAULT_255_2_778
10
111.6031382
20
74.9847349
40
8.3170655
50
124.6554395
51
129.7566833
0
ARC
8
DEFAULT_255_2_778
10
111.0568363
20
75.7768039
40
7.3548713
50
118.7499029
51
124.6633968
0
ARC
8
DEFAULT_255_2_778
10
110.7332316
20
76.3578655
40
6.6897902
50
114.7325742
51
118.7136757
0
ARC
8
DEFAULT_255_2_778
10
110.5772753
20
76.6933087
40
6.3198676
50
111.7967747
51
114.7207285
0
ARC
8
DEFAULT_255_2_778
10
110.4746715
20
76.9502654
40
6.0431833
50
108.5284751
51
111.798137
0
ARC
8
DEFAULT_255_2_778
10
110.3929384
20
77.1945313
40
5.7856059
50
104.8677327
51
108.5297158
0
ARC
8
DEFAULT_255_2_778
10
110.3334894
20
77.4188222
40
5.55357
50
100.7521798
51
104.8686794
0
ARC
8
DEFAULT_255_2_778
10
110.2965886
20
77.6132978
40
5.3556244
50
96.1217881
51
100.7524867
0
ARC
8
DEFAULT_255_2_778
10
110.2800713
20
77.7669036
40
5.2011331
50
90.7757804
51
96.1213235
0
ARC
8
DEFAULT_255_2_778
10
110.2783062
20
77.8309135
40
5.1371053
50
90.0000735
51
90.7657612
0
ARC
8
DEFAULT_255_2_778
10
110.2773304
20
77.0019701
40
5.9660487
50
82.0666518
51
89.9906922
0
ARC
8
DEFAULT_255_2_778
10
110.2149563
20
76.6165313
40
6.3564134
50
71.1681926
51
81.9893264
0
ARC
8
DEFAULT_255_2_778
10
109.6812593
20
75.1782214
40
7.8901094
50
55.9665071
51
70.8715164
0
ARC
8
DEFAULT_255_2_778
10
108.2397867
20
72.9626395
40
10.5330431
50
48.6910681
51
56.2137259
0
ARC
8
DEFAULT_255_2_778
10
106.8572734
20
71.3578338
40
12.6511511
50
44.8475473
51
48.7855955
0
ARC
8
DEFAULT_255_2_778
10
105.7503116
20
70.2510048
40
14.216533
50
41.8864166
51
44.8639555
0
ARC
8
DEFAULT_255_2_778
10
105.1597492
20
69.713115
40
15.0153156
50
41.5154809
51
41.9098843
0
ARC
8
DEFAULT_255_2_778
10
104.6844837
20
69.2969056
40
15.6470565
50
39.3051577
51
41.5031455
0
ARC
8
DEFAULT_255_2_778
10
103.990347
20
68.7269694
40
16.5451943
50
37.5080905
51
39.3096798
0
ARC
8
DEFAULT_255_2_778
10
103.5142834
20
68.3604803
40
17.1459856
50
36.0135971
51
37.5109687
0
ARC
8
DEFAULT_255_2_778
10
103.2704215
20
68.1825413
40
17.4478641
50
34.7548043
51
36.0153888
0
ARC
8
DEFAULT_255_2_778
10
103.2517225
20
68.1691598
40
17.4708554
50
33.6824019
51
34.7559015
0
ARC
8
DEFAULT_255_2_778
10
103.4724729
20
68.3158325
40
17.2058207
50
32.6097068
51
33.6836533
0
ARC
8
DEFAULT_255_2_778
10
103.9849972
20
68.6433683
40
16.5975768
50
31.6340536
51
32.6107521
0
ARC
8
DEFAULT_255_2_778
10
104.7983093
20
69.1440918
40
15.6424849
50
30.7474723
51
31.6349767
0
ARC
8
DEFAULT_255_2_778
10
105.8678738
20
69.7803251
40
14.3979927
50
29.9861306
51
30.7475641
0
ARC
8
DEFAULT_255_2_778
10
107.0934256
20
70.4875376
40
12.9830275
50
29.321491
51
29.9859958
0
ARC
8
DEFAULT_255_2_778
10
108.4240191
20
71.2349571
40
11.4568837
50
28.7302755
51
29.3211906
0
ARC
8
DEFAULT_255_2_778
10
110.1361882
20
72.1717972
40
9.5051692
50
27.9265677
51
28.739374
0
ARC
8
DEFAULT_255_2_778
10
112.4161812
20
73.3789392
40
6.9253325
50
27.0085018
51
27.936846
0
ARC
8
DEFAULT_255_2_778
10
114.6717489
20
74.5283244
40
4.3937969
50
26.070497
51
27.0120523
0
ARC
8
DEFAULT_255_2_778
10
116.6847068
20
75.5103434
40
2.1540765
50
24.5593075
51
26.1382061
0
ARC
8
DEFAULT_255_2_778
10
118.1800463
20
76.1897309
40
0.5116536
50
20.9308928
51
24.9614392
0
ARC
8
DEFAULT_255_2_778
10
118.6266368
20
76.3592342
40
0.0340011
50
8.0892869
51
22.9915134
0
ARC
8
DEFAULT_255_2_778
10
119.0685536
20
76.6214084
40
0.4826186
50
212.2299849
51
249.9324609
0
ARC
8
DEFAULT_255_2_778
10
119.0005272
20
76.4639363
40
0.3115214
50
251.7468496
51
269.7190359
0
ARC
8
DEFAULT_255_2_778
10
119.0665323
20
76.3578082
40
0.2162071
50
251.7989773
51
270.3205872
0
ARC
8
DEFAULT_255_2_778
10
119.0628137
20
76.4466921
40
0.3051275
50
270.9254723
51
293.2606538
0
ARC
8
DEFAULT_255_2_778
10
119.0261323
20
76.5472735
40
0.4120635
50
292.4233992
51
296.6018877
0
ARC
8
DEFAULT_255_2_778
10
118.9587176
20
76.6681491
40
0.5503651
50
297.2422971
51
314.3835655
0
ARC
8
DEFAULT_255_2_778
10
118.8339185
20
76.8033861
40
0.7343269
50
313.9620642
51
323.2498531
0
ARC
8
DEFAULT_255_2_778
10
123.3653358
20
83.6270873
40
0.6111835
50
332.9371625
51
347.7318593
0
ARC
8
DEFAULT_255_2_778
10
123.6357538
20
83.5650638
40
0.3337763
50
348.2720416
51
359.5179921
0
ARC
8
DEFAULT_255_2_778
10
123.7844798
20
83.5667034
40
0.185092
50
358.6231211
51
25.1681882
0
ARC
8
DEFAULT_255_2_778
10
122.1141531
20
90.9938724
40
0.4525257
50
13.0455048
51
76.9544611
0
ARC
8
DEFAULT_255_2_778
10
122.1569223
20
91.1972099
40
0.2448186
50
75.9637346
51
76.1080108
0
ARC
8
DEFAULT_255_2_778
10
122.1487933
20
91.1640793
40
0.2789318
50
76.1209901
51
90.0611473
0
ARC
8
DEFAULT_255_2_778
10
122.1909755
20
90.9771379
40
0.4678057
50
95.2100192
51
148.2910487
0
ARC
8
DEFAULT_255_2_778
10
101.3174414
20
74.9131698
40
18.8831992
50
28.8561019
51
30.6738992
0
ARC
8
DEFAULT_255_2_778
10
102.0450914
20
75.3443508
40
18.0373911
50
30.6750403
51
32.3876521
0
ARC
8
DEFAULT_255_2_778
10
102.6974127
20
75.7583325
40
17.2647955
50
32.3870829
51
34.2235953
0
ARC
8
DEFAULT_255_2_778
10
103.3077689
20
76.1735374
40
16.526602
50
34.2234815
51
36.1176591
0
ARC
8
DEFAULT_255_2_778
10
103.8279142
20
76.5524983
40
15.8830476
50
36.1193524
51
37.7952858
0
ARC
8
DEFAULT_255_2_778
10
104.3204486
20
76.9354147
40
15.259177
50
37.7925192
51
39.9221677
0
ARC
8
DEFAULT_255_2_778
10
104.8095434
20
77.3445956
40
14.6214914
50
39.9224305
51
42.0698999
0
ARC
8
DEFAULT_255_2_778
10
105.2188882
20
77.7135226
40
14.0704288
50
42.0715748
51
44.0032677
0
ARC
8
DEFAULT_255_2_778
10
105.583832
20
78.0663975
40
13.5627827
50
44.002014
51
46.1880325
0
ARC
8
DEFAULT_255_2_778
10
105.9330423
20
78.4305146
40
13.0582739
50
46.1876796
51
48.4755403
0
ARC
8
DEFAULT_255_2_778
10
106.1866976
20
78.7154157
40
12.676818
50
48.4802071
51
49.8564671
0
ARC
8
DEFAULT_255_2_778
10
106.4596542
20
79.0421085
40
12.2511073
50
49.8472834
51
52.8763153
0
ARC
8
DEFAULT_255_2_778
10
106.8032854
20
79.4968111
40
11.6811629
50
52.874152
51
56.226687
0
ARC
8
DEFAULT_255_2_778
10
107.1094873
20
79.9544567
40
11.1305277
50
56.2273004
51
59.5139088
0
ARC
8
DEFAULT_255_2_778
10
107.3791402
20
80.4129327
40
10.5986321
50
59.512697
51
62.9114832
0
ARC
8
DEFAULT_255_2_778
10
107.6176967
20
80.8789502
40
10.0751041
50
62.9125012
51
66.1066609
0
ARC
8
DEFAULT_255_2_778
10
107.8375148
20
81.3764935
40
9.531166
50
66.1033988
51
69.5102258
0
ARC
8
DEFAULT_255_2_778
10
108.0485604
20
81.9422602
40
8.9273182
50
69.5079963
51
72.930185
0
ARC
8
DEFAULT_255_2_778
10
108.2444753
20
82.5819005
40
8.2583473
50
72.9269002
51
76.3869406
0
ARC
8
DEFAULT_255_2_778
10
108.411618
20
83.2713033
40
7.5489724
50
76.3883588
51
79.5469413
0
ARC
8
DEFAULT_255_2_778
10
108.5518024
20
84.0378868
40
6.7696777
50
79.536588
51
83.0663523
0
ARC
8
DEFAULT_255_2_778
10
108.6538544
20
84.8763876
40
5.9249894
50
83.0671443
51
86.3862863
0
ARC
8
DEFAULT_255_2_778
10
108.7072198
20
85.7351724
40
5.0645486
50
86.3764512
51
89.9459253
0
ARC
8
DEFAULT_255_2_778
10
108.715508
20
83.6532724
40
7.1464472
50
90.0281277
51
94.2327043
0
ARC
8
DEFAULT_255_2_778
10
108.7559841
20
83.0976778
40
7.703514
50
94.2279346
51
98.0161265
0
ARC
8
DEFAULT_255_2_778
10
108.8318203
20
82.5573496
40
8.2491381
50
98.014359
51
101.6520927
0
ARC
8
DEFAULT_255_2_778
10
108.9422652
20
82.0214069
40
8.7963424
50
101.6516063
51
105.2773789
0
ARC
8
DEFAULT_255_2_778
10
109.0833011
20
81.5039774
40
9.3326487
50
105.2756183
51
108.7902036
0
ARC
8
DEFAULT_255_2_778
10
109.2007811
20
81.1518266
40
9.7038722
50
108.7771533
51
110.3390475
0
ARC
8
DEFAULT_255_2_778
10
109.3880646
20
80.6652369
40
10.2252212
50
110.3753598
51
116.2607269
0
ARC
8
DEFAULT_255_2_778
10
109.7066377
20
80.0167059
40
10.9477721
50
116.2541659
51
122.057766
0
ARC
8
DEFAULT_255_2_778
10
110.0084247
20
79.5322838
40
11.518507
50
122.0510499
51
127.6705285
0
ARC
8
DEFAULT_255_2_778
10
110.2743375
20
79.1867198
40
11.9545388
50
127.667169
51
133.4108244
0
ARC
8
DEFAULT_255_2_778
10
110.4996103
20
78.9472835
40
12.283289
50
133.4066344
51
138.7641678
0
ARC
8
DEFAULT_255_2_778
10
110.7043614
20
78.7677078
40
12.5556316
50
138.7638126
51
144.2534395
0
ARC
8
DEFAULT_255_2_778
10
110.9270762
20
78.6074282
40
12.8300244
50
144.2535549
51
149.6316669
0
ARC
8
DEFAULT_255_2_778
10
111.2011271
20
78.447102
40
13.1475278
50
149.6326256
51
154.8502853
0
ARC
8
DEFAULT_255_2_778
10
111.5505888
20
78.2830545
40
13.5335784
50
154.8503706
51
159.6368361
0
ARC
8
DEFAULT_255_2_778
10
111.9018716
20
78.1507282
40
13.9089538
50
159.6293346
51
162.5009178
0
ARC
8
DEFAULT_255_2_778
10
126.8202398
20
73.4467398
40
29.551371
50
162.499979
51
164.0835405
0
ARC
8
DEFAULT_255_2_778
10
127.7721774
20
73.1750662
40
30.5413162
50
164.0831593
51
165.5508985
0
ARC
8
DEFAULT_255_2_778
10
128.7365502
20
72.9263712
40
31.5372399
50
165.5505377
51
166.9145361
0
ARC
8
DEFAULT_255_2_778
10
129.3950294
20
72.7714694
40
32.2136913
50
166.9113398
51
167.3549798
0
ARC
8
DEFAULT_255_2_778
10
130.3062199
20
72.5712655
40
33.1466077
50
167.3621028
51
169.2661728
0
ARC
8
DEFAULT_255_2_778
10
131.9334509
20
72.2634212
40
34.802702
50
169.2671744
51
171.2328009
0
ARC
8
DEFAULT_255_2_778
10
133.7005211
20
71.9905921
40
36.59071
50
171.2323244
51
173.085416
0
ARC
8
DEFAULT_255_2_778
10
135.3531237
20
71.7883163
40
38.2556448
50
173.0826474
51
174.5250367
0
ARC
8
DEFAULT_255_2_778
10
136.9173405
20
71.6387077
40
39.8269999
50
174.5254929
51
176.0083584
0
ARC
8
DEFAULT_255_2_778
10
138.4898883
20
71.5282835
40
41.4034199
50
176.0074037
51
177.32632
0
ARC
8
DEFAULT_255_2_778
10
139.860445
20
71.4631874
40
42.7755212
50
177.3248573
51
178.363747
0
ARC
8
DEFAULT_255_2_778
10
140.9672699
20
71.4309282
40
43.882816
50
178.3629093
51
179.1963134
0
ARC
8
DEFAULT_255_2_778
10
141.9438433
20
71.4171364
40
44.8594868
50
179.1961952
51
180.0014261
0
ARC
8
DEFAULT_255_2_778
10
142.9015031
20
71.417147
40
45.8171465
50
180.0014096
51
180.7989192
0
ARC
8
DEFAULT_255_2_778
10
143.7957321
20
71.4294224
40
46.7114598
50
180.7986809
51
181.5215679
0
ARC
8
DEFAULT_255_2_778
10
144.5911713
20
71.4504098
40
47.5071756
50
181.5213972
51
182.1781601
0
ARC
8
DEFAULT_255_2_778
10
145.4472935
20
71.4835485
40
48.3639387
50
182.1788427
51
183.0696424
0
ARC
8
DEFAULT_255_2_778
10
146.3169331
20
71.529856
40
49.2348102
50
183.0692608
51
183.8449304
0
ARC
8
DEFAULT_255_2_778
10
147.0573185
20
71.5795997
40
49.976865
50
183.8449122
51
184.633968
0
ARC
8
DEFAULT_255_2_778
10
147.6746812
20
71.6294444
40
50.5962365
50
184.6337473
51
185.3584701
0
ARC
8
DEFAULT_255_2_778
10
148.1323975
20
71.6722025
40
51.0559455
50
185.3582756
51
186.0167461
0
ARC
8
DEFAULT_255_2_778
10
148.4342545
20
71.703876
40
51.3594596
50
186.0165885
51
186.5744859
0
ARC
8
DEFAULT_255_2_778
10
148.5882631
20
71.7215136
40
51.5144749
50
186.5743617
51
187.0491845
0
ARC
8
DEFAULT_255_2_778
10
148.6471861
20
71.7288094
40
51.5738477
50
187.0491951
51
187.4547539
0
ARC
8
DEFAULT_255_2_778
10
148.5898428
20
71.7211997
40
51.516002
50
187.4546365
51
187.9736421
0
ARC
8
DEFAULT_255_2_778
10
148.4122839
20
71.6961432
40
51.336684
50
187.9734371
51
188.5190856
0
ARC
8
DEFAULT_255_2_778
10
148.1111051
20
71.65109
40
51.0321539
50
188.5191532
51
188.9175732
0
ARC
8
DEFAULT_255_2_778
10
147.7112115
20
71.588274
40
50.6273567
50
188.9174965
51
189.3550966
0
ARC
8
DEFAULT_255_2_778
10
147.1939964
20
71.5031048
40
50.1031762
50
189.3551403
51
189.7116363
0
ARC
8
DEFAULT_255_2_778
10
146.6389545
20
71.4081449
40
49.5400696
50
189.7116718
51
190.0608597
0
ARC
8
DEFAULT_255_2_778
10
145.8344498
20
71.2651654
40
48.7229582
50
190.0605791
51
190.501366
0
ARC
8
DEFAULT_255_2_778
10
144.7589945
20
71.0657138
40
47.6291643
50
190.5012464
51
190.9263448
0
ARC
8
DEFAULT_255_2_778
10
143.5421644
20
70.8307697
40
46.3898603
50
190.9262972
51
191.3221412
0
ARC
8
DEFAULT_255_2_778
10
142.1946282
20
70.5609727
40
45.0155808
50
191.3221522
51
191.6854873
0
ARC
8
DEFAULT_255_2_778
10
140.7618133
20
70.2647071
40
43.5524567
50
191.6855874
51
192.0198008
0
ARC
8
DEFAULT_255_2_778
10
139.2406345
20
69.9408449
40
41.9971847
50
192.0198326
51
192.3280498
0
ARC
8
DEFAULT_255_2_778
10
137.6594611
20
69.595268
40
40.3786875
50
192.3280298
51
192.612914
0
ARC
8
DEFAULT_255_2_778
10
136.0716882
20
69.2400599
40
38.751667
50
192.613025
51
192.8766599
0
ARC
8
DEFAULT_255_2_778
10
134.4149328
20
68.8614008
40
37.0521903
50
192.8767779
51
193.1215185
0
ARC
8
DEFAULT_255_2_778
10
132.7460799
20
68.4723839
40
35.3385964
50
193.1215155
51
193.3491687
0
ARC
8
DEFAULT_255_2_778
10
130.6603004
20
67.9767788
40
33.1947447
50
193.3480647
51
193.6659025
0
ARC
8
DEFAULT_255_2_778
10
128.1075911
20
67.3562273
40
30.5676912
50
193.6661261
51
193.9531952
0
ARC
8
DEFAULT_255_2_778
10
125.3006371
20
66.6582869
40
27.6752682
50
193.9521439
51
194.2779224
0
ARC
8
DEFAULT_255_2_778
10
122.1153662
20
65.8476676
40
24.3884681
50
194.2778976
51
194.5883671
0
ARC
8
DEFAULT_255_2_778
10
118.9539159
20
65.0249542
40
21.1217227
50
194.5886226
51
194.8669542
0
ARC
8
DEFAULT_255_2_778
10
115.9778206
20
64.2349694
40
18.0425637
50
194.8671235
51
195.1199361
0
ARC
8
DEFAULT_255_2_778
10
112.5712354
20
63.3133293
40
14.5135068
50
195.1153588
51
195.4699205
0
ARC
8
DEFAULT_255_2_778
10
108.6483733
20
62.2270811
40
10.44303
50
195.4669605
51
195.848048
0
ARC
8
DEFAULT_255_2_778
10
105.0270539
20
61.1986426
40
6.678506
50
195.8445184
51
196.2638006
0
ARC
8
DEFAULT_255_2_778
10
101.7902007
20
60.2526329
40
3.3062445
50
196.2354023
51
196.9265003
0
ARC
8
DEFAULT_255_2_778
10
99.4138389
20
59.5270565
40
0.8215846
50
196.7675937
51
198.4432894
0
ARC
8
DEFAULT_255_2_778
10
98.6917275
20
59.2853794
40
0.0601098
50
197.6688253
51
203.4915821
0
ARC
8
DEFAULT_255_2_778
10
99.0408082
20
59.3879251
40
0.4235427
50
197.3787072
51
266.8588305
0
ARC
8
DEFAULT_255_2_778
10
122.7692149
20
50.3319025
40
0.3804425
50
5.9620195
51
51.3740988
0
ARC
8
DEFAULT_255_2_778
10
122.7688867
20
50.3322625
40
0.3803664
50
51.3016137
51
90.0085607
0
ARC
8
DEFAULT_255_2_778
10
122.7688376
20
50.3313921
40
0.3812369
50
90.001173
51
95.6978778
0
ARC
8
DEFAULT_255_2_778
10
122.7688597
20
50.3310181
40
0.3816113
50
95.6956003
51
96.7056276
0
ARC
8
DEFAULT_255_2_778
10
122.7151676
20
50.1104246
40
0.5996637
50
89.1274361
51
111.0070222
0
ARC
8
DEFAULT_255_2_778
10
122.6102132
20
50.3648781
40
0.3245682
50
109.813301
51
150.1248511
0
ARC
8
DEFAULT_255_2_778
10
122.5409862
20
50.4144736
40
0.2399878
50
152.1598863
51
180.1802208
0
ARC
8
DEFAULT_255_2_778
10
122.3365808
20
50.3977493
40
0.0390005
50
155.8285948
51
161.9089992
0
ARC
8
DEFAULT_255_2_778
10
122.5035679
20
50.3390865
40
0.2159845
50
160.8720411
51
161.7877619
0
ARC
8
DEFAULT_255_2_778
10
122.7497253
20
50.2578526
40
0.4751993
50
161.7599129
51
162.2833522
0
ARC
8
DEFAULT_255_2_778
10
123.176101
20
50.1214584
40
0.9228594
50
162.2724786
51
162.5737471
0
ARC
8
DEFAULT_255_2_778
10
123.6954834
20
49.9581436
40
1.467313
50
162.562986
51
162.7351675
0
ARC
8
DEFAULT_255_2_778
10
124.6332771
20
49.6665663
40
2.4493897
50
162.732522
51
162.8464125
0
ARC
8
DEFAULT_255_2_778
10
126.1406719
20
49.2014619
40
4.0269071
50
162.848785
51
162.8984731
0
ARC
8
DEFAULT_255_2_778
10
126.8037664
20
48.9982309
40
4.7204462
50
162.9075554
51
162.9523203
0
ARC
8
DEFAULT_255_2_778
10
129.3689652
20
48.211937
40
7.403449
50
162.9545467
51
162.9845805
0
ARC
8
DEFAULT_255_2_778
10
129.433196
20
48.192415
40
7.470581
50
162.985565
51
163.0167838
0
ARC
8
DEFAULT_255_2_778
10
134.266513
20
46.7149531
40
12.5246731
50
163.0110232
51
163.0304983
0
ARC
8
DEFAULT_255_2_778
10
31.0337669
20
78.1721603
40
95.3945375
50
343.0311852
51
343.0558517
0
ARC
8
DEFAULT_255_2_778
10
107.9588019
20
54.7011624
40
14.9684923
50
342.7124038
51
343.0254357
0
ARC
8
DEFAULT_255_2_778
10
109.4779754
20
54.2300291
40
13.3779417
50
342.2710199
51
342.705551
0
ARC
8
DEFAULT_255_2_778
10
109.0138825
20
54.3786823
40
13.8652609
50
341.7855038
51
342.2699035
0
ARC
8
DEFAULT_255_2_778
10
108.1909626
20
54.6496558
40
14.7316465
50
341.1901333
51
341.7848371
0
ARC
8
DEFAULT_255_2_778
10
107.2702653
20
54.9633746
40
15.7043247
50
340.4939428
51
341.1897503
0
ARC
8
DEFAULT_255_2_778
10
106.4355261
20
55.2588324
40
16.5898104
50
339.7980025
51
340.4947179
0
ARC
8
DEFAULT_255_2_778
10
105.7757791
20
55.5013931
40
17.2927341
50
339.1084429
51
339.7986403
0
ARC
8
DEFAULT_255_2_778
10
105.2686714
20
55.6947822
40
17.8354657
50
338.4299391
51
339.1089557
0
ARC
8
DEFAULT_255_2_778
10
104.8907446
20
55.8440398
40
18.2417987
50
337.765595
51
338.4303649
0
ARC
8
DEFAULT_255_2_778
10
104.5699599
20
55.9753755
40
18.5884278
50
336.7829803
51
337.7650214
0
ARC
8
DEFAULT_255_2_778
10
104.3329001
20
56.0769135
40
18.846318
50
335.682995
51
336.7833973
0
ARC
8
DEFAULT_255_2_778
10
104.2456589
20
56.1161173
40
18.9419629
50
334.4945592
51
335.683597
0
ARC
8
DEFAULT_255_2_778
10
104.3020402
20
56.0889443
40
18.8793757
50
333.1105024
51
334.4953093
0
ARC
8
DEFAULT_255_2_778
10
104.5005676
20
55.9879829
40
18.6566511
50
331.6133167
51
333.1112924
0
ARC
8
DEFAULT_255_2_778
10
104.830803
20
55.8090631
40
18.2810613
50
329.8750186
51
331.614589
0
ARC
8
DEFAULT_255_2_778
10
105.2806909
20
55.5475464
40
17.7606866
50
327.9453845
51
329.8763122
0
ARC
8
DEFAULT_255_2_778
10
105.8300374
20
55.2028124
40
17.1121323
50
325.7067504
51
327.9474725
0
ARC
8
DEFAULT_255_2_778
10
106.371858
20
54.8341767
40
16.4567994
50
323.8329062
51
325.7042312
0
ARC
8
DEFAULT_255_2_778
10
106.9590747
20
54.4025478
40
15.7280174
50
320.9946414
51
323.8398732
0
ARC
8
DEFAULT_255_2_778
10
107.6563541
20
53.8363727
40
14.829824
50
317.59111
51
320.9989087
0
ARC
8
DEFAULT_255_2_778
10
108.3375138
20
53.2131391
40
13.9065699
50
313.6647458
51
317.5943208
0
ARC
8
DEFAULT_255_2_778
10
108.9341906
20
52.5875445
40
13.0420516
50
309.2646256
51
313.6660755
0
ARC
8
DEFAULT_255_2_778
10
109.3962077
20
52.0229768
40
12.3125337
50
304.532766
51
309.2628043
0
ARC
8
DEFAULT_255_2_778
10
109.700726
20
51.5822552
40
11.7768419
50
299.7236579
51
304.5277662
0
ARC
8
DEFAULT_255_2_778
10
109.8576156
20
51.310168
40
11.4627654
50
295.311649
51
299.7169516
0
ARC
8
DEFAULT_255_2_778
10
109.9100665
20
51.2011975
40
11.3418318
50
290.7701297
51
295.3074767
0
ARC
8
DEFAULT_255_2_778
10
109.8917551
20
51.2516433
40
11.3954929
50
286.5640688
51
290.7662696
0
ARC
8
DEFAULT_255_2_778
10
109.8315428
20
51.4562402
40
11.6087652
50
282.5174866
51
286.5610363
0
ARC
8
DEFAULT_255_2_778
10
109.754135
20
51.806508
40
11.9674843
50
278.7505509
51
282.5158186
0
ARC
8
DEFAULT_255_2_778
10
109.6819717
20
52.2747313
40
12.4412358
50
275.4265272
51
278.7509708
0
ARC
8
DEFAULT_255_2_778
10
109.6271353
20
52.8556351
40
13.024722
50
272.1756333
51
275.4250097
0
ARC
8
DEFAULT_255_2_778
10
109.6027126
20
53.4563045
40
13.6258859
50
269.9927972
51
272.1823697
0
ARC
8
DEFAULT_255_2_778
10
109.5985848
20
54.9584833
40
15.1280647
50
267.3986223
51
270.0091457
0
ARC
8
DEFAULT_255_2_778
10
109.5697064
20
54.3359923
40
14.5049046
50
264.2579131
51
267.4009752
0
ARC
8
DEFAULT_255_2_778
10
109.5158722
20
53.7969799
40
13.9632106
50
261.0822075
51
264.2564177
0
ARC
8
DEFAULT_255_2_778
10
109.450966
20
53.3819776
40
13.5431632
50
257.7352052
51
261.0813154
0
ARC
8
DEFAULT_255_2_778
10
109.3870058
20
53.0860411
40
13.2403941
50
254.3027501
51
257.7336239
0
ARC
8
DEFAULT_255_2_778
10
109.3372806
20
52.9078545
40
13.0553997
50
250.5645074
51
254.3012647
0
ARC
8
DEFAULT_255_2_778
10
109.3195414
20
52.8559001
40
13.0005032
50
246.7097471
51
250.5620429
0
ARC
8
DEFAULT_255_2_778
10
109.3536667
20
52.9337142
40
13.0854692
50
242.9201067
51
246.7072175
0
ARC
8
DEFAULT_255_2_778
10
109.4579935
20
53.1361435
40
13.3131997
50
238.9578774
51
242.9169336
0
ARC
8
DEFAULT_255_2_778
10
109.6490869
20
53.4527868
40
13.6830368
50
235.1644887
51
238.9560194
0
ARC
8
DEFAULT_255_2_778
10
109.9277294
20
53.8526518
40
14.170411
50
231.5495402
51
235.1632893
0
ARC
8
DEFAULT_255_2_778
10
110.2861909
20
54.304094
40
14.7468614
50
228.1945393
51
231.5495248
0
ARC
8
DEFAULT_255_2_778
10
110.6756515
20
54.7409534
40
15.3321177
50
225.5166446
51
228.1979146
0
ARC
8
DEFAULT_255_2_778
10
111.0749858
20
55.147509
40
15.9019907
50
222.9043968
51
225.5165282
0
ARC
8
DEFAULT_255_2_778
10
111.4127555
20
55.4634948
40
16.3645196
50
221.4277377
51
222.9096864
0
ARC
8
DEFAULT_255_2_778
10
111.715738
20
55.7300457
40
16.7680631
50
219.4240478
51
221.4256242
0
ARC
8
DEFAULT_255_2_778
10
112.0427699
20
55.9993193
40
17.1916881
50
217.6568042
51
219.4251204
0
ARC
8
DEFAULT_255_2_778
10
112.3168917
20
56.2111802
40
17.5381381
50
216.0901836
51
217.657646
0
ARC
8
DEFAULT_255_2_778
10
112.5524296
20
56.3828313
40
17.8295866
50
214.3586713
51
216.0900685
0
ARC
8
DEFAULT_255_2_778
10
112.7179196
20
56.496343
40
18.0302649
50
212.8584263
51
214.3596513
0
ARC
8
DEFAULT_255_2_778
10
112.7799343
20
56.5366632
40
18.1042344
50
211.5513688
51
212.8591305
0
ARC
8
DEFAULT_255_2_778
10
112.7479406
20
56.5170863
40
18.0667263
50
210.6314482
51
211.5515538
0
ARC
8
DEFAULT_255_2_778
10
112.6541113
20
56.4615966
40
17.9577171
50
209.8018074
51
210.631641
0
ARC
8
DEFAULT_255_2_778
10
112.4571086
20
56.349137
40
17.7308753
50
208.6874302
51
209.8028538
0
ARC
8
DEFAULT_255_2_778
10
112.1172405
20
56.1632134
40
17.3434764
50
207.7266167
51
208.6875804
0
ARC
8
DEFAULT_255_2_778
10
111.6440171
20
55.9147446
40
16.8089888
50
206.7610375
51
207.7273998
0
ARC
8
DEFAULT_255_2_778
10
110.9999401
20
55.5900922
40
16.0877159
50
205.856995
51
206.7614982
0
ARC
8
DEFAULT_255_2_778
10
110.2275145
20
55.2156786
40
15.2293295
50
205.0770679
51
205.8567916
0
ARC
8
DEFAULT_255_2_778
10
109.4071426
20
54.8316533
40
14.3235231
50
204.4269823
51
205.0765773
0
ARC
8
DEFAULT_255_2_778
10
108.5778104
20
54.4547915
40
13.4125802
50
203.883805
51
204.4262473
0
ARC
8
DEFAULT_255_2_778
10
107.5901025
20
54.0180772
40
12.3326331
50
203.2157124
51
203.8865391
0
ARC
8
DEFAULT_255_2_778
10
106.4262881
20
53.5187931
40
11.066241
50
202.6323548
51
203.2152612
0
ARC
8
DEFAULT_255_2_778
10
105.4747657
20
53.1217248
40
10.0351939
50
202.1752306
51
202.6304727
0
ARC
8
DEFAULT_255_2_778
10
105.4517118
20
53.1114812
40
10.0099787
50
202.1429845
51
202.1707404
0
ARC
8
DEFAULT_255_2_778
10
104.4104957
20
52.6880909
40
8.8859726
50
202.114953
51
202.1448596
0
ARC
8
DEFAULT_255_2_778
10
108.7997635
20
54.4713219
40
13.6236497
50
202.094735
51
202.1133931
0
ARC
8
DEFAULT_255_2_778
10
106.2366707
20
53.4294245
40
10.8568839
50
202.061769
51
202.0878514
0
ARC
8
DEFAULT_255_2_778
10
105.5043136
20
53.1322142
40
10.0665166
50
202.032953
51
202.0596594
0
ARC
8
DEFAULT_255_2_778
10
108.1765444
20
54.2131531
40
12.949093
50
202.009105
51
202.0308996
0
ARC
8
DEFAULT_255_2_778
10
109.2002038
20
54.6250193
40
14.0525011
50
201.9823276
51
202.0018912
0
ARC
8
DEFAULT_255_2_778
10
109.4639881
20
54.729314
40
14.3361479
50
201.9561538
51
201.9742247
0
ARC
8
DEFAULT_255_2_778
10
106.4208663
20
53.5018191
40
11.0547863
50
201.9306948
51
201.9527793
0
ARC
8
DEFAULT_255_2_778
10
106.7814658
20
53.6465464
40
11.4433449
50
201.9084649
51
201.9285712
0
ARC
8
DEFAULT_255_2_778
10
106.3241424
20
53.4627643
40
10.9504751
50
201.8893381
51
201.9091407
0
ARC
8
DEFAULT_255_2_778
10
105.907523
20
53.294422
40
10.5011308
50
201.8650538
51
201.8845167
0
ARC
8
DEFAULT_255_2_778
10
109.3544295
20
54.6783285
40
14.2154763
50
201.8541221
51
201.8676738
0
ARC
8
DEFAULT_255_2_778
10
106.0500416
20
53.3530642
40
10.6552368
50
201.8288257
51
201.8542149
0
ARC
8
DEFAULT_255_2_778
10
-5.8181119
20
8.6308762
40
109.8211449
50
21.7866038
51
21.8058114
0
ARC
8
DEFAULT_255_2_778
10
95.8348405
20
49.3050906
40
0.3327438
50
21.1705329
51
23.9225782
0
ARC
8
DEFAULT_255_2_778
10
95.7502379
20
49.2871066
40
0.4177533
50
21.471269
51
91.9108475
0
ARC
8
DEFAULT_255_2_778
10
95.7371446
20
49.1683873
40
0.5362409
50
90.0893651
51
101.3622393
0
ARC
8
DEFAULT_255_2_778
10
95.6960452
20
49.3696998
40
0.3307775
50
101.2525854
51
101.3408115
0
ARC
8
DEFAULT_255_2_778
10
95.8075142
20
49.2389439
40
0.4881091
50
111.2002963
51
158.8441801
0
ARC
8
DEFAULT_255_2_778
10
95.7353577
20
49.2721548
40
0.4088595
50
159.5351875
51
179.833198
0
ARC
8
DEFAULT_255_2_778
10
95.7144082
20
49.2732959
40
0.3879083
50
179.9927471
51
185.9926579
0
ARC
8
DEFAULT_255_2_778
10
95.7119044
20
49.2730663
40
0.3853941
50
185.9975578
51
191.7598998
0
ARC
8
DEFAULT_255_2_778
10
119.4100967
20
54.8608927
40
24.7333248
50
193.2440176
51
193.7585934
0
ARC
8
DEFAULT_255_2_778
10
120.8209558
20
55.205984
40
26.1857749
50
193.7578113
51
194.2580231
0
ARC
8
DEFAULT_255_2_778
10
122.0333363
20
55.5140889
40
27.4366927
50
194.258061
51
194.8276673
0
ARC
8
DEFAULT_255_2_778
10
123.0775963
20
55.7905321
40
28.5169241
50
194.827664
51
195.4618429
0
ARC
8
DEFAULT_255_2_778
10
123.8710478
20
56.0097588
40
29.3401043
50
195.4613763
51
196.0759644
0
ARC
8
DEFAULT_255_2_778
10
124.4056197
20
56.1636452
40
29.8963848
50
196.075657
51
196.6712097
0
ARC
8
DEFAULT_255_2_778
10
124.7405544
20
56.2638241
40
30.2459803
50
196.6709866
51
197.2477372
0
ARC
8
DEFAULT_255_2_778
10
124.9245528
20
56.3208612
40
30.4386164
50
197.247579
51
197.8055523
0
ARC
8
DEFAULT_255_2_778
10
124.9918925
20
56.3424697
40
30.509338
50
197.8055182
51
198.6203464
0
ARC
8
DEFAULT_255_2_778
10
124.8843689
20
56.3060486
40
30.3958136
50
198.6200018
51
199.5230163
0
ARC
8
DEFAULT_255_2_778
10
124.5954451
20
56.2033773
40
30.0891895
50
199.5226082
51
200.4889269
0
ARC
8
DEFAULT_255_2_778
10
124.1766642
20
56.0468854
40
29.6421245
50
200.4889117
51
201.3765271
0
ARC
8
DEFAULT_255_2_778
10
123.5876116
20
55.815545
40
29.009273
50
201.375108
51
202.604346
0
ARC
8
DEFAULT_255_2_778
10
122.7580941
20
55.4695927
40
28.110506
50
202.6032477
51
204.0012663
0
ARC
8
DEFAULT_255_2_778
10
121.7522138
20
55.0210239
40
27.0091392
50
203.9999186
51
205.5785647
0
ARC
8
DEFAULT_255_2_778
10
120.6578752
20
54.4970487
40
25.7958267
50
205.5782456
51
207.1965098
0
ARC
8
DEFAULT_255_2_778
10
119.5401133
20
53.9222754
40
24.5389434
50
207.1956629
51
208.9326015
0
ARC
8
DEFAULT_255_2_778
10
118.0541331
20
53.0939844
40
22.8377191
50
208.91749
51
211.979318
0
ARC
8
DEFAULT_255_2_778
10
116.1412454
20
51.8937318
40
20.5794636
50
211.9653666
51
216.0060524
0
ARC
8
DEFAULT_255_2_778
10
114.0520643
20
50.3624716
40
17.9892304
50
215.972444
51
221.9251262
0
ARC
8
DEFAULT_255_2_778
10
112.1260497
20
48.6242263
40
15.3948169
50
221.9012956
51
229.6696932
0
ARC
8
DEFAULT_255_2_778
10
110.8982182
20
47.1900504
40
13.5068654
50
229.7028622
51
237.3293622
0
ARC
8
DEFAULT_255_2_778
10
110.3498949
20
46.3485881
40
12.5025451
50
237.3630125
51
244.0483551
0
ARC
8
DEFAULT_255_2_778
10
110.1740991
20
45.9963152
40
12.1088645
50
244.0668568
51
249.6164756
0
ARC
8
DEFAULT_255_2_778
10
110.1632483
20
45.9720293
40
12.0823201
50
249.6245968
51
254.7215956
0
ARC
8
DEFAULT_255_2_778
10
110.2226911
20
46.1932304
40
12.3113671
50
254.7260014
51
259.3133946
0
ARC
8
DEFAULT_255_2_778
10
110.3009327
20
46.609602
40
12.7350261
50
259.3148612
51
263.378044
0
ARC
8
DEFAULT_255_2_778
10
110.3680437
20
47.1900518
40
13.3193427
50
263.3792182
51
267.1417573
0
ARC
8
DEFAULT_255_2_778
10
110.4025173
20
47.8560676
40
13.986249
50
267.1367601
51
270.0113978
0
ARC
8
DEFAULT_255_2_778
10
110.4080568
20
48.5093522
40
14.6395337
50
269.9892088
51
272.7585986
0
ARC
8
DEFAULT_255_2_778
10
110.4394181
20
47.8642375
40
13.9936573
50
272.7574652
51
275.8778329
0
ARC
8
DEFAULT_255_2_778
10
110.4971755
20
47.3032166
40
13.4296712
50
275.8778292
51
279.2774334
0
ARC
8
DEFAULT_255_2_778
10
110.5694846
20
46.8589732
40
12.9795814
50
279.2785612
51
282.8706042
0
ARC
8
DEFAULT_255_2_778
10
110.6398878
20
46.5488462
40
12.6615638
50
282.8726242
51
286.5609296
0
ARC
8
DEFAULT_255_2_778
10
110.6920808
20
46.3718156
40
12.477
50
286.5629137
51
290.5815598
0
ARC
8
DEFAULT_255_2_778
10
110.7044455
20
46.3369196
40
12.4399845
50
290.5847463
51
294.7240846
0
ARC
8
DEFAULT_255_2_778
10
110.6531529
20
46.4466741
40
12.5611312
50
294.7272138
51
298.7877831
0
ARC
8
DEFAULT_255_2_778
10
110.5155689
20
46.6951878
40
12.8451869
50
298.791815
51
303.0222156
0
ARC
8
DEFAULT_255_2_778
10
110.2716088
20
47.0695832
40
13.2920516
50
303.024451
51
307.057521
0
ARC
8
DEFAULT_255_2_778
10
109.9102546
20
47.5469616
40
13.8907726
50
307.0603905
51
311.0681304
0
ARC
8
DEFAULT_255_2_778
10
109.4438424
20
48.0827594
40
14.6011384
50
311.0667418
51
314.6170056
0
ARC
8
DEFAULT_255_2_778
10
108.9190905
20
48.6152506
40
15.348742
50
314.6152314
51
317.7734074
0
ARC
8
DEFAULT_255_2_778
10
108.3683158
20
49.1158506
40
16.0930221
50
317.7715042
51
320.5869232
0
ARC
8
DEFAULT_255_2_778
10
107.9971299
20
49.4244165
40
16.5757069
50
320.5775001
51
321.4682508
0
ARC
8
DEFAULT_255_2_778
10
107.6867669
20
49.6698362
40
16.9713762
50
321.4728332
51
323.530618
0
ARC
8
DEFAULT_255_2_778
10
107.2815164
20
49.9698672
40
17.4756048
50
323.5293093
51
325.343284
0
ARC
8
DEFAULT_255_2_778
10
106.9407199
20
50.2058653
40
17.8901375
50
325.34223
51
326.947657
0
ARC
8
DEFAULT_255_2_778
10
106.6505069
20
50.3946614
40
18.2363564
50
326.9477821
51
328.7198266
0
ARC
8
DEFAULT_255_2_778
10
106.4472981
20
50.5185633
40
18.4743592
50
328.7186465
51
330.2554153
0
ARC
8
DEFAULT_255_2_778
10
106.3785567
20
50.5581643
40
18.5536911
50
330.2545555
51
331.5953847
0
ARC
8
DEFAULT_255_2_778
10
106.4284951
20
50.5312611
40
18.496967
50
331.5951024
51
332.5407653
0
ARC
8
DEFAULT_255_2_778
10
106.5594534
20
50.4632713
40
18.3494112
50
332.5405871
51
333.3961371
0
ARC
8
DEFAULT_255_2_778
10
106.8329404
20
50.3267965
40
18.0437638
50
333.3947165
51
334.5509631
0
ARC
8
DEFAULT_255_2_778
10
107.3039211
20
50.1027593
40
17.5222128
50
334.5506825
51
335.5555625
0
ARC
8
DEFAULT_255_2_778
10
107.9730847
20
49.798986
40
16.7873264
50
335.5543235
51
336.5781058
0
ARC
8
DEFAULT_255_2_778
10
108.8814679
20
49.4056993
40
15.7974606
50
336.57738
51
337.5235862
0
ARC
8
DEFAULT_255_2_778
10
109.997204
20
48.9442729
40
14.5900745
50
337.522902
51
338.3937272
0
ARC
8
DEFAULT_255_2_778
10
111.2557581
20
48.4457255
40
13.2363729
50
338.3940942
51
339.1474615
0
ARC
8
DEFAULT_255_2_778
10
112.5789323
20
47.9415816
40
11.8204099
50
339.1480424
51
339.8087626
0
ARC
8
DEFAULT_255_2_778
10
113.9194193
20
47.4485202
40
10.392119
50
339.8092331
51
340.3968737
0
ARC
8
DEFAULT_255_2_778
10
115.5712861
20
46.8616069
40
8.6390849
50
340.38818
51
341.1924629
0
ARC
8
DEFAULT_255_2_778
10
117.7790336
20
46.1111966
40
6.3072911
50
341.1796295
51
342.1480922
0
ARC
8
DEFAULT_255_2_778
10
120.170832
20
45.3422116
40
3.7949147
50
342.1290025
51
343.2706072
0
ARC
8
DEFAULT_255_2_778
10
122.2528847
20
44.7185868
40
1.6214748
50
343.196654
51
344.9519719
0
ARC
8
DEFAULT_255_2_778
10
123.560229
20
44.3709631
40
0.268734
50
344.1586428
51
349.8799978
0
ARC
8
DEFAULT_255_2_778
10
123.8058053
20
44.3266608
40
0.0191993
50
351.2610211
51
358.6807287
0
LINE
8
DEFAULT_255_2_778
10
83.0579996
20
69.2944187
11
92.8792996
21
87.2014187
0
LINE
8
DEFAULT_255_2_778
10
92.9215996
20
87.4130187
11
92.9215996
21
90.8844187
0
LINE
8
DEFAULT_255_2_778
10
92.4982996
20
91.3077187
11
65.5319996
21
91.3077187
0
LINE
8
DEFAULT_255_2_778
10
65.1085996
20
91.0114187
11
54.8639996
21
57.9914187
0
LINE
8
DEFAULT_255_2_778
10
54.8639996
20
57.9914187
11
44.7039996
21
91.0114187
0
LINE
8
DEFAULT_255_2_778
10
44.3229996
20
91.3077187
11
37.1262996
21
91.3077187
0
LINE
8
DEFAULT_255_2_778
10
36.7875996
20
90.7574187
11
40.8515996
21
79.7507187
0
LINE
8
DEFAULT_255_2_778
10
40.8515996
20
79.7507187
11
33.6549996
21
58.0337187
0
LINE
8
DEFAULT_255_2_778
10
33.6549996
20
58.0337187
11
23.9182996
21
91.0537187
0
LINE
8
DEFAULT_255_2_778
10
23.4949996
20
91.3500187
11
16.2135996
21
91.3500187
0
LINE
8
DEFAULT_255_2_778
10
15.8325996
20
90.8420187
11
32.8929996
21
33.2687187
0
LINE
8
DEFAULT_255_2_778
10
33.7395996
20
33.2687187
11
44.4499996
21
67.4317187
0
LINE
8
DEFAULT_255_2_778
10
44.4499996
20
67.4317187
11
54.3559996
21
33.3110187
0
LINE
8
DEFAULT_255_2_778
10
55.2025996
20
33.3110187
11
71.2045996
21
84.3227187
0
LINE
8
DEFAULT_255_2_778
10
71.2045996
20
84.3227187
11
82.8462996
21
84.3227187
0
LINE
8
DEFAULT_255_2_778
10
82.8462996
20
84.3227187
11
72.9402996
21
67.6857187
0
LINE
8
DEFAULT_255_2_778
10
72.8979996
20
67.4740187
11
72.8979996
21
63.5370187
0
LINE
8
DEFAULT_255_2_778
10
73.3212996
20
63.1137187
11
78.9092996
21
63.1137187
0
LINE
8
DEFAULT_255_2_778
10
70.2309996
20
48.2970187
11
65.0239996
21
45.6724187
0
LINE
8
DEFAULT_255_2_778
10
83.3119996
20
69.3790187
11
83.0579996
21
69.2944187
0
LINE
8
DEFAULT_255_2_778
10
98.9329996
20
58.8380187
11
98.9752996
21
58.8380187
0
LINE
8
DEFAULT_255_2_778
10
119.4222996
20
76.3640187
11
123.9095996
21
83.3490187
0
LINE
8
DEFAULT_255_2_778
10
123.9519996
20
83.6454187
11
122.5549996
21
91.0960187
0
LINE
8
DEFAULT_255_2_778
10
121.7929996
20
91.2230187
11
117.8559996
21
84.0264187
0
LINE
8
DEFAULT_255_2_778
10
99.0175996
20
58.9650187
11
98.9329996
21
58.8380187
0
LINE
8
DEFAULT_255_2_778
10
123.8249996
20
44.3262187
11
123.8249996
21
44.4955187
0
LINE
8
DEFAULT_255_2_778
10
123.8249996
20
44.4955187
11
123.1052996
21
50.4137187
0
LINE
8
DEFAULT_255_2_778
10
123.1052996
20
50.4137187
11
123.1475996
21
50.3714187
0
ENDSEC
0
EOF