0
SECTION
2
HEADER
9
$MEASUREMENT
70
1
0
ENDSEC
0
SECTION
2
TABLES
0
TABLE
2
LTYPE
0
LTYPE
72
65
70
64
2
CONTINUOUS
3
______
73
0
40
0
0
ENDTAB
0
TABLE
2
LAYER
0
LAYER
2
DEFAULT_255_2_778
70
0
62
255
6
CONTINUOUS
0
ENDTAB
0
ENDSEC
0
SECTION
2
ENTITIES
0
ARC
8
DEFAULT_255_2_778
10
8.0259003
20
7.6691934
40
7.9814008
50
349.3533401
51
0.0266066
0
ARC
8
DEFAULT_255_2_778
10
8.127218
20
7.6523632
40
7.8787181
50
335.518245
51
349.3375004
0
ARC
8
DEFAULT_255_2_778
10
8.0495072
20
7.6934912
40
7.9664877
50
293.144318
51
335.4806541
0
ARC
8
DEFAULT_255_2_778
10
8.0900246
20
7.6162122
40
7.879506
50
279.515804
51
293.0942749
0
ARC
8
DEFAULT_255_2_778
10
8.0728791
20
7.7272395
40
7.9918402
50
269.9779268
51
279.5054415
0
ARC
8
DEFAULT_255_2_778
10
8.0660939
20
7.7167997
40
7.9814008
50
259.3533401
51
270.0266066
0
ARC
8
DEFAULT_255_2_778
10
8.0492636
20
7.615482
40
7.8787181
50
245.518245
51
259.3375004
0
ARC
8
DEFAULT_255_2_778
10
8.0903917
20
7.6931928
40
7.9664877
50
203.144318
51
245.4806541
0
ARC
8
DEFAULT_255_2_778
10
8.0131126
20
7.6526754
40
7.879506
50
189.515804
51
203.0942749
0
ARC
8
DEFAULT_255_2_778
10
8.1241399
20
7.6698209
40
7.9918402
50
179.9779268
51
189.5054415
0
ARC
8
DEFAULT_255_2_778
10
8.1131281
20
7.676603
40
7.9808287
50
169.3525457
51
180.0265864
0
ARC
8
DEFAULT_255_2_778
10
8.0121643
20
7.6933644
40
7.8785067
50
155.5169694
51
169.3366783
0
ARC
8
DEFAULT_255_2_778
10
8.0904324
20
7.6519473
40
7.9669032
50
113.1447009
51
155.4791636
0
ARC
8
DEFAULT_255_2_778
10
8.0496981
20
7.7297335
40
7.8793697
50
99.5163224
51
113.0946609
0
ARC
8
DEFAULT_255_2_778
10
8.0667298
20
7.6193533
40
7.991047
50
89.9779853
51
99.5059139
0
ARC
8
DEFAULT_255_2_778
10
8.0734927
20
7.6303269
40
7.9800738
50
79.3520412
51
90.0265118
0
ARC
8
DEFAULT_255_2_778
10
8.0901259
20
7.7306273
40
7.8784274
50
65.5166288
51
79.3361427
0
ARC
8
DEFAULT_255_2_778
10
8.048514
20
7.6519141
40
7.9673098
50
23.146216
51
65.4788798
0
ARC
8
DEFAULT_255_2_778
10
8.1268721
20
7.6929339
40
7.879138
50
9.4943406
51
23.0959168
0
ARC
8
DEFAULT_255_2_778
10
8.016647
20
7.6759572
40
7.9906538
50
359.9780772
51
9.4840332
0
LINE
8
DEFAULT_255_2_778
10
16.0073002
20
7.6728998
11
16.0073002
21
7.6728998
0
ARC
8
DEFAULT_255_2_778
10
-10.0230728
20
24.339932
40
20.7995029
50
320.6324272
51
320.6416683
0
ARC
8
DEFAULT_255_2_778
10
117.0671823
20
-79.935575
40
143.5942753
50
140.6315642
51
140.6329068
0
ARC
8
DEFAULT_255_2_778
10
116.8457189
20
-79.7652142
40
143.315005
50
140.6294024
51
140.6307515
0
ARC
8
DEFAULT_255_2_778
10
116.6310729
20
-79.6003922
40
143.0445189
50
140.6272533
51
140.628609
0
ARC
8
DEFAULT_255_2_778
10
-14.8460703
20
28.2870795
40
27.0317749
50
320.6200589
51
320.6272534
0
ARC
8
DEFAULT_255_2_778
10
-15.0526228
20
28.4561398
40
27.2986927
50
320.6136977
51
320.620842
0
ARC
8
DEFAULT_255_2_778
10
-15.1878372
20
28.563448
40
27.4712901
50
320.6125492
51
320.6196685
0
ARC
8
DEFAULT_255_2_778
10
-15.3953623
20
28.7333556
40
27.7394973
50
320.6062443
51
320.6133142
0
ARC
8
DEFAULT_255_2_778
10
-15.5304473
20
28.840557
40
27.9119265
50
320.6051224
51
320.6121678
0
ARC
8
DEFAULT_255_2_778
10
50.8785076
20
-25.702377
40
58.0245672
50
140.6021114
51
140.6072146
0
ARC
8
DEFAULT_255_2_778
10
-15.9453244
20
29.1756593
40
28.445216
50
320.5965004
51
320.6034598
0
ARC
8
DEFAULT_255_2_778
10
550.7797026
20
-436.3859711
40
704.9884128
50
140.5970988
51
140.5976631
0
ARC
8
DEFAULT_255_2_778
10
-16.3736345
20
29.5176942
40
28.9932852
50
320.5909036
51
320.5977839
0
ARC
8
DEFAULT_255_2_778
10
301.6146688
20
-231.7767159
40
382.5784945
50
140.5895944
51
140.5903793
0
ARC
8
DEFAULT_255_2_778
10
298.8954177
20
-229.566307
40
379.0742273
50
140.5875796
51
140.5883747
0
ARC
8
DEFAULT_255_2_778
10
-16.9425272
20
29.9723652
40
29.7214793
50
320.5829079
51
320.5896853
0
ARC
8
DEFAULT_255_2_778
10
-25.4626655
20
36.9732674
40
40.7489624
50
320.5799906
51
320.5849455
0
ARC
8
DEFAULT_255_2_778
10
12546.5205408
20
-10299.3492424
40
16234.8255212
50
140.5739269
51
140.5743517
0
ARC
8
DEFAULT_255_2_778
10
80.0758936
20
-49.9402807
40
95.9709707
50
140.577384
51
140.6527103
0
ARC
8
DEFAULT_255_2_778
10
53.6757192
20
-28.2934353
40
61.8307434
50
140.6542448
51
140.7742154
0
ARC
8
DEFAULT_255_2_778
10
43.8100944
20
-20.2411358
40
49.0961417
50
140.7730369
51
141.0057509
0
ARC
8
DEFAULT_255_2_778
10
38.7172164
20
-16.1174573
40
42.5431172
50
141.0061628
51
141.3179769
0
ARC
8
DEFAULT_255_2_778
10
35.9207067
20
-13.878124
40
38.9605091
50
141.318375
51
141.6946804
0
ARC
8
DEFAULT_255_2_778
10
34.1350345
20
-12.4669915
40
36.6845654
50
141.6954457
51
142.0692314
0
ARC
8
DEFAULT_255_2_778
10
32.6109926
20
-11.2800926
40
34.7528739
50
142.0681255
51
142.6187835
0
ARC
8
DEFAULT_255_2_778
10
31.0236889
20
-10.0678171
40
32.7555896
50
142.6181089
51
143.2854924
0
ARC
8
DEFAULT_255_2_778
10
29.6284968
20
-9.0264729
40
31.0146249
50
143.2867518
51
143.8462421
0
ARC
8
DEFAULT_255_2_778
10
28.0901782
20
-7.9048192
40
29.1108059
50
143.8425553
51
144.7739821
0
ARC
8
DEFAULT_255_2_778
10
26.1881872
20
-6.5625451
40
26.7828735
50
144.7727119
51
145.8252735
0
ARC
8
DEFAULT_255_2_778
10
24.4346338
20
-5.3708003
40
24.6626837
50
145.827506
51
146.7450924
0
ARC
8
DEFAULT_255_2_778
10
22.2444608
20
-3.9420176
40
22.0476818
50
146.7289548
51
148.564089
0
ARC
8
DEFAULT_255_2_778
10
17.5051368
20
-1.103245
40
16.5235049
50
148.3918937
51
154.2028506
0
ARC
8
DEFAULT_255_2_778
10
13.6210188
20
0.823667
40
12.1879922
50
154.4123364
51
156.581967
0
ARC
8
DEFAULT_255_2_778
10
11.9055549
20
1.5634049
40
10.3198332
50
156.5654058
51
159.497803
0
ARC
8
DEFAULT_255_2_778
10
10.3684098
20
2.1399006
40
8.6781393
50
159.5083993
51
162.2737586
0
ARC
8
DEFAULT_255_2_778
10
9.067073
20
2.5540715
40
7.312485
50
162.2603582
51
165.7198929
0
ARC
8
DEFAULT_255_2_778
10
7.9033014
20
2.8502456
40
6.1116173
50
165.7195547
51
169.4811206
0
ARC
8
DEFAULT_255_2_778
10
6.9427538
20
3.0284043
40
5.1346873
50
169.4789732
51
173.652694
0
ARC
8
DEFAULT_255_2_778
10
6.1124905
20
3.1194242
40
4.2994511
50
173.6350002
51
178.864054
0
ARC
8
DEFAULT_255_2_778
10
5.6773447
20
3.1332761
40
3.8641197
50
178.9414923
51
179.9972488
0
ARC
8
DEFAULT_255_2_778
10
5.4925415
20
3.13267
40
3.6793165
50
179.9876717
51
182.2434308
0
ARC
8
DEFAULT_255_2_778
10
5.2485305
20
3.1228747
40
3.435109
50
182.2394955
51
184.9730285
0
ARC
8
DEFAULT_255_2_778
10
5.0768805
20
3.1086715
40
3.2628741
50
184.9858489
51
186.2819306
0
ARC
8
DEFAULT_255_2_778
10
8.1556863
20
7.7170754
40
8.0389237
50
218.1464408
51
226.0298913
0
ARC
8
DEFAULT_255_2_778
10
5.4673415
20
1.9822115
40
2.8933886
50
179.9990838
51
181.0053441
0
ARC
8
DEFAULT_255_2_778
10
5.6917979
20
1.9762897
40
3.1178508
50
170.9099927
51
179.8903256
0
ARC
8
DEFAULT_255_2_778
10
6.2163287
20
1.8949298
40
3.6486488
50
164.8493111
51
170.9497281
0
ARC
8
DEFAULT_255_2_778
10
6.8160236
20
1.7336192
40
4.2696594
50
159.9652865
51
164.8631547
0
ARC
8
DEFAULT_255_2_778
10
7.3723409
20
1.5345422
40
4.8605141
50
157.3636477
51
160.0072345
0
ARC
8
DEFAULT_255_2_778
10
8.2959796
20
1.1353448
40
5.8666591
50
151.033632
51
157.2371275
0
ARC
8
DEFAULT_255_2_778
10
9.9419093
20
0.2282252
40
7.7460052
50
146.1970598
51
151.0593334
0
ARC
8
DEFAULT_255_2_778
10
12.0557541
20
-1.1866081
40
10.2896429
50
142.0083704
51
146.1990011
0
ARC
8
DEFAULT_255_2_778
10
15.1000123
20
-3.5700301
40
14.1559324
50
138.113843
51
141.990179
0
ARC
8
DEFAULT_255_2_778
10
22.7408317
20
-10.5685179
40
24.5171158
50
132.8142042
51
137.8596484
0
ARC
8
DEFAULT_255_2_778
10
35.1481436
20
-23.6250444
40
42.5277874
50
132.596152
51
133.1213893
0
ARC
8
DEFAULT_255_2_778
10
43.2138129
20
-32.4007904
40
54.4470463
50
132.1389646
51
132.5938627
0
ARC
8
DEFAULT_255_2_778
10
57.3243745
20
-47.989458
40
75.4735652
50
131.8737848
51
132.1422584
0
ARC
8
DEFAULT_255_2_778
10
87.1789235
20
-81.2946765
40
120.2008686
50
131.7083374
51
131.873423
0
LINE
8
DEFAULT_255_2_778
10
7.2045983
20
8.4402451
11
6.0536983
21
11.1469451
0
LINE
8
DEFAULT_255_2_778
10
6.0536983
20
11.1469451
11
6.0589983
21
11.1495451
0
ARC
8
DEFAULT_255_2_778
10
-1.8773137
20
17.6141241
40
10.2318977
50
320.7977132
51
320.8164744
0
ARC
8
DEFAULT_255_2_778
10
303.5019785
20
-231.4159455
40
383.8144039
50
140.8036707
51
140.8041724
0
ARC
8
DEFAULT_255_2_778
10
-1.9981939
20
17.7064988
40
10.3839567
50
320.787172
51
320.8057696
0
ARC
8
DEFAULT_255_2_778
10
268.7733191
20
-203.2180567
40
339.0797345
50
140.7887782
51
140.7893494
0
ARC
8
DEFAULT_255_2_778
10
264.5388765
20
-199.7871529
40
333.6298485
50
140.7861646
51
140.7867468
0
ARC
8
DEFAULT_255_2_778
10
251.9048437
20
-189.5314984
40
317.3573121
50
140.7792941
51
140.7799079
0
ARC
8
DEFAULT_255_2_778
10
-13.1393405
20
26.7857577
40
24.7560828
50
320.7761721
51
320.7840631
0
ARC
8
DEFAULT_255_2_778
10
-13.3248979
20
26.936623
40
24.9952304
50
320.7694005
51
320.7772377
0
ARC
8
DEFAULT_255_2_778
10
237.7185842
20
-178.0335107
40
299.0967097
50
140.7692945
51
140.7699512
0
ARC
8
DEFAULT_255_2_778
10
-13.6235514
20
27.1757949
40
25.3778319
50
320.7620658
51
320.7698269
0
ARC
8
DEFAULT_255_2_778
10
-13.796413
20
27.3158271
40
25.6002939
50
320.7563294
51
320.7640436
0
LINE
8
DEFAULT_255_2_778
10
6.0300556
20
11.1205748
11
5.870535
21
10.9255336
0
ARC
8
DEFAULT_255_2_778
10
63.1366506
20
-35.8680754
40
73.9530246
50
140.7468622
51
140.8468092
0
ARC
8
DEFAULT_255_2_778
10
47.4909156
20
-23.130828
40
53.7781271
50
140.8452954
51
141.057732
0
ARC
8
DEFAULT_255_2_778
10
40.4909582
20
-17.473461
40
44.7778381
50
141.0583113
51
141.3555015
0
ARC
8
DEFAULT_255_2_778
10
36.9329532
20
-14.6281688
40
40.2220629
50
141.3559988
51
141.7225959
0
ARC
8
DEFAULT_255_2_778
10
34.8265725
20
-12.9652593
40
37.5383887
50
141.723481
51
142.0915602
0
ARC
8
DEFAULT_255_2_778
10
33.3776534
20
-11.8366121
40
35.7017585
50
142.0920054
51
142.4487212
0
ARC
8
DEFAULT_255_2_778
10
31.9329296
20
-10.7273745
40
33.8803212
50
142.4468528
51
143.0537793
0
ARC
8
DEFAULT_255_2_778
10
30.3856304
20
-9.5633817
40
31.944084
50
143.0542014
51
143.6593648
0
ARC
8
DEFAULT_255_2_778
10
28.7274546
20
-8.3453205
40
29.8866054
50
143.6565828
51
144.5455736
0
ARC
8
DEFAULT_255_2_778
10
26.6893706
20
-6.8957924
40
27.3856224
50
144.5425426
51
145.6827473
0
ARC
8
DEFAULT_255_2_778
10
25.4447482
20
-6.0411347
40
25.8758192
50
145.692046
51
145.8681425
0
ARC
8
DEFAULT_255_2_778
10
24.4854632
20
-5.3936701
40
24.7184805
50
145.8627734
51
146.7768057
0
ARC
8
DEFAULT_255_2_778
10
22.2746788
20
-3.953114
40
22.0797826
50
146.7607003
51
148.5900931
0
ARC
8
DEFAULT_255_2_778
10
17.5167521
20
-1.1058785
40
16.5352963
50
148.418142
51
154.2150325
0
ARC
8
DEFAULT_255_2_778
10
13.6284335
20
0.8219969
40
12.1955916
50
154.4242095
51
156.5888797
0
ARC
8
DEFAULT_255_2_778
10
11.9113233
20
1.5621795
40
10.3257449
50
156.5722131
51
159.5027947
0
ARC
8
DEFAULT_255_2_778
10
10.3723369
20
2.1392148
40
8.6821374
50
159.5134108
51
162.2774101
0
ARC
8
DEFAULT_255_2_778
10
9.0697095
20
2.5537124
40
7.3151543
50
162.2640574
51
165.7222596
0
ARC
8
DEFAULT_255_2_778
10
7.9046428
20
2.8501645
40
6.1129627
50
165.7219169
51
169.482609
0
ARC
8
DEFAULT_255_2_778
10
6.9436814
20
3.0283677
40
5.1356177
50
169.4803915
51
173.6533258
0
ARC
8
DEFAULT_255_2_778
10
6.1129108
20
3.1194345
40
4.2998719
50
173.6356297
51
178.864147
0
ARC
8
DEFAULT_255_2_778
10
5.6796605
20
3.1332771
40
3.8664359
50
178.9419686
51
179.9970883
0
ARC
8
DEFAULT_255_2_778
10
5.4927697
20
3.1326819
40
3.6795452
50
179.9876722
51
182.2433624
0
ARC
8
DEFAULT_255_2_778
10
5.2483702
20
3.1228671
40
3.4349489
50
182.2393496
51
184.9730954
0
ARC
8
DEFAULT_255_2_778
10
5.078474
20
3.1088292
40
3.2644755
50
184.9861346
51
186.2816205
0
ARC
8
DEFAULT_255_2_778
10
8.1556861
20
7.7170754
40
8.0389237
50
218.1464408
51
226.0298913
0
ARC
8
DEFAULT_255_2_778
10
5.4673413
20
1.9822115
40
2.8933886
50
179.9990838
51
181.0053441
0
ARC
8
DEFAULT_255_2_778
10
5.6917977
20
1.9762897
40
3.1178508
50
170.9099927
51
179.8903256
0
ARC
8
DEFAULT_255_2_778
10
6.2163285
20
1.8949298
40
3.6486488
50
164.8493111
51
170.9497281
0
ARC
8
DEFAULT_255_2_778
10
6.8160234
20
1.7336192
40
4.2696594
50
159.9652865
51
164.8631547
0
ARC
8
DEFAULT_255_2_778
10
7.3723407
20
1.5345422
40
4.8605141
50
157.3636477
51
160.0072345
0
ARC
8
DEFAULT_255_2_778
10
8.2959794
20
1.1353448
40
5.8666591
50
151.033632
51
157.2371275
0
ARC
8
DEFAULT_255_2_778
10
9.9419091
20
0.2282252
40
7.7460052
50
146.1970598
51
151.0593334
0
ARC
8
DEFAULT_255_2_778
10
12.0557539
20
-1.1866081
40
10.2896429
50
142.0083704
51
146.1990011
0
ARC
8
DEFAULT_255_2_778
10
15.1000121
20
-3.5700301
40
14.1559324
50
138.113843
51
141.990179
0
ARC
8
DEFAULT_255_2_778
10
22.7408315
20
-10.5685179
40
24.5171158
50
132.8142042
51
137.8596484
0
ARC
8
DEFAULT_255_2_778
10
35.1481434
20
-23.6250444
40
42.5277874
50
132.596152
51
133.1213893
0
ARC
8
DEFAULT_255_2_778
10
43.2138127
20
-32.4007904
40
54.4470463
50
132.1389646
51
132.5938627
0
ARC
8
DEFAULT_255_2_778
10
57.3243743
20
-47.989458
40
75.4735652
50
131.8737848
51
132.1422584
0
ARC
8
DEFAULT_255_2_778
10
87.1789233
20
-81.2946765
40
120.2008686
50
131.7083374
51
131.873423
0
LINE
8
DEFAULT_255_2_778
10
7.2045981
20
8.4402451
11
6.0536981
21
11.1495451
0
ARC
8
DEFAULT_255_2_778
10
8.0305467
20
7.669675
40
7.9136874
50
121.4636875
51
133.0345717
0
ARC
8
DEFAULT_255_2_778
10
2.0859535
20
10.6393345
40
2.8668698
50
78.6984739
51
79.0619765
0
ARC
8
DEFAULT_255_2_778
10
1.937038
20
10.0280411
40
3.4955915
50
65.4538187
51
78.2685152
0
ARC
8
DEFAULT_255_2_778
10
1.1728247
20
8.3705977
40
5.320725
50
53.4735083
51
65.3827168
0
ARC
8
DEFAULT_255_2_778
10
0.0559051
20
6.8151567
40
7.2354884
50
45.0134933
51
53.6972408
0
ARC
8
DEFAULT_255_2_778
10
-0.1616681
20
6.5794991
40
7.5559847
50
42.4035254
51
45.1098872
0
ARC
8
DEFAULT_255_2_778
10
0.0674467
20
6.7884809
40
7.2458766
50
40.3498917
51
42.405012
0
ARC
8
DEFAULT_255_2_778
10
0.4107927
20
7.0801693
40
6.7953563
50
38.5905001
51
40.3499211
0
ARC
8
DEFAULT_255_2_778
10
0.8464117
20
7.4272981
40
6.2383446
50
36.7542277
51
38.5941112
0
ARC
8
DEFAULT_255_2_778
10
-2.762825
20
5.7144969
40
10.1854928
50
28.9766323
51
32.3205199
0
ARC
8
DEFAULT_255_2_778
10
-4.7248633
20
4.6378739
40
12.423494
50
26.0188645
51
28.9366627
0
ARC
8
DEFAULT_255_2_778
10
-19.4547946
20
-2.4229427
40
28.7581249
50
23.7755478
51
25.7870858
0
ARC
8
DEFAULT_255_2_778
10
270.7120168
20
127.2457161
40
289.0641852
50
204.1088968
51
204.1234912
0
ARC
8
DEFAULT_255_2_778
10
35.4852984
20
21.8037612
40
31.2861191
50
203.9493349
51
205.2754322
0
ARC
8
DEFAULT_255_2_778
10
23.188903
20
16.0556881
40
17.7127322
50
205.4449594
51
205.482578
0
ARC
8
DEFAULT_255_2_778
10
2.0633704
20
3.4462982
40
11.3914907
50
58.0065663
51
58.7930909
0
ARC
8
DEFAULT_255_2_778
10
2.2219313
20
3.7083198
40
11.085228
50
58.7923471
51
59.7454779
0
ARC
8
DEFAULT_255_2_778
10
2.3711425
20
3.9639608
40
10.7892275
50
59.745931
51
60.5958997
0
ARC
8
DEFAULT_255_2_778
10
2.506041
20
4.2033769
40
10.5144225
50
60.5957662
51
61.4973198
0
ARC
8
DEFAULT_255_2_778
10
2.773059
20
4.7014865
40
9.9492657
50
61.4797914
51
64.3590199
0
ARC
8
DEFAULT_255_2_778
10
3.1862248
20
5.5683192
40
8.9890068
50
64.3422783
51
68.3727076
0
ARC
8
DEFAULT_255_2_778
10
3.616302
20
6.6666899
40
7.8094495
50
68.335852
51
74.331186
0
ARC
8
DEFAULT_255_2_778
10
3.9602043
20
7.9173769
40
6.512363
50
74.2726037
51
83.2144097
0
ARC
8
DEFAULT_255_2_778
10
4.0753718
20
8.8101715
40
5.6122217
50
83.3049992
51
89.9435421
0
ARC
8
DEFAULT_255_2_778
10
4.0806064
20
9.1361313
40
5.2862591
50
89.9967959
51
91.7861996
0
ARC
8
DEFAULT_255_2_778
10
3.9124541
20
14.4271377
40
0.0080586
50
268.5195022
51
294.7944865
0
ARC
8
DEFAULT_255_2_778
10
3.9123717
20
14.4352312
40
0.01615
50
261.3169802
51
269.5535161
0
ARC
8
DEFAULT_255_2_778
10
3.9163215
20
14.4604137
40
0.0416403
50
256.9619692
51
261.1756427
0
ARC
8
DEFAULT_255_2_778
10
3.9007479
20
14.396794
40
0.0238668
50
74.9939596
51
86.3399253
0
ARC
8
DEFAULT_255_2_778
10
3.9020109
20
14.4175295
40
0.0030936
50
85.1692162
51
132.1819753
0
LINE
8
DEFAULT_255_2_778
10
7.1993336
20
8.4350219
11
8.0988336
21
9.1917219
0
LINE
8
DEFAULT_255_2_778
10
8.0988336
20
9.1917219
11
8.0988336
21
13.1075219
0
LINE
8
DEFAULT_255_2_778
10
3.8999336
20
14.4198219
11
3.8999336
21
14.4198219
0
ARC
8
DEFAULT_255_2_778
10
8.0305467
20
7.669675
40
7.9136874
50
121.4636875
51
133.0345717
0
ARC
8
DEFAULT_255_2_778
10
2.0859535
20
10.6393345
40
2.8668698
50
78.6984739
51
79.0619765
0
ARC
8
DEFAULT_255_2_778
10
1.937038
20
10.0280411
40
3.4955915
50
65.4538187
51
78.2685152
0
ARC
8
DEFAULT_255_2_778
10
1.1728247
20
8.3705977
40
5.320725
50
53.4735083
51
65.3827168
0
ARC
8
DEFAULT_255_2_778
10
0.0559051
20
6.8151567
40
7.2354884
50
45.0134933
51
53.6972408
0
ARC
8
DEFAULT_255_2_778
10
-0.1616681
20
6.5794991
40
7.5559847
50
42.4035254
51
45.1098872
0
ARC
8
DEFAULT_255_2_778
10
0.0674467
20
6.7884809
40
7.2458766
50
40.3498917
51
42.405012
0
ARC
8
DEFAULT_255_2_778
10
0.4107927
20
7.0801693
40
6.7953563
50
38.5905001
51
40.3499211
0
ARC
8
DEFAULT_255_2_778
10
0.8464117
20
7.4272981
40
6.2383446
50
36.7542277
51
38.5941112
0
ARC
8
DEFAULT_255_2_778
10
-2.762825
20
5.7144969
40
10.1854928
50
28.9766323
51
32.3205199
0
ARC
8
DEFAULT_255_2_778
10
-4.7248633
20
4.6378739
40
12.423494
50
26.0188645
51
28.9366627
0
ARC
8
DEFAULT_255_2_778
10
-19.4547946
20
-2.4229427
40
28.7581249
50
23.7755478
51
25.7870858
0
ARC
8
DEFAULT_255_2_778
10
270.7120168
20
127.2457161
40
289.0641852
50
204.1088968
51
204.1234912
0
ARC
8
DEFAULT_255_2_778
10
35.4852984
20
21.8037612
40
31.2861191
50
203.9493349
51
205.2754322
0
ARC
8
DEFAULT_255_2_778
10
23.188903
20
16.0556881
40
17.7127322
50
205.4449594
51
205.482578
0
ARC
8
DEFAULT_255_2_778
10
2.0633704
20
3.4462982
40
11.3914907
50
58.0065663
51
58.7930909
0
ARC
8
DEFAULT_255_2_778
10
2.2219313
20
3.7083198
40
11.085228
50
58.7923471
51
59.7454779
0
ARC
8
DEFAULT_255_2_778
10
2.3711425
20
3.9639608
40
10.7892275
50
59.745931
51
60.5958997
0
ARC
8
DEFAULT_255_2_778
10
2.506041
20
4.2033769
40
10.5144225
50
60.5957662
51
61.4973198
0
ARC
8
DEFAULT_255_2_778
10
2.773059
20
4.7014865
40
9.9492657
50
61.4797914
51
64.3590199
0
ARC
8
DEFAULT_255_2_778
10
3.1862248
20
5.5683192
40
8.9890068
50
64.3422783
51
68.3727076
0
ARC
8
DEFAULT_255_2_778
10
3.616302
20
6.6666899
40
7.8094495
50
68.335852
51
74.331186
0
ARC
8
DEFAULT_255_2_778
10
3.9602043
20
7.9173769
40
6.512363
50
74.2726037
51
83.2144097
0
ARC
8
DEFAULT_255_2_778
10
4.0753718
20
8.8101715
40
5.6122217
50
83.3049992
51
89.9435421
0
ARC
8
DEFAULT_255_2_778
10
4.0806064
20
9.1361313
40
5.2862591
50
89.9967959
51
91.7861996
0
ARC
8
DEFAULT_255_2_778
10
3.9124541
20
14.4271377
40
0.0080586
50
268.5195022
51
294.7944865
0
ARC
8
DEFAULT_255_2_778
10
3.9123717
20
14.4352312
40
0.01615
50
261.3169802
51
269.5535161
0
ARC
8
DEFAULT_255_2_778
10
3.9163215
20
14.4604137
40
0.0416403
50
256.9619692
51
261.1756427
0
ARC
8
DEFAULT_255_2_778
10
3.9007479
20
14.396794
40
0.0238668
50
74.9939596
51
86.3399253
0
ARC
8
DEFAULT_255_2_778
10
3.9020109
20
14.4175295
40
0.0030936
50
85.1692162
51
132.1819753
0
LINE
8
DEFAULT_255_2_778
10
7.1993336
20
8.4350219
11
8.0988336
21
9.1917219
0
LINE
8
DEFAULT_255_2_778
10
8.0988336
20
9.1917219
11
8.0988336
21
13.1075219
0
LINE
8
DEFAULT_255_2_778
10
3.8999336
20
14.4198219
11
3.8999336
21
14.4198219
0
LINE
8
DEFAULT_255_2_778
10
10.0859479
20
11.1468653
11
10.0880584
21
11.1442624
0
ARC
8
DEFAULT_255_2_778
10
23.893013
20
22.3387924
40
17.7734148
50
219.0388273
51
219.0496625
0
LINE
8
DEFAULT_255_2_778
10
10.0901756
20
11.1416518
11
10.0922993
21
11.1390337
0
LINE
8
DEFAULT_255_2_778
10
10.0922993
20
11.1390337
11
10.0944294
21
11.1364082
0
ARC
8
DEFAULT_255_2_778
10
27.4539838
20
25.220979
40
22.3546251
50
219.0539413
51
219.0626321
0
LINE
8
DEFAULT_255_2_778
10
10.096566
20
11.1337752
11
10.0987089
21
11.1311349
0
LINE
8
DEFAULT_255_2_778
10
10.0987089
20
11.1311349
11
10.100858
21
11.1284873
0
LINE
8
DEFAULT_255_2_778
10
10.100858
20
11.1284873
11
10.1030133
21
11.1258326
0
ARC
8
DEFAULT_255_2_778
10
28.0284944
20
25.6792387
40
23.089489
50
219.0725829
51
219.0810915
0
LINE
8
DEFAULT_255_2_778
10
10.1051748
20
11.1231707
11
10.1073422
21
11.1205019
0
ARC
8
DEFAULT_255_2_778
10
28.3045085
20
25.8988035
40
23.4421642
50
219.0807777
51
219.0892032
0
ARC
8
DEFAULT_255_2_778
10
28.4623111
20
26.0257921
40
23.6447151
50
219.0869373
51
219.0953125
0
ARC
8
DEFAULT_255_2_778
10
28.5684267
20
26.108062
40
23.778952
50
219.0879195
51
219.0962691
0
ARC
8
DEFAULT_255_2_778
10
-70.0192038
20
-54.0020014
40
103.2531036
50
39.094655
51
39.0965828
0
ARC
8
DEFAULT_255_2_778
10
28.8324355
20
26.3174164
40
24.11587
50
219.094988
51
219.1032626
0
ARC
8
DEFAULT_255_2_778
10
28.9782615
20
26.4342062
40
24.3026941
50
219.1000912
51
219.1083226
0
ARC
8
DEFAULT_255_2_778
10
-69.1769006
20
-53.3565865
40
102.1923905
50
39.1057422
51
39.1077045
0
ARC
8
DEFAULT_255_2_778
10
34.9985098
20
31.3224047
40
32.0575544
50
219.1065665
51
219.1128371
0
ARC
8
DEFAULT_255_2_778
10
-69.0431529
20
-53.2683766
40
102.0329668
50
39.1107327
51
39.1127076
0
ARC
8
DEFAULT_255_2_778
10
-68.5417847
20
-52.8767035
40
101.3968662
50
39.115727
51
39.1177189
0
ARC
8
DEFAULT_255_2_778
10
35.5068609
20
31.7286923
40
32.7082929
50
219.1156212
51
219.1218104
0
ARC
8
DEFAULT_255_2_778
10
-68.5722202
20
-52.9196351
40
101.447566
50
39.1196995
51
39.1216995
0
ARC
8
DEFAULT_255_2_778
10
-68.2368873
20
-52.6606037
40
101.0239713
50
39.123705
51
39.1257179
0
ARC
8
DEFAULT_255_2_778
10
-30.7001185
20
-22.1323512
40
52.6402632
50
39.1222377
51
39.1261093
0
ARC
8
DEFAULT_255_2_778
10
-68.416433
20
-52.8226123
40
101.2654876
50
39.1266863
51
39.1287032
0
ARC
8
DEFAULT_255_2_778
10
-161.4381279
20
-128.5160303
40
221.19267
50
39.129809
51
39.1316635
0
ARC
8
DEFAULT_255_2_778
10
-31.0030579
20
-22.4079732
40
53.0491981
50
39.1312759
51
39.1351506
0
ARC
8
DEFAULT_255_2_778
10
-31.0414806
20
-22.4474639
40
53.1039256
50
39.1342856
51
39.1381643
0
ARC
8
DEFAULT_255_2_778
10
-152.5770479
20
-121.3457102
40
209.7939291
50
39.1345355
51
39.1360127
0
ARC
8
DEFAULT_255_2_778
10
-1744.862252
20
-1417.5377618
40
2262.9588001
50
39.1428736
51
39.1459763
0
ARC
8
DEFAULT_255_2_778
10
-67.2662101
20
-52.1011507
40
99.9179734
50
39.0672657
51
39.1403692
0
ARC
8
DEFAULT_255_2_778
10
-39.6305403
20
-29.6666513
40
64.32251
50
38.9501455
51
39.066018
0
ARC
8
DEFAULT_255_2_778
10
-29.200533
20
-21.23719
40
50.9120339
50
38.7272008
51
38.9515248
0
ARC
8
DEFAULT_255_2_778
10
-23.6226876
20
-16.7637349
40
43.7619179
50
38.4252322
51
38.7267832
0
ARC
8
DEFAULT_255_2_778
10
-20.5144913
20
-14.2976988
40
39.7942715
50
38.059825
51
38.4249157
0
ARC
8
DEFAULT_255_2_778
10
-18.5614107
20
-12.7678377
40
37.3133443
50
37.695905
51
38.0590263
0
ARC
8
DEFAULT_255_2_778
10
-16.891202
20
-11.4780142
40
35.203074
50
37.1611785
51
37.6970252
0
ARC
8
DEFAULT_255_2_778
10
-15.1895548
20
-10.1887067
40
33.0681461
50
36.506428
51
37.1618645
0
ARC
8
DEFAULT_255_2_778
10
-13.7274794
20
-9.1056154
40
31.2485993
50
35.9609582
51
36.5050153
0
ARC
8
DEFAULT_255_2_778
10
-12.1460245
20
-7.9604895
40
29.2960857
50
35.0589475
51
35.9644768
0
ARC
8
DEFAULT_255_2_778
10
-10.2237431
20
-6.6121939
40
26.9480937
50
34.0377833
51
35.0600783
0
ARC
8
DEFAULT_255_2_778
10
-8.454651
20
-5.4161788
40
24.8126457
50
33.1298967
51
34.0357755
0
ARC
8
DEFAULT_255_2_778
10
-6.240505
20
-3.9785361
40
22.1727184
50
31.3336612
51
33.1458836
0
ARC
8
DEFAULT_255_2_778
10
-1.4785515
20
-1.1369109
40
16.627647
50
25.7676256
51
31.502961
0
ARC
8
DEFAULT_255_2_778
10
2.413832
20
0.7910295
40
12.284265
50
23.4230153
51
25.5618011
0
ARC
8
DEFAULT_255_2_778
10
4.1429335
20
1.5367017
40
10.4012335
50
20.5161628
51
23.4402093
0
ARC
8
DEFAULT_255_2_778
10
5.700332
20
2.1212065
40
8.7377634
50
17.7454621
51
20.5056211
0
ARC
8
DEFAULT_255_2_778
10
7.0178515
20
2.5410086
40
7.3549807
50
14.3027745
51
17.7589957
0
ARC
8
DEFAULT_255_2_778
10
8.1960524
20
2.8413428
40
6.1391033
50
10.5411394
51
14.3031926
0
ARC
8
DEFAULT_255_2_778
10
9.1679096
20
3.0219785
40
5.1506017
50
6.3645777
51
10.5434284
0
ARC
8
DEFAULT_255_2_778
10
9.9930339
20
3.1130963
40
4.3204622
50
1.3427568
51
6.3766786
0
ARC
8
DEFAULT_255_2_778
10
10.4347824
20
3.128266
40
3.8784824
50
0.0039786
51
1.2716424
0
ARC
8
DEFAULT_255_2_778
10
10.6342185
20
3.1277332
40
3.6790465
50
357.7541789
51
0.0124929
0
ARC
8
DEFAULT_255_2_778
10
10.8805316
20
3.1178281
40
3.4325343
50
355.0202436
51
357.7582723
0
ARC
8
DEFAULT_255_2_778
10
11.0507987
20
3.1037564
40
3.2616884
50
353.7093316
51
355.0068715
0
ARC
8
DEFAULT_255_2_778
10
7.7281536
20
7.9124505
40
8.3536608
50
314.2250101
51
321.7990288
0
ARC
8
DEFAULT_255_2_778
10
10.6441418
20
1.9737155
40
2.9108945
50
359.0640156
51
0.0006828
0
ARC
8
DEFAULT_255_2_778
10
10.4154649
20
1.9674964
40
3.1395777
50
0.1141303
51
9.2589539
0
ARC
8
DEFAULT_255_2_778
10
9.8747932
20
1.8821003
40
3.6869461
50
9.2168573
51
15.3889476
0
ARC
8
DEFAULT_255_2_778
10
9.2613661
20
1.7145729
40
4.3228368
50
15.372191
51
20.2357454
0
ARC
8
DEFAULT_255_2_778
10
8.7527514
20
1.5316933
40
4.8633154
50
20.1847356
51
22.1923738
0
ARC
8
DEFAULT_255_2_778
10
7.8930313
20
1.1659562
40
5.7975103
50
22.329867
51
28.6171431
0
ARC
8
DEFAULT_255_2_778
10
6.2591017
20
0.2784047
40
7.6569362
50
28.5913262
51
33.5174632
0
ARC
8
DEFAULT_255_2_778
10
4.1538149
20
-1.1155714
40
10.1818919
50
33.5155596
51
37.7572544
0
ARC
8
DEFAULT_255_2_778
10
1.1121343
20
-3.477052
40
14.0326576
50
37.7757958
51
41.6931032
0
ARC
8
DEFAULT_255_2_778
10
-6.5716558
20
-10.4690772
40
24.4212119
50
41.9518209
51
47.0270696
0
ARC
8
DEFAULT_255_2_778
10
-19.271016
20
-23.7578123
40
42.801449
50
46.7144792
51
47.2407474
0
ARC
8
DEFAULT_255_2_778
10
-27.7488453
20
-32.9294923
40
55.2911767
50
47.2431302
51
47.6947601
0
ARC
8
DEFAULT_255_2_778
10
-43.0453913
20
-49.7302161
40
78.0122819
50
47.6913627
51
47.9531561
0
ARC
8
DEFAULT_255_2_778
10
-77.4584173
20
-87.8882966
40
129.3960874
50
47.9535492
51
48.1080631
0
LINE
8
DEFAULT_255_2_778
10
8.9429479
20
8.4348653
11
10.0886479
21
11.1442653
0
LINE
8
DEFAULT_255_2_778
10
10.0886479
20
11.1442653
11
10.0859479
21
11.1468653
0
LINE
8
DEFAULT_255_2_778
10
10.0859076
20
11.1468653
11
10.0880181
21
11.1442624
0
ARC
8
DEFAULT_255_2_778
10
23.8929727
20
22.3387924
40
17.7734148
50
219.0388273
51
219.0496625
0
LINE
8
DEFAULT_255_2_778
10
10.0901352
20
11.1416518
11
10.0922589
21
11.1390337
0
LINE
8
DEFAULT_255_2_778
10
10.0922589
20
11.1390337
11
10.0943891
21
11.1364082
0
ARC
8
DEFAULT_255_2_778
10
27.4539434
20
25.220979
40
22.3546251
50
219.0539413
51
219.0626321
0
LINE
8
DEFAULT_255_2_778
10
10.0965257
20
11.1337752
11
10.0986686
21
11.1311349
0
LINE
8
DEFAULT_255_2_778
10
10.0986686
20
11.1311349
11
10.1008177
21
11.1284873
0
LINE
8
DEFAULT_255_2_778
10
10.1008177
20
11.1284873
11
10.102973
21
11.1258326
0
ARC
8
DEFAULT_255_2_778
10
28.0284541
20
25.6792387
40
23.089489
50
219.0725829
51
219.0810915
0
LINE
8
DEFAULT_255_2_778
10
10.1051344
20
11.1231707
11
10.1073019
21
11.1205019
0
ARC
8
DEFAULT_255_2_778
10
28.3044682
20
25.8988035
40
23.4421642
50
219.0807777
51
219.0892032
0
ARC
8
DEFAULT_255_2_778
10
28.4622708
20
26.0257921
40
23.6447151
50
219.0869373
51
219.0953125
0
ARC
8
DEFAULT_255_2_778
10
28.5683864
20
26.108062
40
23.778952
50
219.0879195
51
219.0962691
0
ARC
8
DEFAULT_255_2_778
10
-70.0192441
20
-54.0020014
40
103.2531036
50
39.094655
51
39.0965828
0
ARC
8
DEFAULT_255_2_778
10
28.8323952
20
26.3174164
40
24.11587
50
219.094988
51
219.1032626
0
ARC
8
DEFAULT_255_2_778
10
28.9782211
20
26.4342062
40
24.3026941
50
219.1000912
51
219.1083226
0
ARC
8
DEFAULT_255_2_778
10
-69.176941
20
-53.3565865
40
102.1923905
50
39.1057422
51
39.1077045
0
ARC
8
DEFAULT_255_2_778
10
34.9984695
20
31.3224047
40
32.0575544
50
219.1065665
51
219.1128371
0
ARC
8
DEFAULT_255_2_778
10
-69.0431932
20
-53.2683766
40
102.0329668
50
39.1107327
51
39.1127076
0
ARC
8
DEFAULT_255_2_778
10
-68.5418251
20
-52.8767035
40
101.3968662
50
39.115727
51
39.1177189
0
ARC
8
DEFAULT_255_2_778
10
35.5068205
20
31.7286923
40
32.7082929
50
219.1156212
51
219.1218104
0
ARC
8
DEFAULT_255_2_778
10
-68.5722606
20
-52.9196351
40
101.447566
50
39.1196995
51
39.1216995
0
ARC
8
DEFAULT_255_2_778
10
-68.2369276
20
-52.6606037
40
101.0239713
50
39.123705
51
39.1257179
0
ARC
8
DEFAULT_255_2_778
10
-30.7001589
20
-22.1323512
40
52.6402632
50
39.1222377
51
39.1261093
0
ARC
8
DEFAULT_255_2_778
10
-68.4164734
20
-52.8226123
40
101.2654876
50
39.1266863
51
39.1287032
0
ARC
8
DEFAULT_255_2_778
10
-161.4381682
20
-128.5160303
40
221.19267
50
39.129809
51
39.1316635
0
ARC
8
DEFAULT_255_2_778
10
-31.0030983
20
-22.4079732
40
53.0491981
50
39.1312759
51
39.1351506
0
ARC
8
DEFAULT_255_2_778
10
-31.041521
20
-22.4474639
40
53.1039256
50
39.1342856
51
39.1381643
0
ARC
8
DEFAULT_255_2_778
10
-152.5770882
20
-121.3457102
40
209.7939291
50
39.1345355
51
39.1360127
0
ARC
8
DEFAULT_255_2_778
10
-1744.8622923
20
-1417.5377618
40
2262.9588001
50
39.1428736
51
39.1459763
0
ARC
8
DEFAULT_255_2_778
10
-67.2662505
20
-52.1011507
40
99.9179734
50
39.0672657
51
39.1403692
0
ARC
8
DEFAULT_255_2_778
10
-39.6305806
20
-29.6666513
40
64.32251
50
38.9501455
51
39.066018
0
ARC
8
DEFAULT_255_2_778
10
-29.2005734
20
-21.23719
40
50.9120339
50
38.7272008
51
38.9515248
0
ARC
8
DEFAULT_255_2_778
10
-23.6227279
20
-16.7637349
40
43.7619179
50
38.4252322
51
38.7267832
0
ARC
8
DEFAULT_255_2_778
10
-20.5145317
20
-14.2976988
40
39.7942715
50
38.059825
51
38.4249157
0
ARC
8
DEFAULT_255_2_778
10
-18.561451
20
-12.7678377
40
37.3133443
50
37.695905
51
38.0590263
0
ARC
8
DEFAULT_255_2_778
10
-16.8912424
20
-11.4780142
40
35.203074
50
37.1611785
51
37.6970252
0
ARC
8
DEFAULT_255_2_778
10
-15.1895951
20
-10.1887067
40
33.0681461
50
36.506428
51
37.1618645
0
ARC
8
DEFAULT_255_2_778
10
-13.7275197
20
-9.1056154
40
31.2485993
50
35.9609582
51
36.5050153
0
ARC
8
DEFAULT_255_2_778
10
-12.1460648
20
-7.9604895
40
29.2960857
50
35.0589475
51
35.9644768
0
ARC
8
DEFAULT_255_2_778
10
-10.2237835
20
-6.6121939
40
26.9480937
50
34.0377833
51
35.0600783
0
ARC
8
DEFAULT_255_2_778
10
-8.4546914
20
-5.4161788
40
24.8126457
50
33.1298967
51
34.0357755
0
ARC
8
DEFAULT_255_2_778
10
-6.2405454
20
-3.9785361
40
22.1727184
50
31.3336612
51
33.1458836
0
ARC
8
DEFAULT_255_2_778
10
-1.4785918
20
-1.1369109
40
16.627647
50
25.7676256
51
31.502961
0
ARC
8
DEFAULT_255_2_778
10
2.4137916
20
0.7910295
40
12.284265
50
23.4230153
51
25.5618011
0
ARC
8
DEFAULT_255_2_778
10
4.1428931
20
1.5367017
40
10.4012335
50
20.5161628
51
23.4402093
0
ARC
8
DEFAULT_255_2_778
10
5.7002917
20
2.1212065
40
8.7377634
50
17.7454621
51
20.5056211
0
ARC
8
DEFAULT_255_2_778
10
7.0178111
20
2.5410086
40
7.3549807
50
14.3027745
51
17.7589957
0
ARC
8
DEFAULT_255_2_778
10
8.196012
20
2.8413428
40
6.1391033
50
10.5411394
51
14.3031926
0
ARC
8
DEFAULT_255_2_778
10
9.1678692
20
3.0219785
40
5.1506017
50
6.3645777
51
10.5434284
0
ARC
8
DEFAULT_255_2_778
10
9.9929935
20
3.1130963
40
4.3204622
50
1.3427568
51
6.3766786
0
ARC
8
DEFAULT_255_2_778
10
10.4347421
20
3.128266
40
3.8784824
50
0.0039786
51
1.2716424
0
ARC
8
DEFAULT_255_2_778
10
10.6341781
20
3.1277332
40
3.6790465
50
357.7541789
51
0.0124929
0
ARC
8
DEFAULT_255_2_778
10
10.8804912
20
3.1178281
40
3.4325343
50
355.0202436
51
357.7582723
0
ARC
8
DEFAULT_255_2_778
10
11.0507584
20
3.1037564
40
3.2616884
50
353.7093316
51
355.0068715
0
ARC
8
DEFAULT_255_2_778
10
7.9539459
20
7.709195
40
8.0505184
50
314.0821933
51
321.9418518
0
ARC
8
DEFAULT_255_2_778
10
10.644192
20
1.9737149
40
2.910804
50
359.0639999
51
0.0006828
0
ARC
8
DEFAULT_255_2_778
10
10.4157004
20
1.9675023
40
3.1393018
50
0.114019
51
9.2596565
0
ARC
8
DEFAULT_255_2_778
10
9.875616
20
1.8821906
40
3.686077
50
9.2176202
51
15.3912059
0
ARC
8
DEFAULT_255_2_778
10
9.2628896
20
1.7148316
40
4.3212473
50
15.3744247
51
20.2398583
0
ARC
8
DEFAULT_255_2_778
10
8.7546516
20
1.5320511
40
4.8613378
50
20.1888102
51
22.1973281
0
ARC
8
DEFAULT_255_2_778
10
7.894502
20
1.1659807
40
5.7960575
50
22.3355033
51
28.638968
0
ARC
8
DEFAULT_255_2_778
10
6.2585875
20
0.2765632
40
7.6581185
50
28.6129915
51
33.5505647
0
ARC
8
DEFAULT_255_2_778
10
4.1510135
20
-1.1206652
40
10.1867773
50
33.5485927
51
37.7993434
0
ARC
8
DEFAULT_255_2_778
10
1.1083154
20
-3.4865176
40
14.0410286
50
37.8178821
51
41.7435693
0
ARC
8
DEFAULT_255_2_778
10
-6.5610068
20
-10.4778639
40
24.4184289
50
42.0022605
51
47.0924128
0
ARC
8
DEFAULT_255_2_778
10
-19.1344523
20
-23.6631066
40
42.6368577
50
46.779699
51
47.3043639
0
ARC
8
DEFAULT_255_2_778
10
-27.3755924
20
-32.598585
40
54.7924804
50
47.3066865
51
47.7593577
0
ARC
8
DEFAULT_255_2_778
10
-41.9725321
20
-48.6671937
40
76.5012533
50
47.756013
51
48.0212374
0
ARC
8
DEFAULT_255_2_778
10
-73.6939954
20
-83.9248532
40
123.928606
50
48.021588
51
48.1819111
0
LINE
8
DEFAULT_255_2_778
10
8.9376076
20
8.4348653
11
10.0859076
21
11.1468653
0
ARC
8
DEFAULT_255_2_778
10
8.1744691
20
7.7780154
40
7.7843023
50
46.7888495
51
58.5643841
0
ARC
8
DEFAULT_255_2_778
10
14.032525
20
10.6705276
40
2.8306857
50
100.7549268
51
101.4680529
0
ARC
8
DEFAULT_255_2_778
10
14.1782013
20
10.0752345
40
3.4431443
50
101.8742666
51
114.3660643
0
ARC
8
DEFAULT_255_2_778
10
14.8994576
20
8.4969499
40
5.1784165
50
114.4309871
51
126.0283646
0
ARC
8
DEFAULT_255_2_778
10
16.019198
20
6.9202046
40
7.1122203
50
125.852294
51
135.1503152
0
ARC
8
DEFAULT_255_2_778
10
16.2624982
20
6.657014
40
7.4703401
50
135.0352361
51
137.8564575
0
ARC
8
DEFAULT_255_2_778
10
16.0252253
20
6.8715771
40
7.1504406
50
137.8555237
51
139.9189877
0
ARC
8
DEFAULT_255_2_778
10
15.6804192
20
7.161751
40
6.6997832
50
139.919089
51
141.6876651
0
ARC
8
DEFAULT_255_2_778
10
15.2452453
20
7.5051042
40
6.145466
50
141.6841635
51
143.5356783
0
ARC
8
DEFAULT_255_2_778
10
19.0442887
20
5.6492818
40
10.3321018
50
147.7837673
51
151.0254871
0
ARC
8
DEFAULT_255_2_778
10
20.8418234
20
4.6628998
40
12.3824747
50
151.0617686
51
153.9446599
0
ARC
8
DEFAULT_255_2_778
10
32.9951698
20
-1.1726304
40
25.8640491
50
154.1567894
51
156.3610763
0
ARC
8
DEFAULT_255_2_778
10
308.1297679
20
-123.4995576
40
326.9664973
50
156.0559186
51
156.0681021
0
ARC
8
DEFAULT_255_2_778
10
-27.4851706
20
25.3097159
40
40.1597985
50
335.1758472
51
336.248564
0
ARC
8
DEFAULT_255_2_778
10
-9.1900559
20
16.9142184
40
20.0305138
50
334.9306494
51
335.0008864
0
ARC
8
DEFAULT_255_2_778
10
13.7106557
20
4.1934952
40
10.5537907
50
121.5609261
51
122.3945791
0
ARC
8
DEFAULT_255_2_778
10
13.6465463
20
4.2980107
40
10.4311795
50
120.5664266
51
121.5613507
0
ARC
8
DEFAULT_255_2_778
10
13.5682351
20
4.4305104
40
10.2772678
50
119.6894384
51
120.5661587
0
ARC
8
DEFAULT_255_2_778
10
13.4804486
20
4.584517
40
10.0999982
50
118.7671594
51
119.689535
0
ARC
8
DEFAULT_255_2_778
10
13.2790955
20
4.9564974
40
9.6770255
50
115.8281914
51
118.7820411
0
ARC
8
DEFAULT_255_2_778
10
12.9216753
20
5.7009203
40
8.8512489
50
111.7551592
51
115.8450875
0
ARC
8
DEFAULT_255_2_778
10
12.5186931
20
6.7239535
40
7.7517199
50
105.7860545
51
111.7913608
0
ARC
8
DEFAULT_255_2_778
10
12.1809806
20
7.944222
40
6.4856051
50
96.8405338
51
105.8478405
0
ARC
8
DEFAULT_255_2_778
10
12.0647814
20
8.8387848
40
5.5835771
50
90.0579198
51
96.7499872
0
ARC
8
DEFAULT_255_2_778
10
12.0594325
20
9.1683721
40
5.2539867
50
88.2083924
51
90.0032223
0
ARC
8
DEFAULT_255_2_778
10
12.2257319
20
14.4221869
40
0.0031451
50
229.636781
51
274.2194403
0
ARC
8
DEFAULT_255_2_778
10
12.2247713
20
14.4384414
40
0.0194277
50
273.5174786
51
286.5180665
0
ARC
8
DEFAULT_255_2_778
10
12.2357817
20
14.4014285
40
0.0191858
50
93.4025109
51
106.4616183
0
ARC
8
DEFAULT_255_2_778
10
12.2348839
20
14.4174025
40
0.0031872
50
48.5219917
51
94.3338513
0
LINE
8
DEFAULT_255_2_778
10
8.953495
20
8.4269905
11
8.053895
21
9.1836905
0
LINE
8
DEFAULT_255_2_778
10
8.053895
20
9.1836905
11
8.056495
21
13.1048905
0
LINE
8
DEFAULT_255_2_778
10
12.236995
20
14.4197905
11
12.234295
21
14.4197905
0
ARC
8
DEFAULT_255_2_778
10
8.1744691
20
7.7780154
40
7.7843023
50
46.7888495
51
58.5643841
0
ARC
8
DEFAULT_255_2_778
10
14.032525
20
10.6705276
40
2.8306857
50
100.7549268
51
101.4680529
0
ARC
8
DEFAULT_255_2_778
10
14.1782013
20
10.0752345
40
3.4431443
50
101.8742666
51
114.3660643
0
ARC
8
DEFAULT_255_2_778
10
14.8994576
20
8.4969499
40
5.1784165
50
114.4309871
51
126.0283646
0
ARC
8
DEFAULT_255_2_778
10
16.019198
20
6.9202046
40
7.1122203
50
125.852294
51
135.1503152
0
ARC
8
DEFAULT_255_2_778
10
16.2624982
20
6.657014
40
7.4703401
50
135.0352361
51
137.8564575
0
ARC
8
DEFAULT_255_2_778
10
16.0252253
20
6.8715771
40
7.1504406
50
137.8555237
51
139.9189877
0
ARC
8
DEFAULT_255_2_778
10
15.6804192
20
7.161751
40
6.6997832
50
139.919089
51
141.6876651
0
ARC
8
DEFAULT_255_2_778
10
15.2452453
20
7.5051042
40
6.145466
50
141.6841635
51
143.5356783
0
ARC
8
DEFAULT_255_2_778
10
19.0442887
20
5.6492818
40
10.3321018
50
147.7837673
51
151.0254871
0
ARC
8
DEFAULT_255_2_778
10
20.8418234
20
4.6628998
40
12.3824747
50
151.0617686
51
153.9446599
0
ARC
8
DEFAULT_255_2_778
10
32.9951698
20
-1.1726304
40
25.8640491
50
154.1567894
51
156.3610763
0
ARC
8
DEFAULT_255_2_778
10
308.1297679
20
-123.4995576
40
326.9664973
50
156.0559186
51
156.0681021
0
ARC
8
DEFAULT_255_2_778
10
-27.4851706
20
25.3097159
40
40.1597985
50
335.1758472
51
336.248564
0
ARC
8
DEFAULT_255_2_778
10
-9.1900559
20
16.9142184
40
20.0305138
50
334.9306494
51
335.0008864
0
ARC
8
DEFAULT_255_2_778
10
13.7106557
20
4.1934952
40
10.5537907
50
121.5609261
51
122.3945791
0
ARC
8
DEFAULT_255_2_778
10
13.6465463
20
4.2980107
40
10.4311795
50
120.5664266
51
121.5613507
0
ARC
8
DEFAULT_255_2_778
10
13.5682351
20
4.4305104
40
10.2772678
50
119.6894384
51
120.5661587
0
ARC
8
DEFAULT_255_2_778
10
13.4804486
20
4.584517
40
10.0999982
50
118.7671594
51
119.689535
0
ARC
8
DEFAULT_255_2_778
10
13.2790955
20
4.9564974
40
9.6770255
50
115.8281914
51
118.7820411
0
ARC
8
DEFAULT_255_2_778
10
12.9216753
20
5.7009203
40
8.8512489
50
111.7551592
51
115.8450875
0
ARC
8
DEFAULT_255_2_778
10
12.5186931
20
6.7239535
40
7.7517199
50
105.7860545
51
111.7913608
0
ARC
8
DEFAULT_255_2_778
10
12.1809806
20
7.944222
40
6.4856051
50
96.8405338
51
105.8478405
0
ARC
8
DEFAULT_255_2_778
10
12.0647814
20
8.8387848
40
5.5835771
50
90.0579198
51
96.7499872
0
ARC
8
DEFAULT_255_2_778
10
12.0594325
20
9.1683721
40
5.2539867
50
88.2083924
51
90.0032223
0
ARC
8
DEFAULT_255_2_778
10
12.2257319
20
14.4221869
40
0.0031451
50
229.636781
51
274.2194403
0
ARC
8
DEFAULT_255_2_778
10
12.2247713
20
14.4384414
40
0.0194277
50
273.5174786
51
286.5180665
0
ARC
8
DEFAULT_255_2_778
10
12.2357817
20
14.4014285
40
0.0191858
50
93.4025109
51
106.4616183
0
ARC
8
DEFAULT_255_2_778
10
12.2348839
20
14.4174025
40
0.0031872
50
48.5219917
51
94.3338513
0
LINE
8
DEFAULT_255_2_778
10
8.953495
20
8.4269905
11
8.053895
21
9.1836905
0
LINE
8
DEFAULT_255_2_778
10
8.053895
20
9.1836905
11
8.056495
21
13.1048905
0
LINE
8
DEFAULT_255_2_778
10
12.236995
20
14.4197905
11
12.234295
21
14.4197905
0
ENDSEC
0
EOF