0
SECTION
2
HEADER
9
$MEASUREMENT
70
1
0
ENDSEC
0
SECTION
2
TABLES
0
TABLE
2
LTYPE
0
LTYPE
72
65
70
64
2
CONTINUOUS
3
______
73
0
40
0
0
ENDTAB
0
TABLE
2
LAYER
0
LAYER
2
DEFAULT_255_2_778
70
0
62
255
6
CONTINUOUS
0
ENDTAB
0
ENDSEC
0
SECTION
2
ENTITIES
0
ARC
8
DEFAULT_255_2_778
10
0.4450417
20
11.9485412
40
1.1855477
50
359.3696962
51
14.305907
0
ARC
8
DEFAULT_255_2_778
10
0.8963736
20
12.0731328
40
0.7174839
50
13.5708559
51
58.4100801
0
ARC
8
DEFAULT_255_2_778
10
0.6201434
20
11.6077463
40
1.2586371
50
58.7964743
51
73.9799353
0
ARC
8
DEFAULT_255_2_778
10
0.4046802
20
10.881825
40
2.0158409
50
73.787787
51
83.2998916
0
ARC
8
DEFAULT_255_2_778
10
0.2645845
20
9.7504065
40
3.1558856
50
83.1703841
51
89.449216
0
ARC
8
DEFAULT_255_2_778
10
0.2416965
20
8.8938089
40
4.0126903
50
89.2399965
51
90.0039812
0
ARC
8
DEFAULT_255_2_778
10
0.2536159
20
17.9690946
40
3.766115
50
269.814422
51
275.494204
0
ARC
8
DEFAULT_255_2_778
10
0.3568601
20
16.8544737
40
2.6467326
50
275.5797028
51
280.4808205
0
ARC
8
DEFAULT_255_2_778
10
0.5459818
20
15.7397543
40
1.5163022
50
281.115957
51
292.9285512
0
ARC
8
DEFAULT_255_2_778
10
0.717248
20
15.3206174
40
1.063573
50
293.2277458
51
302.15652
0
ARC
8
DEFAULT_255_2_778
10
0.8789043
20
15.0425297
40
0.7421895
50
303.0173088
51
334.5761418
0
ARC
8
DEFAULT_255_2_778
10
0.8202619
20
15.0761921
40
0.8096213
50
334.2062617
51
355.9691656
0
ARC
8
DEFAULT_255_2_778
10
0.4984301
20
15.1140082
40
1.1334158
50
355.2058229
51
0.0688973
0
ARC
8
DEFAULT_255_2_778
10
0.3353079
20
15.1149407
40
1.2965373
50
0.0190183
51
2.3896217
0
ARC
8
DEFAULT_255_2_778
10
4.0994236
20
16.90768
40
2.4687439
50
171.9117916
51
180.317508
0
ARC
8
DEFAULT_255_2_778
10
3.1846594
20
17.0408945
40
1.5443396
50
159.6597069
51
172.0299322
0
ARC
8
DEFAULT_255_2_778
10
2.6130912
20
17.2639936
40
0.9309228
50
123.026178
51
160.306786
0
ARC
8
DEFAULT_255_2_778
10
2.908168
20
16.8408337
40
1.4466298
50
110.7273072
51
123.6902834
0
ARC
8
DEFAULT_255_2_778
10
3.2204944
20
16.0362608
40
2.3096775
50
102.5764836
51
110.9097928
0
ARC
8
DEFAULT_255_2_778
10
3.4078386
20
15.263773
40
3.1044577
50
100.5652997
51
102.846783
0
ARC
8
DEFAULT_255_2_778
10
3.6055622
20
14.1587224
40
4.2270357
50
96.1666465
51
100.4535255
0
ARC
8
DEFAULT_255_2_778
10
3.8400492
20
12.0186526
40
6.3799119
50
92.8309525
51
96.1957665
0
ARC
8
DEFAULT_255_2_778
10
3.9872897
20
9.1264852
40
9.2758226
50
90.2528281
51
92.85701
0
ARC
8
DEFAULT_255_2_778
10
4.0104246
20
7.1141284
40
11.2882709
50
89.9985125
51
90.3251813
0
ARC
8
DEFAULT_255_2_778
10
4.0612695
20
14.5780043
40
2.6040859
50
91.1123237
51
99.8761842
0
ARC
8
DEFAULT_255_2_778
10
3.7420721
20
16.3899134
40
0.7642883
50
99.5996235
51
123.8707754
0
ARC
8
DEFAULT_255_2_778
10
3.6194546
20
16.5902379
40
0.5297135
50
124.9347691
51
157.0368943
0
ARC
8
DEFAULT_255_2_778
10
3.8273155
20
16.5019387
40
0.7555516
50
157.0211538
51
173.9558203
0
ARC
8
DEFAULT_255_2_778
10
4.4186503
20
16.4226919
40
1.3520446
50
173.2548212
51
180.2412314
0
ARC
8
DEFAULT_255_2_778
10
1.7208222
20
14.8243921
40
1.3461252
50
342.0601103
51
358.7318143
0
ARC
8
DEFAULT_255_2_778
10
2.0044542
20
14.7426514
40
1.0511494
50
299.0760919
51
341.5369648
0
ARC
8
DEFAULT_255_2_778
10
1.6888628
20
15.2587413
40
1.6557563
50
287.0050101
51
299.941723
0
ARC
8
DEFAULT_255_2_778
10
1.4250893
20
16.0991469
40
2.5365691
50
278.5682794
51
287.150928
0
ARC
8
DEFAULT_255_2_778
10
1.3309959
20
16.6199696
40
3.0656368
50
278.7361341
51
278.8569792
0
ARC
8
DEFAULT_255_2_778
10
1.4272165
20
10.9319719
40
2.6190097
50
73.4234504
51
81.8916154
0
ARC
8
DEFAULT_255_2_778
10
1.6852736
20
11.7848015
40
1.7280062
50
61.0389607
51
73.5568439
0
ARC
8
DEFAULT_255_2_778
10
1.9198524
20
12.2158387
40
1.2372889
50
47.9153603
51
60.8782745
0
ARC
8
DEFAULT_255_2_778
10
2.1031718
20
12.4245382
40
0.9595432
50
5.1772012
51
47.6869782
0
ARC
8
DEFAULT_255_2_778
10
1.7299703
20
12.3629482
40
1.3370661
50
359.9037662
51
6.3626741
0
ARC
8
DEFAULT_255_2_778
10
1.5691537
20
12.3608332
40
1.4978808
50
358.648313
51
359.994998
0
ARC
8
DEFAULT_255_2_778
10
4.2803296
20
10.6910413
40
1.2137718
50
179.4307921
51
190.5860085
0
ARC
8
DEFAULT_255_2_778
10
3.7625536
20
10.5960752
40
0.6873643
50
190.7336716
51
203.3991365
0
ARC
8
DEFAULT_255_2_778
10
3.6136952
20
10.5252837
40
0.5226671
50
202.757512
51
235.295488
0
ARC
8
DEFAULT_255_2_778
10
3.7419519
20
10.7292516
40
0.7634461
50
236.097659
51
260.3988387
0
ARC
8
DEFAULT_255_2_778
10
4.060056
20
12.5293788
40
2.5914491
50
260.1024059
51
268.909086
0
ARC
8
DEFAULT_255_2_778
10
3.9959088
20
19.0572538
40
10.3451649
50
267.7498238
51
270.0820173
0
ARC
8
DEFAULT_255_2_778
10
3.8439116
20
15.2904172
40
6.5752664
50
264.4517451
51
267.7845323
0
ARC
8
DEFAULT_255_2_778
10
3.6014273
20
12.8239004
40
4.0968616
50
259.8751831
51
264.4919591
0
ARC
8
DEFAULT_255_2_778
10
3.4382625
20
11.8520657
40
3.1114946
50
258.8884824
51
259.6870271
0
ARC
8
DEFAULT_255_2_778
10
3.3817635
20
11.6448491
40
2.8973154
50
252.1969998
51
259.1951059
0
ARC
8
DEFAULT_255_2_778
10
3.0105151
20
10.5046672
40
1.6982326
50
241.2433361
51
252.3611558
0
ARC
8
DEFAULT_255_2_778
10
2.7820532
20
10.0688187
40
1.2062627
50
235.8966919
51
240.7969933
0
ARC
8
DEFAULT_255_2_778
10
2.6130931
20
9.8505067
40
0.930925
50
199.6932548
51
236.9737721
0
ARC
8
DEFAULT_255_2_778
10
3.3836433
20
10.1158303
40
1.7458437
50
187.5830556
51
199.3697139
0
ARC
8
DEFAULT_255_2_778
10
4.0971687
20
10.2168466
40
2.4664667
50
179.7943494
51
187.7218251
0
ARC
8
DEFAULT_255_2_778
10
6.0791486
20
11.2549087
40
1.360757
50
168.7361465
51
180.3540831
0
ARC
8
DEFAULT_255_2_778
10
5.7175817
20
11.3237927
40
0.9927043
50
159.2746547
51
168.5591363
0
ARC
8
DEFAULT_255_2_778
10
5.5002349
20
11.3829581
40
0.7687876
50
131.2462968
51
157.6661503
0
ARC
8
DEFAULT_255_2_778
10
5.3928342
20
11.4841622
40
0.6220432
50
129.709019
51
129.9539777
0
ARC
8
DEFAULT_255_2_778
10
5.5034098
20
11.3545874
40
0.7923738
50
104.9334355
51
129.8740114
0
ARC
8
DEFAULT_255_2_778
10
5.6644138
20
10.7817616
40
1.3873658
50
89.9844151
51
105.2617975
0
ARC
8
DEFAULT_255_2_778
10
5.6647907
20
10.7777939
40
1.3913335
50
89.6364997
51
89.9999817
0
ARC
8
DEFAULT_255_2_778
10
5.6820511
20
10.889968
40
1.2791592
50
90.0013838
51
90.3777508
0
ARC
8
DEFAULT_255_2_778
10
5.6818152
20
10.8927967
40
1.2763305
50
74.0841304
51
89.9907978
0
ARC
8
DEFAULT_255_2_778
10
5.8213742
20
11.3428554
40
0.8053261
50
50.3252351
51
74.8519241
0
ARC
8
DEFAULT_255_2_778
10
5.8471941
20
11.3943849
40
0.7492939
50
22.0019837
51
49.3292206
0
ARC
8
DEFAULT_255_2_778
10
5.7503165
20
11.3312297
40
0.8630636
50
4.9046882
51
23.4800169
0
ARC
8
DEFAULT_255_2_778
10
5.0877028
20
11.2516373
40
1.5302235
50
359.8076243
51
5.7527415
0
ARC
8
DEFAULT_255_2_778
10
5.4287794
20
11.2338318
40
1.1892057
50
346.5062699
51
0.6103384
0
ARC
8
DEFAULT_255_2_778
10
5.7906638
20
11.1538258
40
0.8186694
50
336.585241
51
346.0412542
0
ARC
8
DEFAULT_255_2_778
10
5.810482
20
11.1355614
40
0.7932749
50
311.4417494
51
337.2269851
0
ARC
8
DEFAULT_255_2_778
10
5.8276371
20
11.1236668
40
0.7730203
50
285.3154679
51
311.0720803
0
ARC
8
DEFAULT_255_2_778
10
5.6814279
20
11.4830287
40
1.1591556
50
269.6139454
51
287.594607
0
ARC
8
DEFAULT_255_2_778
10
5.6681977
20
11.6066904
40
1.2828024
50
253.2835254
51
270.2420803
0
ARC
8
DEFAULT_255_2_778
10
5.5034421
20
11.1240612
40
0.7734123
50
228.9390748
51
254.6891081
0
ARC
8
DEFAULT_255_2_778
10
5.5311843
20
11.1430044
40
0.805963
50
202.9683508
51
228.3365865
0
ARC
8
DEFAULT_255_2_778
10
5.7028745
20
11.1865487
40
0.9814025
50
184.6157268
51
201.3973815
0
ARC
8
DEFAULT_255_2_778
10
6.2039323
20
11.2435892
40
1.4855174
50
179.8877531
51
185.2534554
0
ARC
8
DEFAULT_255_2_778
10
7.7904864
20
11.7562473
40
3.9580628
50
262.0422026
51
269.8426677
0
ARC
8
DEFAULT_255_2_778
10
7.7058174
20
11.2859053
40
3.4805786
50
257.7536151
51
262.350656
0
ARC
8
DEFAULT_255_2_778
10
7.4017469
20
9.8850378
40
2.0470905
50
252.3603326
51
257.7537503
0
ARC
8
DEFAULT_255_2_778
10
7.3881338
20
11.0699417
40
1.9312211
50
251.6897738
51
261.3870897
0
ARC
8
DEFAULT_255_2_778
10
7.4132988
20
10.9587356
40
1.8255106
50
260.0833451
51
270.0041219
0
ARC
8
DEFAULT_255_2_778
10
7.4134292
20
10.9603504
40
1.8271252
50
270.0000295
51
270.5170603
0
ARC
8
DEFAULT_255_2_778
10
7.4350314
20
9.8761821
40
0.7429003
50
269.6056024
51
269.999968
0
ARC
8
DEFAULT_255_2_778
10
7.4349995
20
9.8742742
40
0.7409924
50
270.0024373
51
289.7109401
0
ARC
8
DEFAULT_255_2_778
10
7.5599267
20
9.5833489
40
0.4254251
50
287.0857424
51
322.3186371
0
ARC
8
DEFAULT_255_2_778
10
7.3953342
20
9.7539849
40
0.6608896
50
319.331963
51
339.317715
0
ARC
8
DEFAULT_255_2_778
10
7.0265922
20
9.9127485
40
1.0620982
50
338.3305954
51
343.1735713
0
ARC
8
DEFAULT_255_2_778
10
6.9466267
20
9.9335081
40
1.144654
50
343.337605
51
354.2552488
0
ARC
8
DEFAULT_255_2_778
10
5.9434702
20
10.0451416
40
2.1539729
50
353.971692
51
0.2781789
0
ARC
8
DEFAULT_255_2_778
10
6.8671081
20
9.8059946
40
2.8853283
50
347.8100583
51
0.206616
0
ARC
8
DEFAULT_255_2_778
10
7.1303765
20
9.7571441
40
2.6176926
50
343.9883693
51
347.6384371
0
ARC
8
DEFAULT_255_2_778
10
8.0603581
20
9.4704324
40
1.6448152
50
319.1596402
51
344.6526657
0
ARC
8
DEFAULT_255_2_778
10
8.1417937
20
9.3893734
40
1.5302188
50
296.1431178
51
319.4617592
0
ARC
8
DEFAULT_255_2_778
10
7.9606736
20
9.7166387
40
1.9038968
50
292.7528171
51
296.6966416
0
ARC
8
DEFAULT_255_2_778
10
7.9746091
20
9.7148367
40
1.8968843
50
279.7585125
51
292.3856949
0
ARC
8
DEFAULT_255_2_778
10
7.8189138
20
10.5831672
40
2.7790475
50
271.4206509
51
279.8876594
0
ARC
8
DEFAULT_255_2_778
10
7.7862564
20
11.3016802
40
3.4981807
50
269.9879006
51
271.663608
0
ARC
8
DEFAULT_255_2_778
10
9.1404588
20
18.1161457
40
1.1107755
50
167.5416723
51
180.4511533
0
ARC
8
DEFAULT_255_2_778
10
8.8149905
20
18.1848587
40
0.7781537
50
156.6963523
51
167.3120887
0
ARC
8
DEFAULT_255_2_778
10
8.7046616
20
18.2295722
40
0.6591415
50
128.9477562
51
156.4720214
0
ARC
8
DEFAULT_255_2_778
10
8.7384045
20
18.1651496
40
0.7305945
50
102.6894242
51
127.8298158
0
ARC
8
DEFAULT_255_2_778
10
8.9253811
20
17.3129341
40
1.6030743
50
90.0055428
51
102.5181104
0
ARC
8
DEFAULT_255_2_778
10
8.9252846
20
17.3361404
40
1.5798681
50
89.8065905
51
90.0021242
0
ARC
8
DEFAULT_255_2_778
10
8.9393298
20
17.392572
40
1.5234524
50
77.1548999
51
90.3276583
0
ARC
8
DEFAULT_255_2_778
10
9.1305497
20
18.2105803
40
0.683419
50
51.0670219
51
77.5387232
0
ARC
8
DEFAULT_255_2_778
10
9.18739
20
18.2493322
40
0.617875
50
23.1960019
51
52.909235
0
ARC
8
DEFAULT_255_2_778
10
9.1339213
20
18.1862088
40
0.6928708
50
4.8914397
51
26.2538437
0
ARC
8
DEFAULT_255_2_778
10
8.5514583
20
18.1120268
40
1.2797677
50
359.7928315
51
5.9770271
0
ARC
8
DEFAULT_255_2_778
10
8.8143098
20
18.094919
40
1.0169844
50
345.4069017
51
0.7031497
0
ARC
8
DEFAULT_255_2_778
10
9.1370006
20
18.0175794
40
0.6852483
50
334.4654459
51
344.866901
0
ARC
8
DEFAULT_255_2_778
10
9.1487832
20
17.9842421
40
0.6607196
50
308.4918984
51
336.6340823
0
ARC
8
DEFAULT_255_2_778
10
9.0834259
20
18.0966473
40
0.7896013
50
284.2671288
51
307.1271093
0
ARC
8
DEFAULT_255_2_778
10
8.9397878
20
18.8125694
40
1.5192972
50
270.0043832
51
282.8631144
0
ARC
8
DEFAULT_255_2_778
10
8.9399045
20
18.8111287
40
1.5178565
50
269.6569898
51
269.9999844
0
ARC
8
DEFAULT_255_2_778
10
8.9240917
20
18.8840643
40
1.590779
50
270.008849
51
270.2422523
0
ARC
8
DEFAULT_255_2_778
10
8.923753
20
18.8795198
40
1.5862347
50
257.4144742
51
270.0211099
0
ARC
8
DEFAULT_255_2_778
10
8.7899681
20
18.1526401
40
0.8481255
50
233.9302648
51
255.5351142
0
ARC
8
DEFAULT_255_2_778
10
8.7314513
20
17.9937414
40
0.6867941
50
203.2894307
51
230.0684707
0
ARC
8
DEFAULT_255_2_778
10
8.8661948
20
18.0513472
40
0.8333346
50
184.5754132
51
203.2645218
0
ARC
8
DEFAULT_255_2_778
10
9.3170485
20
18.1048151
40
1.2871335
50
179.8849598
51
185.3469738
0
ARC
8
DEFAULT_255_2_778
10
13.3015137
20
12.2572941
40
2.196839
50
348.5727739
51
0.3235462
0
ARC
8
DEFAULT_255_2_778
10
13.8183643
20
12.1546078
40
1.6698904
50
334.4390851
51
348.5127519
0
ARC
8
DEFAULT_255_2_778
10
13.8722165
20
12.1330947
40
1.6120311
50
306.496831
51
334.3030254
0
ARC
8
DEFAULT_255_2_778
10
13.6206334
20
12.4799249
40
2.0404845
50
291.0159708
51
306.3833341
0
ARC
8
DEFAULT_255_2_778
10
13.3861299
20
13.0552579
40
2.6616759
50
284.5546434
51
291.2866372
0
ARC
8
DEFAULT_255_2_778
10
13.1659234
20
13.924975
40
3.5588251
50
275.5788862
51
284.4673361
0
ARC
8
DEFAULT_255_2_778
10
13.0452475
20
15.0812142
40
4.7213256
50
269.8770687
51
275.6723195
0
ARC
8
DEFAULT_255_2_778
10
13.0168318
20
17.1559564
40
6.7960815
50
270.0006294
51
270.1541628
0
ARC
8
DEFAULT_255_2_778
10
13.0145959
20
16.9084362
40
6.5485619
50
265.3316138
51
270.0202163
0
ARC
8
DEFAULT_255_2_778
10
12.7116217
20
14.2186084
40
3.8438965
50
259.3118199
51
266.5695909
0
ARC
8
DEFAULT_255_2_778
10
12.5200622
20
13.7234379
40
3.3183033
50
245.2518152
51
253.1738572
0
ARC
8
DEFAULT_255_2_778
10
13.2588388
20
16.3539089
40
4.7704046
50
243.5083597
51
249.7589259
0
ARC
8
DEFAULT_255_2_778
10
13.0577777
20
14.384447
40
2.8131373
50
260.5483509
51
269.5425473
0
ARC
8
DEFAULT_255_2_778
10
13.050377
20
13.786053
40
2.2147048
50
269.610403
51
269.9991056
0
ARC
8
DEFAULT_255_2_778
10
13.0598502
20
13.3351444
40
1.7638218
50
269.6911491
51
278.2040319
0
ARC
8
DEFAULT_255_2_778
10
13.1353173
20
12.7756026
40
1.1992484
50
278.4501314
51
283.5020336
0
ARC
8
DEFAULT_255_2_778
10
13.250188
20
12.3221164
40
0.7314989
50
283.0464833
51
305.0534797
0
ARC
8
DEFAULT_255_2_778
10
13.420207
20
12.0832101
40
0.4382819
50
304.7963736
51
334.8434364
0
ARC
8
DEFAULT_255_2_778
10
13.3659618
20
12.1127599
40
0.4999569
50
334.4208089
51
0.119129
0
ARC
8
DEFAULT_255_2_778
10
13.3678091
20
12.1233592
40
0.4982002
50
358.9005006
51
22.6104838
0
ARC
8
DEFAULT_255_2_778
10
13.4972651
20
12.1842578
40
0.3553395
50
21.5709421
51
46.8736768
0
ARC
8
DEFAULT_255_2_778
10
13.2115567
20
11.9115947
40
0.7499815
50
45.1828786
51
52.2877337
0
ARC
8
DEFAULT_255_2_778
10
12.8143934
20
11.4482411
40
1.3598284
50
50.9915145
51
58.67492
0
ARC
8
DEFAULT_255_2_778
10
11.983332
20
10.1038944
40
2.9402951
50
58.4605251
51
63.0300311
0
ARC
8
DEFAULT_255_2_778
10
11.4020152
20
9.0004351
40
4.187425
50
62.7885203
51
63.0283862
0
ARC
8
DEFAULT_255_2_778
10
13.1484915
20
15.3287585
40
2.259796
50
227.3486659
51
238.4692571
0
ARC
8
DEFAULT_255_2_778
10
12.8481825
20
14.9911651
40
1.8080464
50
221.264244
51
227.0996833
0
ARC
8
DEFAULT_255_2_778
10
12.616871
20
14.7551519
40
1.4787255
50
198.2365023
51
220.30142
0
ARC
8
DEFAULT_255_2_778
10
12.8535084
20
14.8263888
40
1.725782
50
186.8946863
51
198.0242076
0
ARC
8
DEFAULT_255_2_778
10
13.7945276
20
14.9497996
40
2.6748281
50
179.7879421
51
187.0993356
0
ARC
8
DEFAULT_255_2_778
10
12.9301841
20
14.9730645
40
1.8105158
50
166.4826264
51
180.4229558
0
ARC
8
DEFAULT_255_2_778
10
12.5460375
20
15.0594806
40
1.4168231
50
153.1000507
51
166.2493637
0
ARC
8
DEFAULT_255_2_778
10
12.5475218
20
15.063764
40
1.4162159
50
124.5859858
51
153.2817608
0
ARC
8
DEFAULT_255_2_778
10
12.8760175
20
14.5995592
40
1.9848644
50
111.0625816
51
124.7863189
0
ARC
8
DEFAULT_255_2_778
10
13.0896031
20
14.0742506
40
2.551858
50
104.2856108
51
111.2989244
0
ARC
8
DEFAULT_255_2_778
10
13.2728482
20
13.306067
40
3.3415259
50
94.7682393
51
104.0802831
0
ARC
8
DEFAULT_255_2_778
10
13.3897258
20
12.0583251
40
4.5946828
50
89.8891183
51
94.9272817
0
ARC
8
DEFAULT_255_2_778
10
13.4126262
20
12.4090333
40
4.2439893
50
79.1260551
51
90.1891219
0
ARC
8
DEFAULT_255_2_778
10
13.4831064
20
12.8333273
40
3.8140329
50
75.6341201
51
78.963394
0
ARC
8
DEFAULT_255_2_778
10
13.1794379
20
11.6922544
40
4.994782
50
68.0009643
51
75.5072718
0
ARC
8
DEFAULT_255_2_778
10
12.8076708
20
10.7469386
40
6.0105373
50
64.0985863
51
68.0906466
0
ARC
8
DEFAULT_255_2_778
10
11.7705077
20
8.3273851
40
7.3548481
50
64.5477526
51
68.7961572
0
ARC
8
DEFAULT_255_2_778
10
12.4451387
20
10.0457011
40
5.5088626
50
68.873803
51
72.0322935
0
ARC
8
DEFAULT_255_2_778
10
13.3753411
20
12.9815863
40
2.4292986
50
71.5410622
51
89.5194078
0
ARC
8
DEFAULT_255_2_778
10
13.3841371
20
14.0283156
40
1.3825323
50
89.520066
51
98.9404168
0
ARC
8
DEFAULT_255_2_778
10
13.2677258
20
14.7286009
40
0.6726925
50
98.4150955
51
116.0915605
0
ARC
8
DEFAULT_255_2_778
10
13.1561202
20
14.9716499
40
0.4053818
50
117.0332647
51
127.8610507
0
ARC
8
DEFAULT_255_2_778
10
13.15289
20
14.9853405
40
0.3926341
50
128.7150915
51
182.7796867
0
ARC
8
DEFAULT_255_2_778
10
13.2416202
20
14.9587497
40
0.4809618
50
179.1005839
51
202.9771629
0
ARC
8
DEFAULT_255_2_778
10
13.1739106
20
14.9617579
40
0.420813
50
206.9562142
51
227.0017285
0
ARC
8
DEFAULT_255_2_778
10
13.4907372
20
15.2716154
40
0.8637441
50
225.6481633
51
231.3025463
0
ARC
8
DEFAULT_255_2_778
10
13.9040785
20
15.8685676
40
1.588871
50
233.1283779
51
239.1079821
0
ARC
8
DEFAULT_255_2_778
10
15.3591033
20
18.266403
40
4.3936172
50
238.8796514
51
241.5825796
0
ARC
8
DEFAULT_255_2_778
10
13.4742684
20
11.793955
40
2.2628793
50
50.2426139
51
63.0504702
0
ARC
8
DEFAULT_255_2_778
10
13.6367916
20
11.9990243
40
2.0013004
50
45.9201093
51
50.0648734
0
ARC
8
DEFAULT_255_2_778
10
14.0204415
20
12.3732706
40
1.4656421
50
22.8750633
51
46.5164476
0
ARC
8
DEFAULT_255_2_778
10
13.9447713
20
12.3687651
40
1.5373202
50
8.3981946
51
21.933451
0
ARC
8
DEFAULT_255_2_778
10
13.3067794
20
12.2682748
40
2.1831567
50
359.7644442
51
8.5617713
0
ARC
8
DEFAULT_255_2_778
10
15.9642239
20
10.2124217
40
2.4789326
50
351.6763731
51
0.3207596
0
ARC
8
DEFAULT_255_2_778
10
16.8421776
20
10.0823894
40
1.591404
50
339.969433
51
351.732762
0
ARC
8
DEFAULT_255_2_778
10
17.4576974
20
9.8594286
40
0.9367492
50
302.6382816
51
339.8865649
0
ARC
8
DEFAULT_255_2_778
10
17.1853007
20
10.2133416
40
1.3822256
50
291.0554176
51
304.2346328
0
ARC
8
DEFAULT_255_2_778
10
16.8650391
20
11.0258178
40
2.255527
50
282.6335054
51
291.2327239
0
ARC
8
DEFAULT_255_2_778
10
16.669155
20
11.8274061
40
3.0805915
50
280.6015828
51
282.9277981
0
ARC
8
DEFAULT_255_2_778
10
16.4709026
20
12.9415134
40
4.2121676
50
276.1642485
51
280.4641504
0
ARC
8
DEFAULT_255_2_778
10
16.23465
20
15.0973284
40
6.3808875
50
272.8295625
51
276.1947543
0
ARC
8
DEFAULT_255_2_778
10
16.0871608
20
17.9939945
40
9.2813038
50
270.2531404
51
272.8562011
0
ARC
8
DEFAULT_255_2_778
10
16.0641089
20
19.9979263
40
11.2853267
50
269.9985211
51
270.325224
0
ARC
8
DEFAULT_255_2_778
10
16.0209641
20
12.40303
40
2.4621036
50
270.9972984
51
280.1421368
0
ARC
8
DEFAULT_255_2_778
10
16.3333449
20
10.7001998
40
0.7309145
50
279.5426876
51
302.7258268
0
ARC
8
DEFAULT_255_2_778
10
16.4105523
20
10.5615414
40
0.5726133
50
303.7274216
51
306.0360765
0
ARC
8
DEFAULT_255_2_778
10
16.465376
20
10.5268768
40
0.5128885
50
303.360721
51
336.978656
0
ARC
8
DEFAULT_255_2_778
10
16.2817478
20
10.62691
40
0.7212972
50
335.369561
51
353.8605751
0
ARC
8
DEFAULT_255_2_778
10
15.7488701
20
10.7010439
40
1.259158
50
353.0998099
51
0.2345932
0
ARC
8
DEFAULT_255_2_778
10
18.4997107
20
12.3750139
40
1.4924118
50
180.0091406
51
181.778362
0
ARC
8
DEFAULT_255_2_778
10
18.1547322
20
12.3882111
40
1.1475118
50
161.9687092
51
180.6708471
0
ARC
8
DEFAULT_255_2_778
10
17.9241889
20
12.4549645
40
0.9076629
50
131.2674311
51
161.4708675
0
ARC
8
DEFAULT_255_2_778
10
18.237156
20
12.0961968
40
1.3837525
50
113.1480611
51
131.2096411
0
ARC
8
DEFAULT_255_2_778
10
18.4979107
20
11.5055627
40
2.0293549
50
103.0843888
51
113.3620295
0
ARC
8
DEFAULT_255_2_778
10
18.6852425
20
10.7471923
40
2.8104663
50
98.3312478
51
103.3042364
0
ARC
8
DEFAULT_255_2_778
10
18.65191
20
16.0949965
40
2.5296807
50
252.8537605
51
261.5004173
0
ARC
8
DEFAULT_255_2_778
10
18.3898854
20
15.2586596
40
1.6532709
50
240.179623
51
252.9860534
0
ARC
8
DEFAULT_255_2_778
10
18.1058018
20
14.7773872
40
1.094478
50
213.8829097
51
240.5533677
0
ARC
8
DEFAULT_255_2_778
10
18.1324076
20
14.7703629
40
1.1128413
50
187.8620218
51
212.8189366
0
ARC
8
DEFAULT_255_2_778
10
18.5316142
20
14.8433553
40
1.5183831
50
181.7230713
51
188.5299263
0
ARC
8
DEFAULT_255_2_778
10
15.9242673
20
16.4292389
40
1.0896879
50
359.5246976
51
12.2740935
0
ARC
8
DEFAULT_255_2_778
10
16.2753283
20
16.5030703
40
0.73096
50
12.4691018
51
23.9760555
0
ARC
8
DEFAULT_255_2_778
10
16.4711752
20
16.5995216
40
0.5128894
50
23.0213586
51
56.6392365
0
ARC
8
DEFAULT_255_2_778
10
16.3535201
20
16.4625187
40
0.692397
50
54.7414894
51
79.764339
0
ARC
8
DEFAULT_255_2_778
10
16.2882321
20
16.2079483
40
0.9547067
50
78.6232468
51
79.6095957
0
ARC
8
DEFAULT_255_2_778
10
16.0169251
20
14.6213101
40
2.5643308
50
80.040809
51
88.8225883
0
ARC
8
DEFAULT_255_2_778
10
16.0842965
20
8.0830631
40
10.3228468
50
87.7445924
51
90.0814732
0
ARC
8
DEFAULT_255_2_778
10
16.2354149
20
11.8198378
40
6.5830208
50
84.4500874
51
87.7789176
0
ARC
8
DEFAULT_255_2_778
10
16.4771082
20
14.2776894
40
4.113317
50
79.8908335
51
84.48985
0
ARC
8
DEFAULT_255_2_778
10
16.6393528
20
15.245912
40
3.1316648
50
78.9102429
51
79.7038369
0
ARC
8
DEFAULT_255_2_778
10
16.7056299
20
15.5108692
40
2.8589416
50
72.2296247
51
79.1923387
0
ARC
8
DEFAULT_255_2_778
10
17.0753356
20
16.6483968
40
1.6628603
50
61.327563
51
72.3980883
0
ARC
8
DEFAULT_255_2_778
10
17.309934
20
17.0957446
40
1.1578405
50
55.3211403
51
60.8917532
0
ARC
8
DEFAULT_255_2_778
10
17.4747811
20
17.2681223
40
0.9230524
50
19.8266728
51
57.6484801
0
ARC
8
DEFAULT_255_2_778
10
16.8319426
20
17.0330093
40
1.607533
50
8.4880749
51
19.93862
0
ARC
8
DEFAULT_255_2_778
10
16.0360638
20
16.9093375
40
2.4129535
50
359.867726
51
8.6030652
0
ARC
8
DEFAULT_255_2_778
10
15.5637667
20
16.8975948
40
2.8852507
50
359.9981063
51
0.1225666
0
ARC
8
DEFAULT_255_2_778
10
19.7852014
20
15.1438295
40
1.3364891
50
178.7751015
51
179.996211
0
ARC
8
DEFAULT_255_2_778
10
19.5465647
20
15.1354958
40
1.0978846
50
179.5604735
51
194.7872465
0
ARC
8
DEFAULT_255_2_778
10
19.3272759
20
15.0827584
40
0.8724124
50
195.1142069
51
204.0371599
0
ARC
8
DEFAULT_255_2_778
10
19.1817095
20
15.0290891
40
0.717682
50
204.8577471
51
237.530142
0
ARC
8
DEFAULT_255_2_778
10
19.4234807
20
15.4308276
40
1.1864723
50
238.0951303
51
253.9622881
0
ARC
8
DEFAULT_255_2_778
10
19.5725525
20
15.8934995
40
1.6723926
50
253.4330522
51
258.3771398
0
ARC
8
DEFAULT_255_2_778
10
19.7594845
20
17.175313
40
2.9665353
50
259.8286762
51
266.8332506
0
ARC
8
DEFAULT_255_2_778
10
19.8332637
20
18.296305
40
4.0899081
50
266.6687743
51
270.0637962
0
ARC
8
DEFAULT_255_2_778
10
19.8252419
20
9.5763676
40
3.3335556
50
89.7838532
51
96.2153929
0
ARC
8
DEFAULT_255_2_778
10
19.6924858
20
10.7627487
40
2.139778
50
96.1208566
51
105.0909265
0
ARC
8
DEFAULT_255_2_778
10
19.4740718
20
11.5549412
40
1.3180489
50
104.8895218
51
118.8739373
0
ARC
8
DEFAULT_255_2_778
10
19.3339836
20
11.8298807
40
1.0096926
50
119.4465641
51
121.8335567
0
ARC
8
DEFAULT_255_2_778
10
19.1802115
20
12.0793577
40
0.7166341
50
121.9091271
51
169.9803993
0
ARC
8
DEFAULT_255_2_778
10
19.7187233
20
11.9491958
40
1.2700473
50
168.4245406
51
180.4645055
0
LINE
8
DEFAULT_255_2_778
10
0.2414177
20
12.9064994
11
0.2414177
21
14.2029994
0
LINE
8
DEFAULT_255_2_778
10
1.6307177
20
15.1689994
11
1.6307177
21
16.8939994
0
LINE
8
DEFAULT_255_2_778
10
4.0107177
20
18.4023994
11
4.0107177
21
17.1815994
0
LINE
8
DEFAULT_255_2_778
10
3.0666177
20
16.4169994
11
3.0666177
21
14.7945994
0
LINE
8
DEFAULT_255_2_778
10
1.7966177
20
13.5898994
11
1.7966177
21
13.5247994
0
LINE
8
DEFAULT_255_2_778
10
3.0666177
20
12.3254994
11
3.0666177
21
10.7030994
0
LINE
8
DEFAULT_255_2_778
10
4.0107177
20
9.9383994
11
4.0107177
21
8.7120994
0
LINE
8
DEFAULT_255_2_778
10
1.6307177
20
10.2256994
11
1.6307177
21
11.9349994
0
LINE
8
DEFAULT_255_2_778
10
6.7814177
20
7.9341994
11
6.7814177
21
9.2364994
0
LINE
8
DEFAULT_255_2_778
10
8.0974177
20
10.0555994
11
8.0974177
21
16.5368994
0
LINE
8
DEFAULT_255_2_778
10
8.0974177
20
16.5368994
11
9.7524177
21
16.5368994
0
LINE
8
DEFAULT_255_2_778
10
9.7524177
20
16.5368994
11
9.7524177
21
9.8163994
0
LINE
8
DEFAULT_255_2_778
10
11.9987177
20
10.4413994
11
11.5595177
21
10.5471994
0
LINE
8
DEFAULT_255_2_778
10
11.1309177
20
10.7098994
11
11.1309177
21
12.0843994
0
LINE
8
DEFAULT_255_2_778
10
11.6084177
20
11.8780994
11
12.1130177
21
11.7153994
0
LINE
8
DEFAULT_255_2_778
10
12.1130177
20
11.7153994
11
12.5958177
21
11.6094994
0
LINE
8
DEFAULT_255_2_778
10
13.3012177
20
12.7323994
11
12.6556177
21
13.0498994
0
LINE
8
DEFAULT_255_2_778
10
12.6556177
20
13.0498994
11
11.9667177
21
13.4025994
0
LINE
8
DEFAULT_255_2_778
10
15.4332177
20
16.1536994
11
14.9313177
21
14.9683994
0
LINE
8
DEFAULT_255_2_778
10
13.2682177
20
14.4021994
11
13.8053177
21
14.1470994
0
LINE
8
DEFAULT_255_2_778
10
13.8053177
20
14.1470994
11
14.4998177
21
13.8110994
0
LINE
8
DEFAULT_255_2_778
10
16.0638177
20
8.7125994
11
16.0638177
21
9.9412994
0
LINE
8
DEFAULT_255_2_778
10
17.0080177
20
10.7061994
11
17.0080177
21
12.3286994
0
LINE
8
DEFAULT_255_2_778
10
18.2780177
20
13.5279994
11
18.2780177
21
13.5930994
0
LINE
8
DEFAULT_255_2_778
10
17.0139177
20
14.7976994
11
17.0139177
21
16.4201994
0
LINE
8
DEFAULT_255_2_778
10
16.0696177
20
17.1850994
11
16.0696177
21
18.4058994
0
LINE
8
DEFAULT_255_2_778
10
18.4490177
20
16.8974994
11
18.4490177
21
15.1723994
0
LINE
8
DEFAULT_255_2_778
10
19.8378177
20
14.2063994
11
19.8378177
21
12.9098994
0
LINE
8
DEFAULT_255_2_778
10
18.4487177
20
11.9388994
11
18.4487177
21
10.2296994
0
ARC
8
DEFAULT_255_2_778
10
1.6495586
20
3.9389986
40
0.4524398
50
96.7837248
51
114.8438449
0
ARC
8
DEFAULT_255_2_778
10
1.5455343
20
4.1737182
40
0.1957821
50
116.0786881
51
131.53504
0
ARC
8
DEFAULT_255_2_778
10
1.5348537
20
4.1929601
40
0.1743616
50
133.1006406
51
179.9623328
0
ARC
8
DEFAULT_255_2_778
10
1.5343445
20
4.1930817
40
0.1738524
50
180.0023051
51
182.9049497
0
ARC
8
DEFAULT_255_2_778
10
1.746153
20
4.1986973
40
0.3857073
50
182.1434851
51
202.0611448
0
ARC
8
DEFAULT_255_2_778
10
2.1566718
20
4.3399398
40
0.8195504
50
200.4328383
51
204.4160413
0
ARC
8
DEFAULT_255_2_778
10
3.7429561
20
5.0921041
40
2.5750496
50
205.0655697
51
211.6847667
0
ARC
8
DEFAULT_255_2_778
10
1.7430137
20
4.2970635
40
0.7820881
50
331.5906321
51
342.4297705
0
ARC
8
DEFAULT_255_2_778
10
2.1515207
20
4.1741758
40
0.3555956
50
341.4366772
51
359.886442
0
ARC
8
DEFAULT_255_2_778
10
2.3045103
20
4.1794599
40
0.2026937
50
358.3068455
51
39.8975013
0
ARC
8
DEFAULT_255_2_778
10
2.2857956
20
4.1495934
40
0.2364602
50
42.5418707
51
78.5421619
0
ARC
8
DEFAULT_255_2_778
10
2.2155489
20
3.9266983
40
0.4695109
50
75.5425242
51
79.2510455
0
ARC
8
DEFAULT_255_2_778
10
3.449886
20
3.8369743
40
0.5785055
50
107.7400989
51
127.4124882
0
ARC
8
DEFAULT_255_2_778
10
3.7612382
20
3.5085851
40
1.0296106
50
130.0728046
51
143.4965393
0
ARC
8
DEFAULT_255_2_778
10
3.7033056
20
1.8092195
40
0.832406
50
220.8670734
51
231.8330032
0
ARC
8
DEFAULT_255_2_778
10
3.542749
20
1.6420374
40
0.6021849
50
234.0143374
51
250.6493119
0
ARC
8
DEFAULT_255_2_778
10
2.1170531
20
1.5888489
40
0.5208309
50
278.5977539
51
294.4944356
0
ARC
8
DEFAULT_255_2_778
10
2.231946
20
1.3248515
40
0.2330092
50
295.6998789
51
307.166774
0
ARC
8
DEFAULT_255_2_778
10
2.2612129
20
1.2669085
40
0.1695574
50
311.1178481
51
3.7069511
0
ARC
8
DEFAULT_255_2_778
10
2.0205598
20
1.2646552
40
0.4100688
50
1.8468586
51
25.3262236
0
ARC
8
DEFAULT_255_2_778
10
1.1306815
20
0.9058253
40
1.3690744
50
22.9684403
51
29.5956598
0
ARC
8
DEFAULT_255_2_778
10
-0.0651986
20
0.2510668
40
2.7323832
50
29.1493717
51
31.0323654
0
ARC
8
DEFAULT_255_2_778
10
2.276042
20
1.028328
40
1.1454282
50
148.1085513
51
158.0867902
0
ARC
8
DEFAULT_255_2_778
10
1.642529
20
1.2763171
40
0.4651798
50
157.3038832
51
177.340137
0
ARC
8
DEFAULT_255_2_778
10
1.4616041
20
1.2934476
40
0.2837888
50
179.1001273
51
179.9952746
0
ARC
8
DEFAULT_255_2_778
10
1.3881853
20
1.2850942
40
0.2105365
50
177.7197148
51
219.1501376
0
ARC
8
DEFAULT_255_2_778
10
1.395319
20
1.3148139
40
0.2355633
50
223.6651614
51
257.8834324
0
ARC
8
DEFAULT_255_2_778
10
1.47238
20
1.5545122
40
0.4867408
50
254.9356166
51
259.2768839
0
ARC
8
DEFAULT_255_2_778
10
0.2211864
20
1.6979843
40
0.6472819
50
285.37608
51
300.5658807
0
ARC
8
DEFAULT_255_2_778
10
0.324652
20
1.5051738
40
0.4287419
50
301.7635012
51
302.0732925
0
ARC
8
DEFAULT_255_2_778
10
0.2325548
20
1.6168066
40
0.5725476
50
303.9512731
51
312.5317152
0
ARC
8
DEFAULT_255_2_778
10
-0.2109382
20
2.1050828
40
1.2321646
50
312.38001
51
315.8201307
0
ARC
8
DEFAULT_255_2_778
10
0.2151179
20
1.694911
40
0.6407681
50
315.5727027
51
317.1200433
0
ARC
8
DEFAULT_255_2_778
10
-0.451728
20
2.2735948
40
1.5234839
50
318.2377047
51
324.7853471
0
ARC
8
DEFAULT_255_2_778
10
-4.7193842
20
5.4232361
40
6.8272856
50
323.8425086
51
323.9544751
0
ARC
8
DEFAULT_255_2_778
10
-0.0003141
20
3.6625471
40
0.8989077
50
33.8971227
51
43.9991263
0
ARC
8
DEFAULT_255_2_778
10
0.4191063
20
4.08735
40
0.3024443
50
41.3018162
51
61.1555578
0
ARC
8
DEFAULT_255_2_778
10
0.3450332
20
3.9624108
40
0.4476418
50
60.5657272
51
72.2617863
0
LINE
8
DEFAULT_255_2_778
10
1.5961155
20
4.516371
11
1.5961155
21
4.388271
0
LINE
8
DEFAULT_255_2_778
10
1.5517155
20
3.739571
11
1.9311155
21
3.103771
0
LINE
8
DEFAULT_255_2_778
10
1.9311155
20
3.103771
11
2.3052155
21
3.708071
0
LINE
8
DEFAULT_255_2_778
10
2.3052155
20
3.708071
11
2.4309155
21
3.924971
0
LINE
8
DEFAULT_255_2_778
10
2.3031155
20
4.387971
11
2.3031155
21
4.516071
0
LINE
8
DEFAULT_255_2_778
10
2.3031155
20
4.516071
11
3.2736155
21
4.516071
0
LINE
8
DEFAULT_255_2_778
10
3.2736155
20
4.516071
11
3.2736155
21
4.387971
0
LINE
8
DEFAULT_255_2_778
10
2.9336155
20
4.121071
11
2.6849155
21
3.757471
0
LINE
8
DEFAULT_255_2_778
10
2.6849155
20
3.757471
11
2.0935155
21
2.842071
0
LINE
8
DEFAULT_255_2_778
10
2.0935155
20
2.842071
11
2.7577155
21
1.748571
0
LINE
8
DEFAULT_255_2_778
10
2.7577155
20
1.748571
11
2.9587155
21
1.421471
0
LINE
8
DEFAULT_255_2_778
10
2.9587155
20
1.421471
11
3.0738155
21
1.264571
0
LINE
8
DEFAULT_255_2_778
10
3.3432155
20
1.073871
11
3.3432155
21
0.945571
0
LINE
8
DEFAULT_255_2_778
10
3.3432155
20
0.945571
11
2.1949155
21
0.945571
0
LINE
8
DEFAULT_255_2_778
10
2.1949155
20
0.945571
11
2.1949155
21
1.073871
0
LINE
8
DEFAULT_255_2_778
10
2.2761155
20
1.659671
11
1.7999155
21
2.449671
0
LINE
8
DEFAULT_255_2_778
10
1.7999155
20
2.449671
11
1.3035155
21
1.633471
0
LINE
8
DEFAULT_255_2_778
10
1.3818155
20
1.076271
11
1.3818155
21
0.945571
0
LINE
8
DEFAULT_255_2_778
10
1.3818155
20
0.945571
11
0.3928155
21
0.945571
0
LINE
8
DEFAULT_255_2_778
10
0.3928155
20
0.945571
11
0.3928155
21
1.073871
0
LINE
8
DEFAULT_255_2_778
10
0.8008155
20
1.405871
11
1.0257155
21
1.743471
0
LINE
8
DEFAULT_255_2_778
10
1.0257155
20
1.743471
11
1.6430155
21
2.706571
0
LINE
8
DEFAULT_255_2_778
10
1.6430155
20
2.706571
11
0.9053155
21
3.920471
0
LINE
8
DEFAULT_255_2_778
10
0.9053155
20
3.920471
11
0.7458155
21
4.163871
0
LINE
8
DEFAULT_255_2_778
10
0.4814155
20
4.388771
11
0.4814155
21
4.516871
0
LINE
8
DEFAULT_255_2_778
10
0.4814155
20
4.516871
11
1.5959155
21
4.516871
0
ARC
8
DEFAULT_255_2_778
10
4.9039694
20
1.3982097
40
0.4044553
50
189.3765413
51
208.2354509
0
ARC
8
DEFAULT_255_2_778
10
4.6859907
20
1.2912382
40
0.1620494
50
211.3773648
51
212.5646539
0
ARC
8
DEFAULT_255_2_778
10
4.7374212
20
1.3341133
40
0.228628
50
214.6832682
51
241.3826446
0
ARC
8
DEFAULT_255_2_778
10
5.0290608
20
1.9983819
40
0.9534586
50
245.1197006
51
255.982639
0
ARC
8
DEFAULT_255_2_778
10
3.451336
20
2.0459605
40
1.0019787
50
284.0165835
51
292.5253218
0
ARC
8
DEFAULT_255_2_778
10
3.7327188
20
1.3791285
40
0.2782596
50
291.6072802
51
309.8221287
0
ARC
8
DEFAULT_255_2_778
10
3.7291695
20
1.3434141
40
0.2543938
50
315.5971421
51
352.910069
0
ARC
8
DEFAULT_255_2_778
10
3.0159715
20
1.4841956
40
0.9808768
50
349.8900621
51
356.8920443
0
ARC
8
DEFAULT_255_2_778
10
1.354067
20
1.5892192
40
2.6460722
50
356.5723381
51
0.2294335
0
ARC
8
DEFAULT_255_2_778
10
0.7847742
20
3.8744119
40
3.2153647
50
359.7933494
51
2.5747065
0
ARC
8
DEFAULT_255_2_778
10
2.9451254
20
3.976953
40
1.0526019
50
2.2812982
51
8.2181771
0
ARC
8
DEFAULT_255_2_778
10
3.6303004
20
4.0761969
40
0.3602769
50
8.1730423
51
27.6830488
0
ARC
8
DEFAULT_255_2_778
10
3.6907625
20
4.1042573
40
0.2937175
50
28.3153061
51
31.0414347
0
ARC
8
DEFAULT_255_2_778
10
3.7735693
20
4.1534491
40
0.1974037
50
31.201853
51
62.7948019
0
ARC
8
DEFAULT_255_2_778
10
3.6146951
20
3.8657973
40
0.5259589
50
61.7282096
51
72.3597255
0
ARC
8
DEFAULT_255_2_778
10
3.2824306
20
2.9098888
40
1.5378445
50
71.3551327
51
74.4877715
0
ARC
8
DEFAULT_255_2_778
10
5.0010482
20
1.8362153
40
2.6812285
50
83.0641996
51
90.2656241
0
ARC
8
DEFAULT_255_2_778
10
5.1299822
20
2.8621477
40
1.647239
50
72.5066314
51
83.2068723
0
ARC
8
DEFAULT_255_2_778
10
5.3362113
20
3.4990424
40
0.977822
50
54.5012548
51
72.8138916
0
ARC
8
DEFAULT_255_2_778
10
5.4752937
20
3.7152346
40
0.7211559
50
9.7264874
51
53.5232891
0
ARC
8
DEFAULT_255_2_778
10
5.0425622
20
3.6145069
40
1.1649785
50
359.6413686
51
11.0137794
0
ARC
8
DEFAULT_255_2_778
10
5.1810444
20
3.5927528
40
1.0265755
50
337.5812768
51
0.8071952
0
ARC
8
DEFAULT_255_2_778
10
5.3100209
20
3.5504497
40
0.8912705
50
321.66362
51
336.9331245
0
ARC
8
DEFAULT_255_2_778
10
5.1806859
20
3.6593814
40
1.0602993
50
300.3046629
51
321.381512
0
ARC
8
DEFAULT_255_2_778
10
4.8708397
20
4.1702194
40
1.6577098
50
289.2627023
51
300.6412898
0
ARC
8
DEFAULT_255_2_778
10
5.1385808
20
1.890566
40
0.7476147
50
42.5070507
51
68.0763719
0
ARC
8
DEFAULT_255_2_778
10
4.9728889
20
1.7103691
40
0.9917373
50
33.1723181
51
43.7137483
0
ARC
8
DEFAULT_255_2_778
10
3.5016936
20
0.7210823
40
2.7645635
50
29.5530408
51
33.650739
0
ARC
8
DEFAULT_255_2_778
10
0.985725
20
-0.7385845
40
5.6732264
50
29.0816097
51
29.8440497
0
ARC
8
DEFAULT_255_2_778
10
9.5079202
20
3.3777502
40
3.7761976
50
208.2601048
51
211.1636509
0
ARC
8
DEFAULT_255_2_778
10
7.7591833
20
2.3151001
40
1.7299168
50
211.0193073
51
215.8513521
0
ARC
8
DEFAULT_255_2_778
10
6.8991152
20
1.6840736
40
0.6632606
50
215.1824284
51
232.1301346
0
ARC
8
DEFAULT_255_2_778
10
6.7492563
20
1.5059375
40
0.4307376
50
233.3203688
51
235.6506554
0
ARC
8
DEFAULT_255_2_778
10
6.762302
20
1.5478671
40
0.4728919
50
237.2123123
51
259.5887203
0
ARC
8
DEFAULT_255_2_778
10
6.8337842
20
1.8314281
40
0.7649397
50
258.1607686
51
260.4836947
0
ARC
8
DEFAULT_255_2_778
10
8.5466112
20
2.7733042
40
3.1490336
50
209.0605016
51
215.4806945
0
ARC
8
DEFAULT_255_2_778
10
4.7288986
20
1.9737171
40
0.5849188
50
33.648088
51
47.5127008
0
ARC
8
DEFAULT_255_2_778
10
4.9532152
20
2.2107613
40
0.258661
50
48.6892461
51
57.3358896
0
ARC
8
DEFAULT_255_2_778
10
4.9117931
20
2.1770946
40
0.30981
50
54.245784
51
78.7153124
0
ARC
8
DEFAULT_255_2_778
10
4.8459585
20
1.9207783
40
0.5742344
50
77.2778789
51
87.7730967
0
ARC
8
DEFAULT_255_2_778
10
4.7855915
20
0.970972
40
1.5258487
50
86.893833
51
90.1567131
0
ARC
8
DEFAULT_255_2_778
10
4.7995497
20
5.0460849
40
2.3242026
50
269.6959998
51
275.3372978
0
ARC
8
DEFAULT_255_2_778
10
4.9062828
20
3.9019742
40
1.1751242
50
275.344781
51
282.274955
0
ARC
8
DEFAULT_255_2_778
10
4.9909941
20
3.4334449
40
0.6994989
50
283.6541326
51
307.6235857
0
ARC
8
DEFAULT_255_2_778
10
5.0370068
20
3.3645692
40
0.6168826
50
308.1439832
51
337.7388527
0
ARC
8
DEFAULT_255_2_778
10
4.7957549
20
3.4865417
40
0.8866203
50
336.3500815
51
336.5290502
0
ARC
8
DEFAULT_255_2_778
10
4.8111787
20
3.4748155
40
0.8678145
50
336.8336089
51
355.1474552
0
ARC
8
DEFAULT_255_2_778
10
4.3289533
20
3.5332666
40
1.3533683
50
354.4087041
51
0.1290532
0
ARC
8
DEFAULT_255_2_778
10
4.6049711
20
3.551368
40
1.0774521
50
359.1995005
51
13.4462004
0
ARC
8
DEFAULT_255_2_778
10
5.0336494
20
3.648666
40
0.6379194
50
13.8998254
51
28.1490181
0
ARC
8
DEFAULT_255_2_778
10
5.0972933
20
3.6970299
40
0.5591291
50
26.8558485
51
64.3394223
0
ARC
8
DEFAULT_255_2_778
10
4.9999648
20
3.4903697
40
0.7875565
50
64.4676377
51
81.6417514
0
ARC
8
DEFAULT_255_2_778
10
4.8848816
20
2.7893307
40
1.4979258
50
81.1844158
51
90.4270105
0
ARC
8
DEFAULT_255_2_778
10
6.9799271
20
3.2267163
40
2.6760693
50
311.1360637
51
316.7381185
0
ARC
8
DEFAULT_255_2_778
10
7.8472563
20
2.2400535
40
1.362399
50
304.5556626
51
310.9614111
0
ARC
8
DEFAULT_255_2_778
10
7.9320653
20
2.0831195
40
1.1852028
50
288.7950195
51
305.4823011
0
ARC
8
DEFAULT_255_2_778
10
7.9579791
20
2.0837926
40
1.177751
50
270.0088156
51
287.5909393
0
ARC
8
DEFAULT_255_2_778
10
7.9581617
20
2.079698
40
1.1736565
50
269.3583372
51
269.9999332
0
ARC
8
DEFAULT_255_2_778
10
7.9319787
20
2.3238985
40
1.4178434
50
256.7692477
51
270.5269338
0
ARC
8
DEFAULT_255_2_778
10
7.8024194
20
1.8124927
40
0.8904059
50
223.8560466
51
257.3530924
0
ARC
8
DEFAULT_255_2_778
10
7.7873168
20
1.787588
40
0.8622929
50
220.4789078
51
223.358062
0
ARC
8
DEFAULT_255_2_778
10
7.9289329
20
1.8879297
40
1.0352688
50
197.8842227
51
219.6150517
0
ARC
8
DEFAULT_255_2_778
10
8.4925849
20
2.078482
40
1.6302231
50
185.9531216
51
198.1741844
0
ARC
8
DEFAULT_255_2_778
10
9.2868958
20
2.1730707
40
2.4300888
50
179.8291958
51
186.2289062
0
ARC
8
DEFAULT_255_2_778
10
8.6611652
20
2.1935751
40
1.8043959
50
166.6232523
51
180.4210576
0
ARC
8
DEFAULT_255_2_778
10
8.2644494
20
2.2814004
40
1.3981387
50
155.1836423
51
166.3634876
0
ARC
8
DEFAULT_255_2_778
10
7.9669278
20
2.4276234
40
1.0667485
50
122.369306
51
155.605126
0
ARC
8
DEFAULT_255_2_778
10
7.966645
20
2.4018314
40
1.088472
50
90.8627156
51
121.6298555
0
ARC
8
DEFAULT_255_2_778
10
7.9919755
20
2.1200405
40
1.3707744
50
89.9940439
51
91.744056
0
ARC
8
DEFAULT_255_2_778
10
8.0050139
20
2.215273
40
1.2756071
50
77.1632881
51
90.5792471
0
ARC
8
DEFAULT_255_2_778
10
8.0930684
20
2.6265496
40
0.8550641
50
65.9219502
51
76.7933423
0
ARC
8
DEFAULT_255_2_778
10
8.149096
20
2.726312
40
0.7411974
50
37.4503837
51
66.7299037
0
ARC
8
DEFAULT_255_2_778
10
7.9853565
20
2.6068192
40
0.9438592
50
18.7830512
51
37.1649021
0
ARC
8
DEFAULT_255_2_778
10
7.5709284
20
2.4465323
40
1.3879476
50
15.2161652
51
19.5389635
0
ARC
8
DEFAULT_255_2_778
10
7.3634323
20
2.3826111
40
1.6049625
50
7.5116655
51
15.4739316
0
ARC
8
DEFAULT_255_2_778
10
6.1106108
20
2.2099818
40
2.8696095
50
2.4502011
51
7.658797
0
ARC
8
DEFAULT_255_2_778
10
4.9543861
20
2.1465696
40
4.0275121
50
1.264026
51
2.648292
0
ARC
8
DEFAULT_255_2_778
10
9.5012954
20
2.1760995
40
2.1688118
50
179.6772884
51
187.6452031
0
ARC
8
DEFAULT_255_2_778
10
8.6706481
20
2.0645398
40
1.3307066
50
187.6426163
51
197.3544
0
ARC
8
DEFAULT_255_2_778
10
8.0448334
20
1.8689928
40
0.6750521
50
197.3563988
51
231.880154
0
ARC
8
DEFAULT_255_2_778
10
7.9835655
20
1.8370617
40
0.6127727
50
234.5449408
51
264.084023
0
ARC
8
DEFAULT_255_2_778
10
8.0386328
20
2.1758383
40
0.9556271
50
262.8934267
51
270.1609957
0
ARC
8
DEFAULT_255_2_778
10
8.0549838
20
2.1359775
40
0.9158645
50
269.1450484
51
293.1515022
0
ARC
8
DEFAULT_255_2_778
10
8.0967475
20
2.0143142
40
0.7876355
50
293.8377256
51
294.6954824
0
ARC
8
DEFAULT_255_2_778
10
7.9929213
20
2.1943983
40
0.9948106
50
295.7951491
51
312.2640744
0
ARC
8
DEFAULT_255_2_778
10
7.6861379
20
2.5526246
40
1.4663097
50
311.7213709
51
317.5696423
0
ARC
8
DEFAULT_255_2_778
10
5.8154196
20
2.3175412
40
2.6768411
50
2.9481057
51
8.4658939
0
ARC
8
DEFAULT_255_2_778
10
7.0218317
20
2.5008113
40
1.456598
50
8.3217546
51
16.5454412
0
ARC
8
DEFAULT_255_2_778
10
7.8010395
20
2.7418106
40
0.6410881
50
15.7302372
51
36.892673
0
ARC
8
DEFAULT_255_2_778
10
7.9642937
20
2.854815
40
0.4427507
50
37.8798336
51
49.2475301
0
ARC
8
DEFAULT_255_2_778
10
7.989204
20
2.8769194
40
0.4097686
50
49.8684779
51
90.0664122
0
ARC
8
DEFAULT_255_2_778
10
7.9655619
20
2.6587496
40
0.6283653
50
87.8870969
51
90.0131228
0
ARC
8
DEFAULT_255_2_778
10
7.9519562
20
2.7752881
40
0.5120039
50
88.4933867
51
89.9996131
0
ARC
8
DEFAULT_255_2_778
10
7.9521137
20
2.7764501
40
0.510842
50
90.0172763
51
144.909861
0
ARC
8
DEFAULT_255_2_778
10
8.2178308
20
2.5767661
40
0.843123
50
144.1867888
51
163.3171998
0
ARC
8
DEFAULT_255_2_778
10
8.8247869
20
2.3858018
40
1.4793776
50
162.9808057
51
174.1311296
0
ARC
8
DEFAULT_255_2_778
10
9.4226267
20
2.3075722
40
2.0821499
50
173.671877
51
175.9338108
0
ARC
8
DEFAULT_255_2_778
10
10.8819796
20
2.8090905
40
0.5287421
50
19.6045971
51
43.7038802
0
ARC
8
DEFAULT_255_2_778
10
10.6315806
20
2.7005075
40
0.8012665
50
18.3011958
51
20.9113345
0
ARC
8
DEFAULT_255_2_778
10
10.5195109
20
2.6613658
40
0.9199605
50
359.9920585
51
18.4239259
0
ARC
8
DEFAULT_255_2_778
10
10.5137354
20
2.6612581
40
0.925736
50
359.3845887
51
359.9987781
0
ARC
8
DEFAULT_255_2_778
10
10.3815051
20
2.6380696
40
1.0579958
50
343.1509911
51
0.7173206
0
ARC
8
DEFAULT_255_2_778
10
10.6859189
20
2.5482285
40
0.7406127
50
311.3096319
51
342.9769158
0
ARC
8
DEFAULT_255_2_778
10
10.6090982
20
2.6522193
40
0.8695061
50
284.5770953
51
310.5885209
0
ARC
8
DEFAULT_255_2_778
10
10.4635347
20
3.1706892
40
1.4079604
50
271.9373638
51
284.9998282
0
ARC
8
DEFAULT_255_2_778
10
10.4300219
20
3.676573
40
1.9147581
50
269.9759438
51
272.4278485
0
ARC
8
DEFAULT_255_2_778
10
10.4172536
20
3.0494927
40
1.2877333
50
258.4390176
51
270.5323454
0
ARC
8
DEFAULT_255_2_778
10
10.3414104
20
2.6449764
40
0.8762502
50
250.9299171
51
257.9966704
0
ARC
8
DEFAULT_255_2_778
10
10.4733024
20
1.2497258
40
0.7046051
50
126.4059042
51
141.3560309
0
ARC
8
DEFAULT_255_2_778
10
10.1379918
20
1.5079302
40
0.2815765
50
139.7837035
51
177.8253237
0
ARC
8
DEFAULT_255_2_778
10
10.1336519
20
1.5064609
40
0.2773004
50
177.4879174
51
204.697916
0
ARC
8
DEFAULT_255_2_778
10
10.0114248
20
1.4580273
40
0.146188
50
207.4690245
51
216.0412493
0
ARC
8
DEFAULT_255_2_778
10
10.0583327
20
1.518862
40
0.2209681
50
221.6487365
51
259.5209
0
ARC
8
DEFAULT_255_2_778
10
10.1172562
20
1.7062001
40
0.4165827
50
256.2363128
51
256.33177
0
ARC
8
DEFAULT_255_2_778
10
10.1899476
20
2.094282
40
0.8111248
50
257.8203192
51
266.9372741
0
ARC
8
DEFAULT_255_2_778
10
10.276289
20
3.3264825
40
2.0462799
50
266.3665544
51
270.1996134
0
ARC
8
DEFAULT_255_2_778
10
10.9259116
20
-0.0790757
40
1.359369
50
79.6556427
51
90.6151139
0
ARC
8
DEFAULT_255_2_778
10
11.0463504
20
0.5733817
40
0.6958912
50
63.1071646
51
79.7646055
0
ARC
8
DEFAULT_255_2_778
10
11.1203665
20
0.6829056
40
0.5649726
50
33.5747422
51
64.7778203
0
ARC
8
DEFAULT_255_2_778
10
11.2406363
20
0.7813122
40
0.4106386
50
25.9675031
51
31.4147802
0
ARC
8
DEFAULT_255_2_778
10
11.0145548
20
0.6516401
40
0.6709046
50
359.648715
51
27.4697367
0
ARC
8
DEFAULT_255_2_778
10
10.6341325
20
0.6236452
40
1.0515855
50
359.9929039
51
1.3012989
0
ARC
8
DEFAULT_255_2_778
10
10.9723179
20
0.6133305
40
0.7134728
50
323.3073907
51
0.8178987
0
ARC
8
DEFAULT_255_2_778
10
10.8602214
20
0.6988911
40
0.8544836
50
296.3577879
51
323.1983024
0
ARC
8
DEFAULT_255_2_778
10
10.6920371
20
0.9955132
40
1.1950895
50
291.829078
51
297.2690625
0
ARC
8
DEFAULT_255_2_778
10
10.5937499
20
1.2721264
40
1.4884611
50
275.9449168
51
291.3819416
0
ARC
8
DEFAULT_255_2_778
10
10.5187189
20
1.8598325
40
2.0808231
50
269.8678067
51
276.3237328
0
ARC
8
DEFAULT_255_2_778
10
10.5015161
20
3.3868575
40
3.6078638
50
264.0582182
51
270.1969532
0
ARC
8
DEFAULT_255_2_778
10
10.4260683
20
2.5711627
40
2.788757
50
261.8292071
51
263.8651625
0
ARC
8
DEFAULT_255_2_778
10
10.2215432
20
1.2147408
40
1.4170693
50
250.1588317
51
262.2201287
0
ARC
8
DEFAULT_255_2_778
10
10.0836459
20
0.8065947
40
0.9863871
50
244.2824572
51
249.6465517
0
ARC
8
DEFAULT_255_2_778
10
9.879474
20
0.4325173
40
0.5611836
50
215.5075486
51
246.49059
0
ARC
8
DEFAULT_255_2_778
10
9.8545963
20
0.4079587
40
0.5266975
50
213.8974796
51
214.9046102
0
ARC
8
DEFAULT_255_2_778
10
9.8572823
20
0.3961311
40
0.5224532
50
183.1441603
51
212.6564663
0
ARC
8
DEFAULT_255_2_778
10
10.0249005
20
0.4172931
40
0.6910828
50
179.9650201
51
184.133832
0
ARC
8
DEFAULT_255_2_778
10
9.8011024
20
0.4175837
40
0.4672844
50
139.9092369
51
179.9839026
0
ARC
8
DEFAULT_255_2_778
10
10.1119167
20
0.1488772
40
0.8781289
50
121.8118505
51
139.5567215
0
ARC
8
DEFAULT_255_2_778
10
10.4120775
20
-0.297504
40
1.4158184
50
117.6509951
51
122.6119402
0
ARC
8
DEFAULT_255_2_778
10
9.9074029
20
1.3589885
40
0.4302623
50
216.4741192
51
249.257575
0
ARC
8
DEFAULT_255_2_778
10
9.8663742
20
1.322717
40
0.3757385
50
179.967242
51
215.7456637
0
ARC
8
DEFAULT_255_2_778
10
9.8699072
20
1.3229191
40
0.3792714
50
178.807096
51
179.9980735
0
ARC
8
DEFAULT_255_2_778
10
9.9631365
20
1.3343644
40
0.4724318
50
145.3877587
51
180.430477
0
ARC
8
DEFAULT_255_2_778
10
10.173717
20
1.2049986
40
0.7193451
50
133.3639195
51
146.4347199
0
ARC
8
DEFAULT_255_2_778
10
10.9606906
20
0.3949386
40
1.8486928
50
127.2262152
51
133.8574553
0
ARC
8
DEFAULT_255_2_778
10
11.6457926
20
-0.4708843
40
2.9526489
50
126.9739107
51
127.6477603
0
ARC
8
DEFAULT_255_2_778
10
10.2368778
20
2.5303775
40
0.7397899
50
207.724236
51
240.2621446
0
ARC
8
DEFAULT_255_2_778
10
10.4016107
20
2.595817
40
0.9162456
50
179.9525552
51
206.5541787
0
ARC
8
DEFAULT_255_2_778
10
10.6697938
20
2.6152624
40
1.1845758
50
179.997456
51
180.90388
0
ARC
8
DEFAULT_255_2_778
10
10.533158
20
2.628347
40
1.048021
50
164.5463456
51
180.7124823
0
ARC
8
DEFAULT_255_2_778
10
10.2483372
20
2.6985175
40
0.7548452
50
156.043671
51
163.9194106
0
ARC
8
DEFAULT_255_2_778
10
10.2673989
20
2.68746
40
0.7767582
50
130.317558
51
155.869212
0
ARC
8
DEFAULT_255_2_778
10
10.3131823
20
2.6030361
40
0.8709751
50
105.6028568
51
129.0204765
0
ARC
8
DEFAULT_255_2_778
10
10.4650081
20
2.1143924
40
1.3825273
50
89.8503929
51
106.2162799
0
ARC
8
DEFAULT_255_2_778
10
10.4682759
20
1.8993107
40
1.5976043
50
76.4450815
51
89.9877287
0
ARC
8
DEFAULT_255_2_778
10
11.1398742
20
2.6444727
40
1.1867204
50
179.4040936
51
191.9245059
0
ARC
8
DEFAULT_255_2_778
10
10.6047012
20
2.5251608
40
0.6384733
50
191.3718566
51
215.7630568
0
ARC
8
DEFAULT_255_2_778
10
10.442773
20
2.4202891
40
0.4458894
50
216.9889219
51
271.1304565
0
ARC
8
DEFAULT_255_2_778
10
10.4709226
20
2.6643217
40
0.6901067
50
268.3930393
51
270.0079203
0
ARC
8
DEFAULT_255_2_778
10
10.4840606
20
2.4609426
40
0.4869024
50
268.4650462
51
295.3597652
0
ARC
8
DEFAULT_255_2_778
10
10.5267795
20
2.3493526
40
0.3678839
50
296.791471
51
297.8285805
0
ARC
8
DEFAULT_255_2_778
10
10.511222
20
2.3771793
40
0.399756
50
297.9386516
51
327.9956135
0
ARC
8
DEFAULT_255_2_778
10
10.3565391
20
2.4943145
40
0.5932618
50
326.3195506
51
347.8070508
0
ARC
8
DEFAULT_255_2_778
10
9.9246402
20
2.6024342
40
1.0383539
50
347.0090376
51
0.6942175
0
ARC
8
DEFAULT_255_2_778
10
9.7701473
20
2.6277122
40
1.1928383
50
359.3901002
51
11.7359842
0
ARC
8
DEFAULT_255_2_778
10
10.2238525
20
2.717194
40
0.7304318
50
12.1025803
51
22.7376742
0
ARC
8
DEFAULT_255_2_778
10
10.4140143
20
2.804103
40
0.5214995
50
22.0065027
51
48.0403422
0
ARC
8
DEFAULT_255_2_778
10
10.5008095
20
2.8904501
40
0.3993164
50
49.0175219
51
56.7558212
0
ARC
8
DEFAULT_255_2_778
10
10.4711318
20
2.8403262
40
0.4575142
50
57.088638
51
91.3418404
0
ARC
8
DEFAULT_255_2_778
10
10.4468537
20
2.773757
40
0.5241336
50
88.5170477
51
116.5680025
0
ARC
8
DEFAULT_255_2_778
10
10.4057608
20
2.8774568
40
0.4131172
50
117.9033209
51
141.820619
0
ARC
8
DEFAULT_255_2_778
10
10.5413694
20
2.782385
40
0.5785539
50
142.7207833
51
168.8460123
0
ARC
8
DEFAULT_255_2_778
10
11.0511237
20
2.6681216
40
1.1008659
50
168.1436374
51
180.5988846
0
ARC
8
DEFAULT_255_2_778
10
10.4680021
20
0.2701
40
0.7827984
50
125.2944498
51
143.4892907
0
ARC
8
DEFAULT_255_2_778
10
10.2107984
20
0.4752098
40
0.4541913
50
144.9814037
51
150.7242986
0
ARC
8
DEFAULT_255_2_778
10
10.2428582
20
0.4516316
40
0.4937104
50
150.1569057
51
179.999811
0
ARC
8
DEFAULT_255_2_778
10
10.2436951
20
0.4516473
40
0.4945472
50
180.0016346
51
180.9653925
0
ARC
8
DEFAULT_255_2_778
10
10.1205213
20
0.4205622
40
0.3719997
50
176.4934114
51
240.0882703
0
ARC
8
DEFAULT_255_2_778
10
10.2810051
20
0.7048792
40
0.6984768
50
240.3074914
51
257.7723269
0
ARC
8
DEFAULT_255_2_778
10
10.4442871
20
1.4048642
40
1.4172095
50
257.3145446
51
267.0262246
0
ARC
8
DEFAULT_255_2_778
10
10.504551
20
2.2530827
40
2.2674699
50
266.6174221
51
270.0825533
0
ARC
8
DEFAULT_255_2_778
10
10.519945
20
1.3147709
40
1.3292112
50
269.477258
51
281.6091083
0
ARC
8
DEFAULT_255_2_778
10
10.6003516
20
0.8927779
40
0.8996915
50
282.0012395
51
290.1799507
0
ARC
8
DEFAULT_255_2_778
10
10.7187906
20
0.605096
40
0.5889323
50
289.0195331
51
316.1143876
0
ARC
8
DEFAULT_255_2_778
10
10.8152094
20
0.4986248
40
0.4457426
50
317.3866385
51
322.7492686
0
ARC
8
DEFAULT_255_2_778
10
10.8182592
20
0.494385
40
0.4407513
50
322.9480059
51
1.1739346
0
ARC
8
DEFAULT_255_2_778
10
10.6826366
20
0.504689
40
0.5762829
50
359.8733317
51
359.9902351
0
ARC
8
DEFAULT_255_2_778
10
10.6912264
20
0.5047165
40
0.5676929
50
359.9873148
51
14.5479078
0
ARC
8
DEFAULT_255_2_778
10
10.9647716
20
0.5706835
40
0.2863892
50
15.5201915
51
44.2198005
0
ARC
8
DEFAULT_255_2_778
10
10.9189253
20
0.5246576
40
0.3513463
50
44.3847614
51
71.9849759
0
ARC
8
DEFAULT_255_2_778
10
10.8570759
20
0.3940347
40
0.4950363
50
69.8525498
51
70.033291
0
ARC
8
DEFAULT_255_2_778
10
10.8327528
20
0.2433661
40
0.6455875
50
72.5713261
51
86.745816
0
ARC
8
DEFAULT_255_2_778
10
10.782672
20
-0.3216468
40
1.2126646
50
85.8987893
51
90.1253947
0
ARC
8
DEFAULT_255_2_778
10
10.3732783
20
5.1358477
40
4.244867
50
270.000675
51
270.2299974
0
ARC
8
DEFAULT_255_2_778
10
10.3702292
20
4.9065484
40
4.0155686
50
264.9422567
51
270.0442184
0
ARC
8
DEFAULT_255_2_778
10
13.2978709
20
3.5674705
40
0.9881688
50
22.6814078
51
33.3497748
0
ARC
8
DEFAULT_255_2_778
10
13.784645
20
3.8888032
40
0.4049003
50
33.2343794
51
53.7935879
0
ARC
8
DEFAULT_255_2_778
10
13.8523272
20
3.9811895
40
0.2903748
50
53.8015165
51
80.9068501
0
ARC
8
DEFAULT_255_2_778
10
13.7346989
20
3.4391914
40
0.8447018
50
78.8380951
51
89.7968141
0
ARC
8
DEFAULT_255_2_778
10
13.7346186
20
3.4685533
40
0.8153404
50
89.7838591
51
90.003663
0
ARC
8
DEFAULT_255_2_778
10
13.7345517
20
3.4376482
40
0.8462455
50
89.9989945
51
90.7809197
0
ARC
8
DEFAULT_255_2_778
10
13.467801
20
3.4212331
40
0.5081547
50
268.6713164
51
284.3516064
0
ARC
8
DEFAULT_255_2_778
10
13.5238813
20
3.179666
40
0.2602846
50
285.572843
51
295.6418401
0
ARC
8
DEFAULT_255_2_778
10
13.5130995
20
3.1698388
40
0.256472
50
298.7648775
51
334.0015183
0
ARC
8
DEFAULT_255_2_778
10
13.1818439
20
3.3593545
40
0.6377755
50
331.7430858
51
343.0924784
0
ARC
8
DEFAULT_255_2_778
10
12.2658851
20
3.6574406
40
1.6009447
50
342.4190916
51
347.2279384
0
ARC
8
DEFAULT_255_2_778
10
12.5443897
20
2.0130288
40
1.3142981
50
12.5634159
51
19.9597423
0
ARC
8
DEFAULT_255_2_778
10
13.2177205
20
2.2553148
40
0.5987095
50
20.1621936
51
28.0675457
0
ARC
8
DEFAULT_255_2_778
10
13.5022761
20
2.4175923
40
0.2714257
50
26.1028037
51
59.7732877
0
ARC
8
DEFAULT_255_2_778
10
13.5036649
20
2.3830526
40
0.3011444
50
63.3120991
51
86.8924234
0
ARC
8
DEFAULT_255_2_778
10
13.4580663
20
1.9916326
40
0.6948862
50
84.8873733
51
90.1853779
0
ARC
8
DEFAULT_255_2_778
10
13.72183
20
2.1535153
40
0.9765779
50
269.2776345
51
278.778231
0
ARC
8
DEFAULT_255_2_778
10
13.7936731
20
1.6499397
40
0.4679735
50
279.4944017
51
285.1425773
0
ARC
8
DEFAULT_255_2_778
10
13.8228946
20
1.5325823
40
0.347066
50
285.546951
51
311.8648536
0
ARC
8
DEFAULT_255_2_778
10
13.6839395
20
1.6497582
40
0.5276706
50
314.6111345
51
333.6336614
0
ARC
8
DEFAULT_255_2_778
10
13.1333073
20
1.9407199
40
1.1503542
50
332.829096
51
342.417117
0
ARC
8
DEFAULT_255_2_778
10
11.869036
20
2.0459605
40
1.0019787
50
284.0165835
51
292.5253218
0
ARC
8
DEFAULT_255_2_778
10
12.1504188
20
1.3791285
40
0.2782596
50
291.6072802
51
309.8221287
0
ARC
8
DEFAULT_255_2_778
10
12.1474456
20
1.3431362
40
0.2537879
50
315.5509477
51
352.9562542
0
ARC
8
DEFAULT_255_2_778
10
11.4469762
20
1.4829594
40
0.9675623
50
349.8238328
51
356.9225474
0
ARC
8
DEFAULT_255_2_778
10
9.7597768
20
1.588966
40
2.6580634
50
356.593286
51
0.2338553
0
ARC
8
DEFAULT_255_2_778
10
9.2024742
20
3.8744119
40
3.2153647
50
359.7933494
51
2.5747065
0
ARC
8
DEFAULT_255_2_778
10
11.3628254
20
3.976953
40
1.0526019
50
2.2812982
51
8.2181771
0
ARC
8
DEFAULT_255_2_778
10
12.0480004
20
4.0761969
40
0.3602769
50
8.1730423
51
27.6830488
0
ARC
8
DEFAULT_255_2_778
10
12.1084625
20
4.1042573
40
0.2937175
50
28.3153061
51
31.0414347
0
ARC
8
DEFAULT_255_2_778
10
12.1912693
20
4.1534491
40
0.1974037
50
31.201853
51
62.7948019
0
ARC
8
DEFAULT_255_2_778
10
12.0323951
20
3.8657973
40
0.5259589
50
61.7282096
51
72.3597255
0
ARC
8
DEFAULT_255_2_778
10
11.7001306
20
2.9098888
40
1.5378445
50
71.3551327
51
74.4877715
0
ARC
8
DEFAULT_255_2_778
10
15.8310566
20
3.4574229
40
0.9232701
50
321.7802592
51
331.8763058
0
ARC
8
DEFAULT_255_2_778
10
16.3724293
20
3.1628477
40
0.3069948
50
332.7357704
51
359.6392876
0
ARC
8
DEFAULT_255_2_778
10
16.5530854
20
3.1639059
40
0.126368
50
358.6437829
51
0.0029517
0
ARC
8
DEFAULT_255_2_778
10
16.5523915
20
3.1638873
40
0.127062
50
0.0113352
51
49.4368743
0
ARC
8
DEFAULT_255_2_778
10
16.473121
20
3.0560079
40
0.2607545
50
51.6196292
51
78.6122571
0
ARC
8
DEFAULT_255_2_778
10
16.3771705
20
2.7262435
40
0.6036667
50
75.8634404
51
78.6069344
0
ARC
8
DEFAULT_255_2_778
10
17.5265499
20
2.7623295
40
0.5825097
50
107.4554313
51
128.8691092
0
ARC
8
DEFAULT_255_2_778
10
17.6768647
20
2.5488941
40
0.8431852
50
127.720135
51
128.8439318
0
ARC
8
DEFAULT_255_2_778
10
17.8607444
20
2.3453042
40
1.11719
50
129.6401278
51
137.7509205
0
ARC
8
DEFAULT_255_2_778
10
19.2384803
20
1.0724059
40
2.9929118
50
137.4463663
51
141.4124888
0
ARC
8
DEFAULT_255_2_778
10
20.4392765
20
0.0855821
40
4.5470682
50
141.1301148
51
141.1769947
0
ARC
8
DEFAULT_255_2_778
10
18.9246675
20
2.9229483
40
2.4495657
50
216.3365226
51
221.4050541
0
ARC
8
DEFAULT_255_2_778
10
18.0276362
20
2.1323001
40
1.2538277
50
221.4164313
51
227.5653968
0
ARC
8
DEFAULT_255_2_778
10
17.6403873
20
1.696932
40
0.671257
50
226.8863205
51
246.7936211
0
ARC
8
DEFAULT_255_2_778
10
17.5631065
20
1.5395543
40
0.4962424
50
247.8344744
51
249.0184161
0
ARC
8
DEFAULT_255_2_778
10
16.2968175
20
1.4784839
40
0.4063388
50
275.1961757
51
294.918024
0
ARC
8
DEFAULT_255_2_778
10
16.4159169
20
1.2342014
40
0.1347133
50
292.752106
51
0.7713777
0
ARC
8
DEFAULT_255_2_778
10
16.2525613
20
1.2374329
40
0.2980601
50
359.7274396
51
20.2947576
0
ARC
8
DEFAULT_255_2_778
10
16.1091972
20
1.1674195
40
0.4570864
50
22.2933892
51
37.8342101
0
ARC
8
DEFAULT_255_2_778
10
15.7929864
20
0.9474783
40
0.8419771
50
36.4560943
51
37.146885
0
ARC
8
DEFAULT_255_2_778
10
16.2957058
20
0.9800061
40
0.7800916
50
141.9126609
51
151.3510241
0
ARC
8
DEFAULT_255_2_778
10
15.8221632
20
1.2507016
40
0.234976
50
153.9167794
51
179.9972424
0
ARC
8
DEFAULT_255_2_778
10
15.8214788
20
1.2507015
40
0.2342915
50
179.9971994
51
180.9260289
0
ARC
8
DEFAULT_255_2_778
10
15.7479821
20
1.2428773
40
0.1608148
50
178.561299
51
225.0247473
0
ARC
8
DEFAULT_255_2_778
10
15.7837621
20
1.3172701
40
0.2402829
50
231.5412763
51
263.3214438
0
ARC
8
DEFAULT_255_2_778
10
15.8429626
20
1.5917264
40
0.5204565
50
260.3610006
51
264.0064097
0
ARC
8
DEFAULT_255_2_778
10
14.6874017
20
1.7134676
40
0.6793807
50
289.6910694
51
304.3273219
0
ARC
8
DEFAULT_255_2_778
10
14.5750875
20
1.8769603
40
0.8777342
50
304.3635866
51
316.5042293
0
ARC
8
DEFAULT_255_2_778
10
14.6831109
20
2.6717257
40
0.7150055
50
42.907666
51
56.1756323
0
ARC
8
DEFAULT_255_2_778
10
14.8370987
20
2.8794183
40
0.4569142
50
57.7198586
51
63.2660429
0
ARC
8
DEFAULT_255_2_778
10
14.8342174
20
2.8757349
40
0.461501
50
63.1522727
51
73.4058035
0
ARC
8
DEFAULT_255_2_778
10
16.0378138
20
2.9365867
40
0.3842275
50
96.9204151
51
117.5929716
0
ARC
8
DEFAULT_255_2_778
10
15.9185203
20
3.1574077
40
0.1333119
50
116.1127677
51
180.6845491
0
ARC
8
DEFAULT_255_2_778
10
16.0653063
20
3.1559407
40
0.2800883
50
180.0257277
51
192.4274161
0
ARC
8
DEFAULT_255_2_778
10
16.1021881
20
3.1646918
40
0.3179899
50
192.5371398
51
203.9681827
0
ARC
8
DEFAULT_255_2_778
10
16.4512687
20
3.3547071
40
0.7148682
50
206.5196572
51
219.2801428
0
ARC
8
DEFAULT_255_2_778
10
18.7743281
20
0.2637267
40
0.3797089
50
187.3249733
51
208.1452305
0
ARC
8
DEFAULT_255_2_778
10
18.6471245
20
0.2183868
40
0.2469723
50
212.795819
51
240.5555902
0
ARC
8
DEFAULT_255_2_778
10
18.7486397
20
0.4424412
40
0.4924692
50
243.0854475
51
256.1305526
0
ARC
8
DEFAULT_255_2_778
10
18.9659096
20
1.213425
40
1.2933203
50
254.9732161
51
258.5341324
0
ARC
8
DEFAULT_255_2_778
10
17.4039585
20
0.8427094
40
0.9277256
50
284.8367938
51
293.7873635
0
ARC
8
DEFAULT_255_2_778
10
17.5830037
20
0.4174797
40
0.4664663
50
294.7305684
51
296.771815
0
ARC
8
DEFAULT_255_2_778
10
17.7211911
20
0.174219
40
0.187545
50
292.5517851
51
330.6219055
0
ARC
8
DEFAULT_255_2_778
10
17.5894011
20
0.2444504
40
0.336858
50
331.2091543
51
354.4781717
0
ARC
8
DEFAULT_255_2_778
10
17.2887939
20
0.2969682
40
0.6415488
50
352.3925244
51
353.6592706
0
ARC
8
DEFAULT_255_2_778
10
16.1976782
20
0.4089821
40
1.7383848
50
353.961672
51
358.5204056
0
ARC
8
DEFAULT_255_2_778
10
14.5641853
20
0.4658927
40
3.3728347
50
358.2704644
51
0.0615335
0
ARC
8
DEFAULT_255_2_778
10
17.3280968
20
2.9517089
40
0.6042296
50
2.5711862
51
15.4048468
0
ARC
8
DEFAULT_255_2_778
10
17.7013238
20
3.0538235
40
0.217287
50
15.588679
51
41.7160681
0
ARC
8
DEFAULT_255_2_778
10
17.6966124
20
3.0486513
40
0.2242469
50
41.9014824
51
67.5580153
0
ARC
8
DEFAULT_255_2_778
10
17.6674603
20
3.0141005
40
0.2676631
50
64.6124221
51
68.9016336
0
ARC
8
DEFAULT_255_2_778
10
17.5193343
20
2.6013596
40
0.7061328
50
69.7437539
51
77.5520609
0
ARC
8
DEFAULT_255_2_778
10
17.3076838
20
1.7270462
40
1.6056179
50
76.9020633
51
78.9720837
0
ARC
8
DEFAULT_255_2_778
10
19.3360559
20
2.4249692
40
1.0873855
50
116.8862326
51
129.0762502
0
ARC
8
DEFAULT_255_2_778
10
19.2497785
20
2.5837042
40
0.906807
50
103.5110896
51
116.5596907
0
ARC
8
DEFAULT_255_2_778
10
19.2318862
20
2.5764919
40
0.9098395
50
90.0387631
51
102.3093278
0
ARC
8
DEFAULT_255_2_778
10
19.2312704
20
2.5926718
40
0.8936591
50
89.6571442
51
89.9999856
0
ARC
8
DEFAULT_255_2_778
10
19.2510012
20
2.5966785
40
0.8897528
50
68.9682785
51
90.9262493
0
ARC
8
DEFAULT_255_2_778
10
19.2964362
20
2.7523712
40
0.7282507
50
34.2196151
51
67.9086467
0
ARC
8
DEFAULT_255_2_778
10
19.0605336
20
2.5632371
40
1.0299518
50
17.2916799
51
35.5397654
0
ARC
8
DEFAULT_255_2_778
10
18.4125973
20
2.3525507
40
1.7112491
50
6.666344
51
17.578759
0
ARC
8
DEFAULT_255_2_778
10
17.4222022
20
2.2286855
40
2.7093392
50
359.7616562
51
6.8366963
0
ARC
8
DEFAULT_255_2_778
10
17.8300936
20
2.2049809
40
2.3014581
50
351.2289652
51
0.3095541
0
ARC
8
DEFAULT_255_2_778
10
18.6296546
20
2.0770685
40
1.4917493
50
337.2938146
51
351.401589
0
ARC
8
DEFAULT_255_2_778
10
18.8896073
20
1.9797963
40
1.2144426
50
336.205223
51
336.7932467
0
ARC
8
DEFAULT_255_2_778
10
19.1181166
20
1.8624043
40
0.9581151
50
308.1355091
51
337.1153315
0
ARC
8
DEFAULT_255_2_778
10
19.1794869
20
1.8033822
40
0.8738734
50
300.173863
51
307.3602843
0
ARC
8
DEFAULT_255_2_778
10
19.0861043
20
1.970707
40
1.0654683
50
275.7100736
51
299.9925254
0
ARC
8
DEFAULT_255_2_778
10
19.0275651
20
2.3753029
40
1.4739906
50
269.8893298
51
276.4095217
0
ARC
8
DEFAULT_255_2_778
10
19.0105055
20
2.5713724
40
1.6701179
50
269.9828863
51
270.4875854
0
ARC
8
DEFAULT_255_2_778
10
19.0101445
20
2.5662608
40
1.6650063
50
258.3567724
51
269.9952593
0
ARC
8
DEFAULT_255_2_778
10
18.967939
20
2.4400547
40
1.5329614
50
247.7028534
51
258.9498053
0
ARC
8
DEFAULT_255_2_778
10
21.2074393
20
1.8735916
40
2.8211448
50
179.7659659
51
184.0372013
0
ARC
8
DEFAULT_255_2_778
10
19.6321199
20
1.7565908
40
1.2415107
50
183.7694653
51
191.4796444
0
ARC
8
DEFAULT_255_2_778
10
19.1201205
20
1.6612524
40
0.7208291
50
192.1526518
51
193.0886239
0
ARC
8
DEFAULT_255_2_778
10
18.8970579
20
1.5963592
40
0.4890305
50
191.601315
51
220.970721
0
ARC
8
DEFAULT_255_2_778
10
18.9296074
20
1.6738819
40
0.5656603
50
224.7405506
51
247.8372105
0
ARC
8
DEFAULT_255_2_778
10
18.9425955
20
1.7881986
40
0.6771449
50
250.4693043
51
265.9418213
0
ARC
8
DEFAULT_255_2_778
10
19.0007988
20
2.3505492
40
1.2423386
50
265.0996484
51
270.1530816
0
ARC
8
DEFAULT_255_2_778
10
19.0279223
20
1.6302924
40
0.5226199
50
267.3893914
51
269.9998142
0
ARC
8
DEFAULT_255_2_778
10
19.0277979
20
1.6289273
40
0.5212547
50
270.0134843
51
330.2427695
0
ARC
8
DEFAULT_255_2_778
10
18.6625998
20
1.8487176
40
0.9474323
50
329.66519
51
345.6940946
0
ARC
8
DEFAULT_255_2_778
10
17.9519799
20
2.0390552
40
1.6830715
50
345.3930934
51
354.97166
0
ARC
8
DEFAULT_255_2_778
10
16.9361873
20
2.1390849
40
2.7037432
50
354.746776
51
0.1744053
0
ARC
8
DEFAULT_255_2_778
10
16.8833423
20
2.1588385
40
2.7565998
50
359.7604842
51
5.9110433
0
ARC
8
DEFAULT_255_2_778
10
18.0247152
20
2.2820526
40
1.6086144
50
5.7323981
51
15.3983409
0
ARC
8
DEFAULT_255_2_778
10
18.7399158
20
2.4845547
40
0.8653339
50
15.0456289
51
31.6385113
0
ARC
8
DEFAULT_255_2_778
10
19.0609909
20
2.6878992
40
0.4853353
50
31.0836741
51
92.3821733
0
ARC
8
DEFAULT_255_2_778
10
19.0286216
20
2.516596
40
0.6563323
50
88.9352282
51
109.1266379
0
ARC
8
DEFAULT_255_2_778
10
18.9606245
20
2.7419727
40
0.4212269
50
110.4329464
51
114.3545736
0
ARC
8
DEFAULT_255_2_778
10
18.9812956
20
2.6670674
40
0.4981367
50
112.9675271
51
115.7054638
0
ARC
8
DEFAULT_255_2_778
10
19.097644
20
2.4569804
40
0.7380254
50
116.7698696
51
133.1000257
0
ARC
8
DEFAULT_255_2_778
10
19.376831
20
2.1282756
40
1.1689786
50
132.0832493
51
133.2936702
0
ARC
8
DEFAULT_255_2_778
10
19.0498352
20
2.4618931
40
0.7019828
50
132.5403566
51
148.4424672
0
ARC
8
DEFAULT_255_2_778
10
18.8923469
20
2.5654994
40
0.5135955
50
149.0964672
51
155.2261888
0
ARC
8
DEFAULT_255_2_778
10
18.8804177
20
2.5813331
40
0.4962179
50
156.30905
51
180.0177463
0
ARC
8
DEFAULT_255_2_778
10
18.8894534
20
2.5812035
40
0.5052536
50
180.0027363
51
180.4863252
0
LINE
8
DEFAULT_255_2_778
10
4.491718
20
2.496815
11
4.491718
21
1.607015
0
LINE
8
DEFAULT_255_2_778
10
4.491718
20
1.607015
11
4.504918
21
1.332315
0
LINE
8
DEFAULT_255_2_778
10
4.798118
20
1.073315
11
4.798118
21
0.945515
0
LINE
8
DEFAULT_255_2_778
10
4.798118
20
0.945515
11
3.694018
21
0.945515
0
LINE
8
DEFAULT_255_2_778
10
3.694018
20
0.945515
11
3.694018
21
1.073815
0
LINE
8
DEFAULT_255_2_778
10
4.000118
20
1.599815
11
4.000118
21
3.862815
0
LINE
8
DEFAULT_255_2_778
10
3.693718
20
4.391715
11
3.693718
21
4.517415
0
LINE
8
DEFAULT_255_2_778
10
3.693718
20
4.517415
11
4.988618
21
4.517415
0
LINE
8
DEFAULT_255_2_778
10
5.417718
20
2.605315
11
5.417718
21
2.584115
0
LINE
8
DEFAULT_255_2_778
10
5.943718
20
2.018915
11
6.181818
21
1.589815
0
LINE
8
DEFAULT_255_2_778
10
6.707318
20
1.077015
11
6.707318
21
0.945515
0
LINE
8
DEFAULT_255_2_778
10
6.707318
20
0.945515
11
5.982318
21
0.945515
0
LINE
8
DEFAULT_255_2_778
10
5.794018
20
1.243715
11
5.618818
21
1.568115
0
LINE
8
DEFAULT_255_2_778
10
5.618818
20
1.568115
11
5.388618
21
2.004615
0
LINE
8
DEFAULT_255_2_778
10
5.388618
20
2.004615
11
5.215818
21
2.297815
0
LINE
8
DEFAULT_255_2_778
10
4.781418
20
2.496815
11
4.491718
21
2.496815
0
LINE
8
DEFAULT_255_2_778
10
4.491718
20
4.275815
11
4.491718
21
2.721915
0
LINE
8
DEFAULT_255_2_778
10
4.491718
20
2.721915
11
4.787218
21
2.721915
0
LINE
8
DEFAULT_255_2_778
10
4.873718
20
4.287215
11
4.491718
21
4.276615
0
LINE
8
DEFAULT_255_2_778
10
8.980918
20
2.235415
11
7.332518
21
2.235415
0
LINE
8
DEFAULT_255_2_778
10
7.332518
20
2.235415
11
7.332518
21
2.188315
0
LINE
8
DEFAULT_255_2_778
10
8.768418
20
1.563315
11
8.927918
21
1.393215
0
LINE
8
DEFAULT_255_2_778
10
7.345718
20
2.455215
11
8.488718
21
2.455215
0
LINE
8
DEFAULT_255_2_778
10
11.774918
20
3.182315
11
11.290718
21
3.200815
0
LINE
8
DEFAULT_255_2_778
10
11.290718
20
3.200815
11
11.264218
21
3.174415
0
LINE
8
DEFAULT_255_2_778
10
10.283418
20
1.280215
11
10.911318
21
1.280215
0
LINE
8
DEFAULT_255_2_778
10
10.842718
20
3.452415
11
11.768818
21
3.452415
0
LINE
8
DEFAULT_255_2_778
10
11.768818
20
3.452415
11
11.768818
21
3.187915
0
LINE
8
DEFAULT_255_2_778
10
10.780018
20
0.891015
11
10.390318
21
0.891015
0
LINE
8
DEFAULT_255_2_778
10
14.547418
20
4.516315
11
14.547418
21
3.723715
0
LINE
8
DEFAULT_255_2_778
10
14.547418
20
3.723715
11
14.290818
21
3.723715
0
LINE
8
DEFAULT_255_2_778
10
14.290818
20
3.723715
11
14.209618
21
3.948515
0
LINE
8
DEFAULT_255_2_778
10
13.723018
20
4.283815
11
12.896218
21
4.283815
0
LINE
8
DEFAULT_255_2_778
10
12.896218
20
4.283815
11
12.896218
21
2.913215
0
LINE
8
DEFAULT_255_2_778
10
12.896218
20
2.913215
11
13.456018
21
2.913215
0
LINE
8
DEFAULT_255_2_778
10
13.827218
20
3.303515
11
14.073318
21
3.303515
0
LINE
8
DEFAULT_255_2_778
10
14.073318
20
3.303515
11
14.073318
21
2.298915
0
LINE
8
DEFAULT_255_2_778
10
14.073318
20
2.298915
11
13.827218
21
2.298915
0
LINE
8
DEFAULT_255_2_778
10
13.455818
20
2.686515
11
12.895918
21
2.686515
0
LINE
8
DEFAULT_255_2_778
10
12.895918
20
2.686515
11
12.895918
21
1.177015
0
LINE
8
DEFAULT_255_2_778
10
12.895918
20
1.177015
11
13.709518
21
1.177015
0
LINE
8
DEFAULT_255_2_778
10
14.229918
20
1.593215
11
14.313518
21
1.865215
0
LINE
8
DEFAULT_255_2_778
10
14.313518
20
1.865215
11
14.572818
21
1.865215
0
LINE
8
DEFAULT_255_2_778
10
14.572818
20
1.865215
11
14.534218
21
0.945515
0
LINE
8
DEFAULT_255_2_778
10
14.534218
20
0.945515
11
12.111718
21
0.945515
0
LINE
8
DEFAULT_255_2_778
10
12.111718
20
0.945515
11
12.111718
21
1.073815
0
LINE
8
DEFAULT_255_2_778
10
12.417818
20
1.599815
11
12.417818
21
3.862815
0
LINE
8
DEFAULT_255_2_778
10
12.111418
20
4.391715
11
12.111418
21
4.517415
0
LINE
8
DEFAULT_255_2_778
10
12.111418
20
4.517415
11
14.557518
21
4.517415
0
LINE
8
DEFAULT_255_2_778
10
16.216418
20
2.455015
11
16.556418
21
2.886215
0
LINE
8
DEFAULT_255_2_778
10
16.496418
20
3.318015
11
16.496418
21
3.446415
0
LINE
8
DEFAULT_255_2_778
10
16.496418
20
3.446415
11
17.351818
21
3.446415
0
LINE
8
DEFAULT_255_2_778
10
17.351818
20
3.446415
11
17.351818
21
3.318015
0
LINE
8
DEFAULT_255_2_778
10
16.896718
20
2.936215
11
16.355118
21
2.274815
0
LINE
8
DEFAULT_255_2_778
10
16.355118
20
2.274815
11
16.951418
21
1.471515
0
LINE
8
DEFAULT_255_2_778
10
17.385418
20
1.076215
11
17.385418
21
0.945515
0
LINE
8
DEFAULT_255_2_778
10
17.385418
20
0.945515
11
16.333618
21
0.945515
0
LINE
8
DEFAULT_255_2_778
10
16.333618
20
0.945515
11
16.333618
21
1.073815
0
LINE
8
DEFAULT_255_2_778
10
16.464118
20
1.455915
11
16.084718
21
1.984315
0
LINE
8
DEFAULT_255_2_778
10
16.084718
20
1.984315
11
15.681718
21
1.461215
0
LINE
8
DEFAULT_255_2_778
10
15.788618
20
1.074115
11
15.788618
21
0.945515
0
LINE
8
DEFAULT_255_2_778
10
15.788618
20
0.945515
11
14.916318
21
0.945515
0
LINE
8
DEFAULT_255_2_778
10
14.916318
20
0.945515
11
14.916318
21
1.073815
0
LINE
8
DEFAULT_255_2_778
10
15.211818
20
1.272815
11
15.402818
21
1.492415
0
LINE
8
DEFAULT_255_2_778
10
15.402818
20
1.492415
11
15.947118
21
2.167115
0
LINE
8
DEFAULT_255_2_778
10
15.947118
20
2.167115
11
15.389918
21
2.930915
0
LINE
8
DEFAULT_255_2_778
10
15.389918
20
2.930915
11
15.206818
21
3.158515
0
LINE
8
DEFAULT_255_2_778
10
14.966018
20
3.318015
11
14.966018
21
3.446415
0
LINE
8
DEFAULT_255_2_778
10
14.966018
20
3.446415
11
15.991518
21
3.446415
0
LINE
8
DEFAULT_255_2_778
10
15.991518
20
3.446415
11
15.991518
21
3.318015
0
LINE
8
DEFAULT_255_2_778
10
15.897918
20
2.902115
11
16.217018
21
2.452315
0
LINE
8
DEFAULT_255_2_778
10
18.387118
20
1.023615
11
18.387118
21
0.469315
0
LINE
8
DEFAULT_255_2_778
10
18.387118
20
0.469315
11
18.397718
21
0.215315
0
LINE
8
DEFAULT_255_2_778
10
18.708818
20
-0.054085
11
18.708818
21
-0.182385
0
LINE
8
DEFAULT_255_2_778
10
18.708818
20
-0.182385
11
17.641518
21
-0.182385
0
LINE
8
DEFAULT_255_2_778
10
17.641518
20
-0.182385
11
17.641518
21
-0.054085
0
LINE
8
DEFAULT_255_2_778
10
17.937018
20
0.469515
11
17.937018
21
2.714315
0
LINE
8
DEFAULT_255_2_778
10
17.937018
20
2.714315
11
17.931718
21
2.978815
0
LINE
8
DEFAULT_255_2_778
10
17.614818
20
3.303015
11
17.614818
21
3.441615
0
LINE
8
DEFAULT_255_2_778
10
17.614818
20
3.441615
11
18.229618
21
3.468115
0
LINE
8
DEFAULT_255_2_778
10
18.229618
20
3.468115
11
18.389218
21
3.468115
0
LINE
8
DEFAULT_255_2_778
10
18.389218
20
3.468115
11
18.354818
21
3.041615
0
LINE
8
DEFAULT_255_2_778
10
18.354818
20
3.041615
11
18.394018
21
3.031015
0
LINE
8
DEFAULT_255_2_778
10
18.394018
20
3.031015
11
18.650618
21
3.269115
0
LINE
8
DEFAULT_255_2_778
10
18.384218
20
2.576915
11
18.384218
21
1.889015
0
ENDSEC
0
EOF