0
SECTION
2
HEADER
9
$MEASUREMENT
70
1
0
ENDSEC
0
SECTION
2
TABLES
0
TABLE
2
LTYPE
0
LTYPE
72
65
70
64
2
CONTINUOUS
3
______
73
0
40
0
0
ENDTAB
0
TABLE
2
LAYER
0
LAYER
2
DEFAULT_255_2_778
70
0
62
255
6
CONTINUOUS
0
ENDTAB
0
ENDSEC
0
SECTION
2
ENTITIES
0
ARC
8
DEFAULT_255_2_778
10
2.3217133
20
13.3343281
40
3.4666479
50
85.0402955
51
90.1348727
0
ARC
8
DEFAULT_255_2_778
10
2.4071702
20
14.2940365
40
2.5031456
50
78.1184164
51
85.089856
0
ARC
8
DEFAULT_255_2_778
10
2.5436005
20
14.9359252
40
1.8469202
50
68.5006947
51
78.160268
0
ARC
8
DEFAULT_255_2_778
10
2.6550286
20
15.2252932
40
1.5368503
50
54.9153248
51
68.4121408
0
ARC
8
DEFAULT_255_2_778
10
2.0269735
20
14.4667462
40
2.519775
50
37.7625711
51
53.1428721
0
ARC
8
DEFAULT_255_2_778
10
37.1849348
20
43.5647044
40
43.119027
50
219.7204243
51
219.9576224
0
ARC
8
DEFAULT_255_2_778
10
20.793031
20
6.2383656
40
15.6747839
50
142.5663703
51
143.2609842
0
ARC
8
DEFAULT_255_2_778
10
16.8467577
20
9.2585443
40
10.7054226
50
141.7394044
51
142.5636212
0
ARC
8
DEFAULT_255_2_778
10
14.2227621
20
11.3318166
40
7.3612041
50
140.3147884
51
141.763203
0
ARC
8
DEFAULT_255_2_778
10
12.3439997
20
12.8928639
40
4.9185391
50
138.2018716
51
140.3335036
0
ARC
8
DEFAULT_255_2_778
10
11.1365787
20
13.9748316
40
3.2972696
50
135.0074713
51
138.2339941
0
ARC
8
DEFAULT_255_2_778
10
10.3853307
20
14.7282683
40
2.2332977
50
130.1603541
51
135.0507357
0
ARC
8
DEFAULT_255_2_778
10
10.0669822
20
15.0997473
40
1.7440895
50
127.3665663
51
130.0382198
0
ARC
8
DEFAULT_255_2_778
10
9.829118
20
15.4275233
40
1.3392572
50
101.1686871
51
127.7894299
0
ARC
8
DEFAULT_255_2_778
10
10.0268475
20
14.5246108
40
2.2634499
50
95.4347355
51
101.6519825
0
ARC
8
DEFAULT_255_2_778
10
10.2043855
20
12.7401508
40
4.0567105
50
92.3035187
51
95.5439172
0
ARC
8
DEFAULT_255_2_778
10
10.357723
20
9.1576354
40
7.6424996
50
90.7610942
51
92.3726485
0
ARC
8
DEFAULT_255_2_778
10
10.4790843
20
0.4070808
40
16.393895
50
89.9389481
51
90.7789714
0
ARC
8
DEFAULT_255_2_778
10
14.1567054
20
3.134214
40
3.266555
50
264.531968
51
270.1218597
0
ARC
8
DEFAULT_255_2_778
10
14.0824727
20
2.3762493
40
2.5049664
50
257.273971
51
264.5701237
0
ARC
8
DEFAULT_255_2_778
10
13.9630942
20
1.8492332
40
1.964599
50
248.2999298
51
257.2841758
0
ARC
8
DEFAULT_255_2_778
10
13.8502233
20
1.5633113
40
1.6572063
50
236.9953335
51
248.2706426
0
ARC
8
DEFAULT_255_2_778
10
13.862331
20
1.5713192
40
1.6705271
50
224.5149664
51
236.796684
0
ARC
8
DEFAULT_255_2_778
10
14.1781845
20
1.8870601
40
2.1171197
50
219.8969746
51
224.6151293
0
ARC
8
DEFAULT_255_2_778
10
14.8382961
20
2.4399076
40
2.9781583
50
217.2133655
51
219.9112579
0
ARC
8
DEFAULT_255_2_778
10
16.0735755
20
3.3855934
40
4.5338617
50
216.5138778
51
217.2898885
0
ARC
8
DEFAULT_255_2_778
10
1.5826829
20
7.3556574
40
2.5613496
50
309.3384248
51
322.8140046
0
ARC
8
DEFAULT_255_2_778
10
2.0244146
20
6.8425628
40
1.8845721
50
293.8598652
51
308.8400729
0
ARC
8
DEFAULT_255_2_778
10
1.9897115
20
6.9355726
40
1.9836793
50
281.979617
51
293.6898791
0
ARC
8
DEFAULT_255_2_778
10
1.8993107
20
7.364951
40
2.4224706
50
272.6758363
51
281.9632637
0
ARC
8
DEFAULT_255_2_778
10
1.8691339
20
7.8296363
40
2.8880701
50
269.976571
51
272.8434746
0
LINE
8
DEFAULT_255_2_778
10
0.1423529
20
4.9370664
11
4.7889529
21
11.1269664
0
LINE
8
DEFAULT_255_2_778
10
4.7889529
20
11.1269664
11
0.5741529
21
16.8009664
0
LINE
8
DEFAULT_255_2_778
10
0.5741529
20
16.8009664
11
2.3135529
21
16.8009664
0
LINE
8
DEFAULT_255_2_778
10
4.1333529
20
15.8727664
11
6.2404529
21
12.9692664
0
LINE
8
DEFAULT_255_2_778
10
6.2404529
20
12.9692664
11
8.2317529
21
15.6145664
0
LINE
8
DEFAULT_255_2_778
10
10.4965529
20
16.8009664
11
11.9813529
21
16.8009664
0
LINE
8
DEFAULT_255_2_778
10
11.9813529
20
16.8009664
11
7.7089529
21
11.1290664
0
LINE
8
DEFAULT_255_2_778
10
7.7089529
20
11.1290664
11
15.9972529
21
-0.1323336
0
LINE
8
DEFAULT_255_2_778
10
15.9972529
20
-0.1323336
11
14.1636529
21
-0.1323336
0
LINE
8
DEFAULT_255_2_778
10
12.4296529
20
0.6878664
11
6.2161529
21
9.2603664
0
LINE
8
DEFAULT_255_2_778
10
6.2161529
20
9.2603664
11
3.6232529
21
5.8075664
0
LINE
8
DEFAULT_255_2_778
10
1.8679529
20
4.9415664
11
0.1423529
21
4.9370664
0
ENDSEC
0
EOF