0
SECTION
2
HEADER
9
$MEASUREMENT
70
1
0
ENDSEC
0
SECTION
2
TABLES
0
TABLE
2
LTYPE
0
LTYPE
72
65
70
64
2
CONTINUOUS
3
______
73
0
40
0
0
ENDTAB
0
TABLE
2
LAYER
0
LAYER
2
DEFAULT_255_2_778
70
0
62
255
6
CONTINUOUS
0
ENDTAB
0
ENDSEC
0
SECTION
2
ENTITIES
0
ARC
8
DEFAULT_255_2_778
10
20.8572485
20
114.8863835
40
20.7249804
50
173.886013
51
180.011755
0
ARC
8
DEFAULT_255_2_778
10
20.501686
20
114.9237827
40
20.3674571
50
166.8527399
51
173.8840907
0
ARC
8
DEFAULT_255_2_778
10
20.3358695
20
114.9613545
40
20.1974409
50
158.3761194
51
166.8495381
0
ARC
8
DEFAULT_255_2_778
10
20.3476891
20
114.9546487
40
20.2109
50
147.2481015
51
158.3707948
0
ARC
8
DEFAULT_255_2_778
10
20.4344182
20
114.8989904
40
20.3139522
50
117.5455429
51
147.2484141
0
ARC
8
DEFAULT_255_2_778
10
20.368849
20
115.0105666
40
20.1847022
50
108.1855724
51
117.5269853
0
ARC
8
DEFAULT_255_2_778
10
20.3846018
20
114.9577633
40
20.2397843
50
100.3371356
51
108.1812872
0
ARC
8
DEFAULT_255_2_778
10
20.4264294
20
114.7242745
40
20.4769889
50
93.8756307
51
100.3350412
0
ARC
8
DEFAULT_255_2_778
10
20.4504369
20
114.3942384
40
20.8078931
50
89.9949565
51
93.8801608
0
ARC
8
DEFAULT_255_2_778
10
115.2832206
20
114.4771515
40
20.7249804
50
83.886013
51
90.011755
0
ARC
8
DEFAULT_255_2_778
10
115.3206198
20
114.832714
40
20.3674571
50
76.8527399
51
83.8840907
0
ARC
8
DEFAULT_255_2_778
10
115.3581916
20
114.9985305
40
20.1974409
50
68.3761194
51
76.8495381
0
ARC
8
DEFAULT_255_2_778
10
115.3514858
20
114.9867109
40
20.2109
50
57.2481015
51
68.3707948
0
ARC
8
DEFAULT_255_2_778
10
115.2958275
20
114.8999818
40
20.3139522
50
27.5455429
51
57.2484141
0
ARC
8
DEFAULT_255_2_778
10
115.4074037
20
114.965551
40
20.1847022
50
18.1855724
51
27.5269853
0
ARC
8
DEFAULT_255_2_778
10
115.3546004
20
114.9497982
40
20.2397843
50
10.3371356
51
18.1812872
0
ARC
8
DEFAULT_255_2_778
10
115.1211116
20
114.9079706
40
20.4769889
50
3.8756307
51
10.3350412
0
ARC
8
DEFAULT_255_2_778
10
114.7910755
20
114.8839631
40
20.8078931
50
359.9949565
51
3.8801608
0
ARC
8
DEFAULT_255_2_778
10
114.8739886
20
20.0511794
40
20.7249804
50
353.886013
51
0.011755
0
ARC
8
DEFAULT_255_2_778
10
115.2295511
20
20.0137802
40
20.3674571
50
346.8527399
51
353.8840907
0
ARC
8
DEFAULT_255_2_778
10
115.3953676
20
19.9762084
40
20.1974409
50
338.3761194
51
346.8495381
0
ARC
8
DEFAULT_255_2_778
10
115.383548
20
19.9829142
40
20.2109
50
327.2481015
51
338.3707948
0
ARC
8
DEFAULT_255_2_778
10
115.2968189
20
20.0385725
40
20.3139522
50
297.5455429
51
327.2484141
0
ARC
8
DEFAULT_255_2_778
10
115.3623881
20
19.9269963
40
20.1847022
50
288.1855724
51
297.5269853
0
ARC
8
DEFAULT_255_2_778
10
115.3466353
20
19.9797996
40
20.2397843
50
280.3371356
51
288.1812872
0
ARC
8
DEFAULT_255_2_778
10
115.3048077
20
20.2132884
40
20.4769889
50
273.8756307
51
280.3350412
0
ARC
8
DEFAULT_255_2_778
10
115.2808002
20
20.5433245
40
20.8078931
50
269.9949565
51
273.8801608
0
ARC
8
DEFAULT_255_2_778
10
20.4480165
20
20.4604114
40
20.7249804
50
263.886013
51
270.011755
0
ARC
8
DEFAULT_255_2_778
10
20.4106173
20
20.1048489
40
20.3674571
50
256.8527399
51
263.8840907
0
ARC
8
DEFAULT_255_2_778
10
20.3730455
20
19.9390324
40
20.1974409
50
248.3761194
51
256.8495381
0
ARC
8
DEFAULT_255_2_778
10
20.3797513
20
19.950852
40
20.2109
50
237.2481015
51
248.3707948
0
ARC
8
DEFAULT_255_2_778
10
20.4354096
20
20.0375811
40
20.3139522
50
207.5455429
51
237.2484141
0
ARC
8
DEFAULT_255_2_778
10
20.3238334
20
19.9720119
40
20.1847022
50
198.1855724
51
207.5269853
0
ARC
8
DEFAULT_255_2_778
10
20.3766367
20
19.9877647
40
20.2397843
50
190.3371356
51
198.1812872
0
ARC
8
DEFAULT_255_2_778
10
20.6101255
20
20.0295923
40
20.4769889
50
183.8756307
51
190.3350412
0
ARC
8
DEFAULT_255_2_778
10
20.9401616
20
20.0535998
40
20.8078931
50
179.9949565
51
183.8801608
0
LINE
8
DEFAULT_255_2_778
10
20.4522686
20
135.2021314
11
115.2789686
21
135.2021314
0
LINE
8
DEFAULT_255_2_778
10
135.5989686
20
114.8821314
11
135.5989686
21
20.0554314
0
LINE
8
DEFAULT_255_2_778
10
115.2789686
20
-0.2645686
11
20.4522686
21
-0.2645686
0
LINE
8
DEFAULT_255_2_778
10
0.1322686
20
20.0554314
11
0.1322686
21
114.8821314
0
ARC
8
DEFAULT_255_2_778
10
87.0479502
20
66.493686
40
0.6667059
50
187.1747449
51
212.0801474
0
ARC
8
DEFAULT_255_2_778
10
87.4346413
20
66.7254943
40
1.1175021
50
211.6206954
51
224.2908879
0
ARC
8
DEFAULT_255_2_778
10
87.9480016
20
67.2182498
40
1.8290683
50
224.1103338
51
232.3392286
0
ARC
8
DEFAULT_255_2_778
10
88.5885121
20
68.0414142
40
2.8720652
50
232.2571601
51
238.2116434
0
ARC
8
DEFAULT_255_2_778
10
89.3557364
20
69.2715203
40
4.3218177
50
238.156739
51
242.5839197
0
ARC
8
DEFAULT_255_2_778
10
90.2196211
20
70.9276456
40
6.1897137
50
242.5441402
51
245.859401
0
ARC
8
DEFAULT_255_2_778
10
91.1947872
20
73.0992993
40
8.5702656
50
245.8478637
51
248.6416038
0
ARC
8
DEFAULT_255_2_778
10
92.2909476
20
75.8940624
40
11.5723085
50
248.6266406
51
250.8926563
0
ARC
8
DEFAULT_255_2_778
10
93.4640873
20
79.2720208
40
15.1481795
50
250.8821779
51
252.7518967
0
ARC
8
DEFAULT_255_2_778
10
94.6668834
20
83.1350351
40
19.1941145
50
252.7420944
51
254.2507305
0
ARC
8
DEFAULT_255_2_778
10
95.9496736
20
87.6844883
40
23.9209607
50
254.2512507
51
255.6874336
0
ARC
8
DEFAULT_255_2_778
10
97.3356791
20
93.1088172
40
29.5195634
50
255.6834947
51
256.9369171
0
ARC
8
DEFAULT_255_2_778
10
98.7382906
20
99.1447915
40
35.7163611
50
256.9336426
51
258.033066
0
ARC
8
DEFAULT_255_2_778
10
100.0815199
20
105.4674135
40
42.180091
50
258.0289097
51
258.9446297
0
ARC
8
DEFAULT_255_2_778
10
101.3072053
20
111.7283312
40
48.5598551
50
258.9418435
51
259.7183698
0
ARC
8
DEFAULT_255_2_778
10
102.4091829
20
117.7928455
40
54.7236758
50
259.7164361
51
260.3850109
0
ARC
8
DEFAULT_255_2_778
10
103.6223438
20
124.9810072
40
62.0134912
50
260.3891648
51
261.249132
0
ARC
8
DEFAULT_255_2_778
10
104.9531701
20
133.6212514
40
70.755626
50
261.2484664
51
262.0762002
0
ARC
8
DEFAULT_255_2_778
10
106.1621495
20
142.2951384
40
79.5133624
50
262.074983
51
262.8505303
0
ARC
8
DEFAULT_255_2_778
10
107.1284885
20
149.9688406
40
87.2476693
50
262.8480543
51
263.4836446
0
ARC
8
DEFAULT_255_2_778
10
107.9683431
20
157.344687
40
94.6711764
50
263.485238
51
264.2731703
0
ARC
8
DEFAULT_255_2_778
10
108.688732
20
164.5165654
40
101.8791441
50
264.2725277
51
265.0843158
0
ARC
8
DEFAULT_255_2_778
10
109.2050325
20
170.5368924
40
107.9215693
50
265.0851007
51
266.1847911
0
ARC
8
DEFAULT_255_2_778
10
109.3697898
20
172.9073311
40
110.2977176
50
266.1813283
51
267.4165399
0
ARC
8
DEFAULT_255_2_778
10
109.2723982
20
170.7564493
40
108.1446319
50
267.4167214
51
268.0293466
0
ARC
8
DEFAULT_255_2_778
10
109.1748146
20
167.9349938
40
105.3214894
50
268.02962
51
268.4998622
0
ARC
8
DEFAULT_255_2_778
10
109.0851413
20
164.4661545
40
101.8514914
50
268.4992044
51
269.0432736
0
ARC
8
DEFAULT_255_2_778
10
109.0164029
20
160.3830904
40
97.7678487
50
269.0435976
51
269.5124192
0
ARC
8
DEFAULT_255_2_778
10
108.9815273
20
156.2804523
40
93.6650624
50
269.5123957
51
269.967321
0
ARC
8
DEFAULT_255_2_778
10
108.9778208
20
154.836795
40
92.2214033
50
269.9691122
51
269.9997626
0
ARC
8
DEFAULT_255_2_778
10
108.978898
20
152.3162399
40
89.7008481
50
269.9990678
51
270.3179122
0
ARC
8
DEFAULT_255_2_778
10
108.9948246
20
149.416188
40
86.8007524
50
270.3180211
51
270.6043177
0
ARC
8
DEFAULT_255_2_778
10
109.0304586
20
146.1277846
40
83.512156
50
270.6036667
51
270.9909749
0
ARC
8
DEFAULT_255_2_778
10
109.0951941
20
142.3788031
40
79.7626156
50
270.9910557
51
271.3715549
0
ARC
8
DEFAULT_255_2_778
10
109.1806979
20
138.7954534
40
76.1782459
50
271.371774
51
271.7238483
0
ARC
8
DEFAULT_255_2_778
10
109.2701063
20
135.8039257
40
73.1853825
50
271.7243368
51
271.9966829
0
ARC
8
DEFAULT_255_2_778
10
109.3797672
20
132.6907432
40
70.0702693
50
271.9957623
51
272.3917398
0
ARC
8
DEFAULT_255_2_778
10
109.5331856
20
129.0205563
40
66.3968771
50
272.3916346
51
272.8008291
0
ARC
8
DEFAULT_255_2_778
10
109.6440015
20
126.7151735
40
64.0888334
50
272.8025877
51
272.8626913
0
ARC
8
DEFAULT_255_2_778
10
112.6110677
20
67.2248634
40
4.5245855
50
272.9606721
51
278.6169873
0
ARC
8
DEFAULT_255_2_778
10
112.6786887
20
66.7809641
40
4.0755654
50
278.6120811
51
285.2260218
0
ARC
8
DEFAULT_255_2_778
10
112.7702571
20
66.4449141
40
3.7272631
50
285.2245139
51
293.0797534
0
ARC
8
DEFAULT_255_2_778
10
112.8589037
20
66.2357655
40
3.5001042
50
293.0869132
51
302.7971726
0
ARC
8
DEFAULT_255_2_778
10
112.881953
20
66.1948926
40
3.4532626
50
302.8430389
51
316.5528897
0
ARC
8
DEFAULT_255_2_778
10
112.536039
20
66.4824135
40
3.9022322
50
316.9807055
51
342.3048121
0
ARC
8
DEFAULT_255_2_778
10
111.760215
20
66.7559944
40
4.7245707
50
342.0037788
51
357.9641862
0
ARC
8
DEFAULT_255_2_778
10
111.4981578
20
66.7778182
40
4.9872535
50
357.820573
51
0.0013824
0
ARC
8
DEFAULT_255_2_778
10
111.4686684
20
66.7778719
40
5.016743
50
0.0007612
51
1.8475634
0
ARC
8
DEFAULT_255_2_778
10
111.6654772
20
66.8088782
40
4.8191
50
1.55455
51
30.9836985
0
ARC
8
DEFAULT_255_2_778
10
112.3949545
20
67.2254708
40
3.979292
50
31.2483445
51
52.7281152
0
ARC
8
DEFAULT_255_2_778
10
112.5411139
20
67.3940442
40
3.7566593
50
52.945022
51
64.1457413
0
ARC
8
DEFAULT_255_2_778
10
112.4926612
20
67.2906907
40
3.8707974
50
64.1674686
51
72.8975196
0
ARC
8
DEFAULT_255_2_778
10
112.4153722
20
67.0386996
40
4.1343748
50
72.9007721
51
80.1053191
0
ARC
8
DEFAULT_255_2_778
10
112.3510793
20
66.6714406
40
4.507219
50
80.1024253
51
86.1889153
0
ARC
8
DEFAULT_255_2_778
10
112.3298119
20
66.4113859
40
4.7681136
50
86.1416267
51
86.9890617
0
ARC
8
DEFAULT_255_2_778
10
111.7589815
20
63.364914
40
7.8510776
50
83.995435
51
84.5623603
0
ARC
8
DEFAULT_255_2_778
10
111.6839471
20
62.5780526
40
8.6415084
50
84.5614855
51
85.0588948
0
ARC
8
DEFAULT_255_2_778
10
111.5992753
20
61.5928975
40
9.6302953
50
85.0618453
51
85.7106461
0
ARC
8
DEFAULT_255_2_778
10
111.5112461
20
60.4238908
40
10.8026118
50
85.7087969
51
86.25178
0
ARC
8
DEFAULT_255_2_778
10
111.4271233
20
59.1370101
40
12.092239
50
86.2526487
51
86.821205
0
ARC
8
DEFAULT_255_2_778
10
111.3493211
20
57.7399616
40
13.4914523
50
86.8202987
51
87.3165314
0
ARC
8
DEFAULT_255_2_778
10
111.2852854
20
56.3817732
40
14.8511494
50
87.3150748
51
87.7211967
0
ARC
8
DEFAULT_255_2_778
10
111.234828
20
55.1202361
40
16.1136952
50
87.7202864
51
88.0559331
0
ARC
8
DEFAULT_255_2_778
10
111.1873073
20
53.7093211
40
17.5254102
50
88.0571437
51
88.472649
0
ARC
8
DEFAULT_255_2_778
10
111.1401284
20
51.9388895
40
19.2964704
50
88.4727298
51
88.8935366
0
ARC
8
DEFAULT_255_2_778
10
111.1067396
20
50.239963
40
20.9957248
50
88.8919651
51
89.1894357
0
ARC
8
DEFAULT_255_2_778
10
111.0824909
20
48.4957112
40
22.7401449
50
89.1905161
51
89.5597539
0
ARC
8
DEFAULT_255_2_778
10
111.0666861
20
46.4538789
40
24.7820383
50
89.5594867
51
89.8947041
0
ARC
8
DEFAULT_255_2_778
10
111.0633114
20
45.1122057
40
26.1237154
50
89.8927106
51
90.0004471
0
ARC
8
DEFAULT_255_2_778
10
111.0657985
20
42.9456443
40
28.2902771
50
90.0054499
51
90.5083596
0
ARC
8
DEFAULT_255_2_778
10
111.0977183
20
39.2963305
40
31.9397303
50
90.5075349
51
90.9549434
0
ARC
8
DEFAULT_255_2_778
10
111.1782444
20
34.6031315
40
36.6336196
50
90.9585367
51
91.5488303
0
ARC
8
DEFAULT_255_2_778
10
111.3328885
20
28.8392499
40
42.3995754
50
91.5472035
51
92.0547823
0
ARC
8
DEFAULT_255_2_778
10
111.5584388
20
22.5609041
40
48.6819714
50
92.0551296
51
92.5671253
0
ARC
8
DEFAULT_255_2_778
10
111.8755377
20
15.4804595
40
55.7695131
50
92.5667646
51
93.0535784
0
ARC
8
DEFAULT_255_2_778
10
112.2663672
20
8.1337552
40
63.1266055
50
93.0525957
51
93.4851801
0
ARC
8
DEFAULT_255_2_778
10
112.7018932
20
0.9635335
40
70.310042
50
93.4842349
51
93.860061
0
ARC
8
DEFAULT_255_2_778
10
113.1524396
20
-5.7269967
40
77.015725
50
93.8594057
51
94.1898951
0
ARC
8
DEFAULT_255_2_778
10
113.6110099
20
-11.9971887
40
83.3026635
50
94.1893655
51
94.4825576
0
ARC
8
DEFAULT_255_2_778
10
114.1691194
20
-19.0902787
40
90.4176762
50
94.4838487
51
94.8731653
0
ARC
8
DEFAULT_255_2_778
10
114.8660928
20
-27.2670912
40
98.624139
50
94.8730675
51
95.2605328
0
ARC
8
DEFAULT_255_2_778
10
115.587469
20
-35.1086079
40
106.4987671
50
95.2602051
51
95.6342658
0
ARC
8
DEFAULT_255_2_778
10
116.2469528
20
-41.808691
40
113.231228
50
95.633505
51
95.9474387
0
ARC
8
DEFAULT_255_2_778
10
116.8938819
20
-48.007604
40
119.4638068
50
95.9479854
51
96.3455839
0
ARC
8
DEFAULT_255_2_778
10
117.5392672
20
-53.8150702
40
125.3070238
50
96.345383
51
96.7631682
0
ARC
8
DEFAULT_255_2_778
10
118.0753951
20
-58.3346489
40
129.85829
50
96.7632327
51
97.3004522
0
ARC
8
DEFAULT_255_2_778
10
118.2799863
20
-59.9514802
40
131.4880124
50
97.2993533
51
97.9891807
0
ARC
8
DEFAULT_255_2_778
10
117.6064816
20
-55.2169997
40
126.7058757
50
97.9851376
51
98.8862255
0
ARC
8
DEFAULT_255_2_778
10
116.0394533
20
-45.1698131
40
116.5372219
50
98.888093
51
99.5234926
0
ARC
8
DEFAULT_255_2_778
10
114.5914455
20
-36.5089402
40
107.756139
50
99.5261021
51
99.9353606
0
ARC
8
DEFAULT_255_2_778
10
113.3307558
20
-29.3120297
40
100.4496447
50
99.9353324
51
100.341169
0
ARC
8
DEFAULT_255_2_778
10
112.0206307
20
-22.1325679
40
93.1516246
50
100.3411291
51
100.7449115
0
ARC
8
DEFAULT_255_2_778
10
110.6941303
20
-15.1421695
40
86.0364807
50
100.7449278
51
101.1476644
0
ARC
8
DEFAULT_255_2_778
10
109.3734943
20
-8.4400911
40
79.2055265
50
101.1477003
51
101.5502044
0
ARC
8
DEFAULT_255_2_778
10
108.0906192
20
-2.1624583
40
72.7981525
50
101.5502453
51
101.9527722
0
ARC
8
DEFAULT_255_2_778
10
106.5419182
20
5.1330769
40
65.3400503
50
101.949108
51
102.5636559
0
ARC
8
DEFAULT_255_2_778
10
104.7828679
20
13.0276779
40
57.2518499
50
102.5639928
51
103.1792613
0
ARC
8
DEFAULT_255_2_778
10
103.1696044
20
19.9183967
40
50.174801
50
103.1796047
51
103.7950491
0
ARC
8
DEFAULT_255_2_778
10
101.5991561
20
26.3080586
40
43.5949768
50
103.7930295
51
104.5152688
0
ARC
8
DEFAULT_255_2_778
10
100.0017335
20
32.4740691
40
37.2254052
50
104.5137332
51
105.3267247
0
ARC
8
DEFAULT_255_2_778
10
98.522524
20
37.8731564
40
31.6273516
50
105.3276345
51
106.1437006
0
ARC
8
DEFAULT_255_2_778
10
97.2543133
20
42.2566639
40
27.0640747
50
106.1450153
51
106.9447936
0
ARC
8
DEFAULT_255_2_778
10
96.1799868
20
45.7845292
40
23.3762555
50
106.9460464
51
107.7241426
0
ARC
8
DEFAULT_255_2_778
10
95.0662356
20
49.2587573
40
19.7278734
50
107.7148187
51
108.8687945
0
ARC
8
DEFAULT_255_2_778
10
93.8941749
20
52.6870062
40
16.1048061
50
108.8674667
51
110.1324851
0
ARC
8
DEFAULT_255_2_778
10
92.8771641
20
55.4621132
40
13.1492131
50
110.1337886
51
111.438815
0
ARC
8
DEFAULT_255_2_778
10
91.9229927
20
57.8862534
40
10.5440465
50
111.4273523
51
113.1444293
0
ARC
8
DEFAULT_255_2_778
10
91.0643092
20
59.8972492
40
8.357396
50
113.1502455
51
114.8361749
0
ARC
8
DEFAULT_255_2_778
10
90.3451944
20
61.4492599
40
6.6468806
50
114.8299502
51
116.8102084
0
ARC
8
DEFAULT_255_2_778
10
89.817287
20
62.4990575
40
5.4718255
50
116.8346778
51
118.1606991
0
ARC
8
DEFAULT_255_2_778
10
89.4654034
20
63.1564502
40
4.7261801
50
118.1609875
51
119.5379612
0
ARC
8
DEFAULT_255_2_778
10
89.1534146
20
63.7071138
40
4.0932761
50
119.5384908
51
120.9655002
0
ARC
8
DEFAULT_255_2_778
10
88.845114
20
64.2198076
40
3.4950255
50
120.9561781
51
122.8229344
0
ARC
8
DEFAULT_255_2_778
10
88.5268558
20
64.712476
40
2.9085015
50
122.8150563
51
125.063445
0
ARC
8
DEFAULT_255_2_778
10
88.2335024
20
65.1303636
40
2.3979272
50
125.0623654
51
127.5033611
0
ARC
8
DEFAULT_255_2_778
10
87.9656301
20
65.4787859
40
1.958435
50
127.4920825
51
130.4612509
0
ARC
8
DEFAULT_255_2_778
10
87.7162656
20
65.770718
40
1.574499
50
130.4509461
51
133.964989
0
ARC
8
DEFAULT_255_2_778
10
87.4956053
20
65.9992637
40
1.2568136
50
133.9575705
51
137.9989519
0
ARC
8
DEFAULT_255_2_778
10
87.3013969
20
66.1736873
40
0.9957764
50
137.9797634
51
142.9642838
0
ARC
8
DEFAULT_255_2_778
10
87.1300058
20
66.302612
40
0.7813088
50
142.941136
51
149.1523129
0
ARC
8
DEFAULT_255_2_778
10
86.9825555
20
66.3901799
40
0.6098168
50
149.1122628
51
157.3413785
0
ARC
8
DEFAULT_255_2_778
10
86.8610413
20
66.4403253
40
0.4783637
50
157.2770531
51
169.257661
0
ARC
8
DEFAULT_255_2_778
10
86.7949855
20
66.4538271
40
0.41095
50
169.3905098
51
179.9376285
0
ARC
8
DEFAULT_255_2_778
10
86.7808851
20
66.4542578
40
0.3968493
50
179.9975929
51
186.3425063
0
ARC
8
DEFAULT_255_2_778
10
80.3012021
20
78.6497826
40
0.6254044
50
212.1785961
51
228.1012969
0
ARC
8
DEFAULT_255_2_778
10
80.3919934
20
78.7491816
40
0.7600224
50
228.0109671
51
237.1087634
0
ARC
8
DEFAULT_255_2_778
10
80.487753
20
78.896023
40
0.9353277
50
237.067845
51
243.7174606
0
ARC
8
DEFAULT_255_2_778
10
80.5856004
20
79.0934784
40
1.1556973
50
243.702628
51
249.1990436
0
ARC
8
DEFAULT_255_2_778
10
80.6824268
20
79.3470392
40
1.4271162
50
249.180169
51
253.6327145
0
ARC
8
DEFAULT_255_2_778
10
80.7741776
20
79.6584132
40
1.7517266
50
253.6232495
51
257.4342073
0
ARC
8
DEFAULT_255_2_778
10
80.8554341
20
80.0200073
40
2.1223378
50
257.4168886
51
260.4321956
0
ARC
8
DEFAULT_255_2_778
10
80.9269257
20
80.4444381
40
2.5527475
50
260.4333072
51
263.2861374
0
ARC
8
DEFAULT_255_2_778
10
80.986528
20
80.9465788
40
3.0584129
50
263.276999
51
265.6619305
0
ARC
8
DEFAULT_255_2_778
10
81.0300869
20
81.5191793
40
3.6326678
50
265.6600084
51
267.8432021
0
ARC
8
DEFAULT_255_2_778
10
81.0552536
20
82.1795295
40
4.2934973
50
267.8392376
51
269.7673363
0
ARC
8
DEFAULT_255_2_778
10
81.0590558
20
82.6036611
40
4.7176412
50
269.7420772
51
269.9999077
0
ARC
8
DEFAULT_255_2_778
10
81.0506914
20
83.4496927
40
5.5636789
50
270.0860591
51
273.3362035
0
ARC
8
DEFAULT_255_2_778
10
80.943788
20
85.3225661
40
7.4395998
50
273.3187261
51
275.9375864
0
ARC
8
DEFAULT_255_2_778
10
80.7189468
20
87.5076188
40
9.6361891
50
275.9233292
51
278.0236611
0
ARC
8
DEFAULT_255_2_778
10
80.3568989
20
90.0808865
40
12.2348011
50
278.0204844
51
279.8984404
0
ARC
8
DEFAULT_255_2_778
10
79.8154438
20
93.1891855
40
15.3899073
50
279.8949831
51
281.5634617
0
ARC
8
DEFAULT_255_2_778
10
79.099628
20
96.6996393
40
18.9725981
50
281.55623
51
282.9281915
0
ARC
8
DEFAULT_255_2_778
10
78.2479536
20
100.4185642
40
22.7877979
50
282.9232925
51
284.0718545
0
ARC
8
DEFAULT_255_2_778
10
77.1982935
20
104.6042386
40
27.1030796
50
284.0728326
51
285.2020948
0
ARC
8
DEFAULT_255_2_778
10
75.8533931
20
109.5542768
40
32.2325665
50
285.2017695
51
286.2717241
0
ARC
8
DEFAULT_255_2_778
10
74.2969689
20
114.8947207
40
37.7951913
50
286.2682746
51
287.1711167
0
ARC
8
DEFAULT_255_2_778
10
72.6609327
20
120.1959133
40
43.3430968
50
287.1685541
51
287.935961
0
ARC
8
DEFAULT_255_2_778
10
70.991682
20
125.3579083
40
48.7682779
50
287.9341648
51
288.5952804
0
ARC
8
DEFAULT_255_2_778
10
69.3234464
20
130.3201189
40
54.0034039
50
288.5939956
51
289.1700251
0
ARC
8
DEFAULT_255_2_778
10
67.290829
20
136.156311
40
60.183425
50
289.1733192
51
289.9226871
0
ARC
8
DEFAULT_255_2_778
10
64.7412469
20
143.1919821
40
67.6668091
50
289.9223315
51
290.6505808
0
ARC
8
DEFAULT_255_2_778
10
62.0444292
20
150.3505302
40
75.3164911
50
290.6497846
51
291.3360744
0
ARC
8
DEFAULT_255_2_778
10
59.5121727
20
156.8409018
40
82.2833584
50
291.334166
51
291.8977012
0
ARC
8
DEFAULT_255_2_778
10
56.8947306
20
163.3458446
40
89.2951539
50
291.8993533
51
292.5969149
0
ARC
8
DEFAULT_255_2_778
10
54.0541951
20
170.1718384
40
96.6885857
50
292.596685
51
293.3108127
0
ARC
8
DEFAULT_255_2_778
10
51.3973084
20
176.3386014
40
103.4033465
50
293.3106495
51
294.0770612
0
ARC
8
DEFAULT_255_2_778
10
49.1265628
20
181.4203534
40
108.9693584
50
294.0770656
51
295.0015879
0
ARC
8
DEFAULT_255_2_778
10
48.1584606
20
183.5089911
40
111.2714448
50
294.9988271
51
295.3031212
0
ARC
8
DEFAULT_255_2_778
10
48.4405918
20
182.9350625
40
110.631995
50
295.2980654
51
297.2471831
0
ARC
8
DEFAULT_255_2_778
10
51.5125661
20
176.9354524
40
103.8916622
50
297.2558392
51
297.9169245
0
ARC
8
DEFAULT_255_2_778
10
53.7903022
20
172.6336747
40
99.0240785
50
297.9177247
51
298.4329417
0
ARC
8
DEFAULT_255_2_778
10
55.8171659
20
168.8878325
40
94.7650282
50
298.4336274
51
298.8336679
0
ARC
8
DEFAULT_255_2_778
10
58.0674326
20
164.8047692
40
90.1029363
50
298.8322985
51
299.378414
0
ARC
8
DEFAULT_255_2_778
10
60.8166012
20
159.9221253
40
84.4995321
50
299.3781993
51
299.9316242
0
ARC
8
DEFAULT_255_2_778
10
62.7303016
20
156.5905585
40
80.657453
50
299.9343841
51
300.1255814
0
ARC
8
DEFAULT_255_2_778
10
63.9310843
20
154.522256
40
78.2658521
50
300.1252043
51
300.4018864
0
ARC
8
DEFAULT_255_2_778
10
65.314467
20
152.1642568
40
75.5320073
50
300.4019856
51
300.6714464
0
ARC
8
DEFAULT_255_2_778
10
66.6562833
20
149.9014103
40
72.9012385
50
300.6716078
51
300.918819
0
ARC
8
DEFAULT_255_2_778
10
67.7483043
20
148.0775941
40
70.775488
50
300.9190442
51
301.108653
0
ARC
8
DEFAULT_255_2_778
10
68.8934413
20
146.1809036
40
68.5599128
50
301.1082312
51
301.3813576
0
ARC
8
DEFAULT_255_2_778
10
70.2665777
20
143.9298067
40
65.9230698
50
301.3813085
51
301.6603425
0
ARC
8
DEFAULT_255_2_778
10
70.6908395
20
143.2390755
40
65.1124492
50
301.6616025
51
301.7017364
0
ARC
8
DEFAULT_255_2_778
10
102.5160889
20
91.6721733
40
4.5155416
50
301.974618
51
306.3088029
0
ARC
8
DEFAULT_255_2_778
10
102.7227077
20
91.3914111
40
4.1669462
50
306.3053452
51
311.286029
0
ARC
8
DEFAULT_255_2_778
10
102.9129926
20
91.1745887
40
3.878467
50
311.287189
51
316.7200638
0
ARC
8
DEFAULT_255_2_778
10
103.0757848
20
91.0213374
40
3.6548886
50
316.7195088
51
323.0760056
0
ARC
8
DEFAULT_255_2_778
10
103.1973482
20
90.9297462
40
3.5026827
50
323.0791335
51
330.8757884
0
ARC
8
DEFAULT_255_2_778
10
103.2349468
20
90.907446
40
3.4589843
50
330.8953559
51
341.0037608
0
ARC
8
DEFAULT_255_2_778
10
103.0088019
20
90.9726125
40
3.6940449
50
341.1897919
51
0.2322764
0
ARC
8
DEFAULT_255_2_778
10
102.6359231
20
90.9867849
40
4.0668933
50
0.0113148
51
3.6926392
0
ARC
8
DEFAULT_255_2_778
10
102.2092599
20
90.9429692
40
4.4955221
50
3.8996955
51
19.8796313
0
ARC
8
DEFAULT_255_2_778
10
101.6879449
20
90.7609882
40
5.047657
50
19.8100026
51
38.521779
0
ARC
8
DEFAULT_255_2_778
10
101.95604
20
91.0303341
40
4.6703601
50
37.9849783
51
69.6088362
0
ARC
8
DEFAULT_255_2_778
10
102.2048701
20
91.585895
40
4.0631074
50
70.1681757
51
84.1668805
0
ARC
8
DEFAULT_255_2_778
10
102.2118145
20
91.6255459
40
4.022957
50
84.207879
51
90.0052174
0
ARC
8
DEFAULT_255_2_778
10
102.2119234
20
91.5667867
40
4.0817164
50
90.0066703
51
94.5568332
0
ARC
8
DEFAULT_255_2_778
10
102.2196448
20
91.4706859
40
4.1781269
50
94.5576826
51
98.6084931
0
ARC
8
DEFAULT_255_2_778
10
102.2388618
20
91.3439525
40
4.3063089
50
98.6089039
51
102.3065679
0
ARC
8
DEFAULT_255_2_778
10
102.2720651
20
91.1916448
40
4.4621937
50
102.3062742
51
105.6637346
0
ARC
8
DEFAULT_255_2_778
10
102.3213455
20
91.0159964
40
4.6446241
50
105.6640644
51
108.8322223
0
ARC
8
DEFAULT_255_2_778
10
102.3882163
20
90.8198043
40
4.8518994
50
108.8317579
51
111.7478054
0
ARC
8
DEFAULT_255_2_778
10
102.4647409
20
90.6270472
40
5.0592906
50
111.743922
51
113.9699695
0
ARC
8
DEFAULT_255_2_778
10
104.6030258
20
86.3485771
40
9.8398389
50
115.2261393
51
116.3803369
0
ARC
8
DEFAULT_255_2_778
10
105.7975516
20
83.9373894
40
12.530697
50
116.3747377
51
117.3206962
0
ARC
8
DEFAULT_255_2_778
10
107.1672463
20
81.2838476
40
15.5168895
50
117.3170403
51
118.1072415
0
ARC
8
DEFAULT_255_2_778
10
108.6978913
20
78.4162215
40
18.7674516
50
118.1045741
51
118.7753868
0
ARC
8
DEFAULT_255_2_778
10
110.3784057
20
75.3547946
40
22.259795
50
118.773566
51
119.3506349
0
ARC
8
DEFAULT_255_2_778
10
112.1864827
20
72.1383087
40
25.9496356
50
119.3493447
51
119.8517348
0
ARC
8
DEFAULT_255_2_778
10
114.5975268
20
67.9425232
40
30.7888238
50
119.8566759
51
120.5046621
0
ARC
8
DEFAULT_255_2_778
10
117.7027579
20
62.6689232
40
36.9087351
50
120.5023419
51
121.0465124
0
ARC
8
DEFAULT_255_2_778
10
121.2252607
20
56.817858
40
43.7383025
50
121.0469167
51
121.5843183
0
ARC
8
DEFAULT_255_2_778
10
125.2886576
20
50.2072183
40
51.4979257
50
121.5833686
51
122.0689075
0
ARC
8
DEFAULT_255_2_778
10
129.6694415
20
43.2136271
40
59.7502941
50
122.0680943
51
122.5075532
0
ARC
8
DEFAULT_255_2_778
10
134.1511657
20
36.1782207
40
68.0919241
50
122.506398
51
122.8824441
0
ARC
8
DEFAULT_255_2_778
10
138.4695634
20
29.4963891
40
76.0477668
50
122.8815777
51
123.2080346
0
ARC
8
DEFAULT_255_2_778
10
142.6225278
20
23.1503272
40
83.6319354
50
123.2074308
51
123.4938805
0
ARC
8
DEFAULT_255_2_778
10
147.4272202
20
15.893911
40
92.3348451
50
123.4953759
51
123.8715477
0
ARC
8
DEFAULT_255_2_778
10
153.1401354
20
7.3825599
40
102.585723
50
123.871389
51
124.2413339
0
ARC
8
DEFAULT_255_2_778
10
158.8113544
20
-0.9507116
40
112.66571
50
124.2409727
51
124.5942579
0
ARC
8
DEFAULT_255_2_778
10
163.7855311
20
-8.1660474
40
121.4294709
50
124.5933712
51
124.8873778
0
ARC
8
DEFAULT_255_2_778
10
168.5876163
20
-15.0504245
40
129.8231987
50
124.8880046
51
125.2573288
0
ARC
8
DEFAULT_255_2_778
10
173.3162425
20
-21.7401625
40
138.0154205
50
125.2571605
51
125.6421382
0
ARC
8
DEFAULT_255_2_778
10
177.1296345
20
-27.0594058
40
144.5603659
50
125.6419023
51
126.0635864
0
ARC
8
DEFAULT_255_2_778
10
179.4910215
20
-30.3037561
40
148.5730901
50
126.0631883
51
126.5844942
0
ARC
8
DEFAULT_255_2_778
10
179.7399909
20
-30.6412794
40
148.9925018
50
126.5840138
51
126.7586528
0
ARC
8
DEFAULT_255_2_778
10
178.2684098
20
-28.6781035
40
146.5390158
50
126.7570408
51
127.3721898
0
ARC
8
DEFAULT_255_2_778
10
174.7465901
20
-24.0615158
40
140.7324605
50
127.3735741
51
127.6934407
0
ARC
8
DEFAULT_255_2_778
10
171.3611658
20
-19.6809244
40
135.1961551
50
127.6932665
51
128.0143617
0
ARC
8
DEFAULT_255_2_778
10
170.5121958
20
-18.590744
40
133.8144037
50
128.0154454
51
128.0258761
0
ARC
8
DEFAULT_255_2_778
10
166.2471297
20
-13.1468288
40
126.8986997
50
128.0230831
51
128.5026675
0
ARC
8
DEFAULT_255_2_778
10
159.6187912
20
-4.8157211
40
116.2524691
50
128.5023424
51
128.9856398
0
ARC
8
DEFAULT_255_2_778
10
152.6954084
20
3.7376605
40
105.2482167
50
128.9854114
51
129.4762567
0
ARC
8
DEFAULT_255_2_778
10
145.7797909
20
12.1335897
40
94.3708369
50
129.4760744
51
129.9776999
0
ARC
8
DEFAULT_255_2_778
10
139.1083761
20
20.0901823
40
83.9874298
50
129.9775345
51
130.492524
0
ARC
8
DEFAULT_255_2_778
10
132.8185928
20
27.4561868
40
74.3013885
50
130.492358
51
131.0229198
0
ARC
8
DEFAULT_255_2_778
10
127.0027666
20
34.1409736
40
65.4407899
50
131.0228317
51
131.5707178
0
ARC
8
DEFAULT_255_2_778
10
121.6749998
20
40.147884
40
57.4115888
50
131.5706659
51
132.1376483
0
ARC
8
DEFAULT_255_2_778
10
116.8576988
20
45.4722201
40
50.2314114
50
132.1376182
51
132.7250675
0
ARC
8
DEFAULT_255_2_778
10
112.538416
20
50.1488812
40
43.8653009
50
132.7250729
51
133.3341259
0
ARC
8
DEFAULT_255_2_778
10
108.6824385
20
54.2358252
40
38.2464334
50
133.3340847
51
133.9658642
0
ARC
8
DEFAULT_255_2_778
10
105.267503
20
57.7763371
40
33.3273877
50
133.9658926
51
134.6210896
0
ARC
8
DEFAULT_255_2_778
10
102.2502857
20
60.8337731
40
29.0318652
50
134.6211524
51
135.3004029
0
ARC
8
DEFAULT_255_2_778
10
99.5887817
20
63.4675885
40
25.2874577
50
135.3005233
51
136.0044354
0
ARC
8
DEFAULT_255_2_778
10
96.7046472
20
66.2468618
40
21.2821394
50
135.9938382
51
137.1149408
0
ARC
8
DEFAULT_255_2_778
10
93.7800219
20
68.9633476
40
17.2905572
50
137.1153708
51
138.2946768
0
ARC
8
DEFAULT_255_2_778
10
91.2129381
20
71.2486477
40
13.8536237
50
138.2875258
51
139.7479867
0
ARC
8
DEFAULT_255_2_778
10
88.8953229
20
73.2093743
40
10.8178724
50
139.7422494
51
141.4585552
0
ARC
8
DEFAULT_255_2_778
10
86.9808709
20
74.7343932
40
8.3702593
50
141.4581949
51
143.3241794
0
ARC
8
DEFAULT_255_2_778
10
85.3409277
20
75.9530457
40
6.3270946
50
143.3049527
51
145.7735525
0
ARC
8
DEFAULT_255_2_778
10
83.9175741
20
76.9199439
40
4.6063895
50
145.7594358
51
148.7717835
0
ARC
8
DEFAULT_255_2_778
10
82.7629834
20
77.6183186
40
3.2570178
50
148.7469982
51
152.5756356
0
ARC
8
DEFAULT_255_2_778
10
81.8424191
20
78.0942774
40
2.2206916
50
152.5364014
51
157.5511098
0
ARC
8
DEFAULT_255_2_778
10
81.1273621
20
78.3876479
40
1.4477962
50
157.4754437
51
164.4718279
0
ARC
8
DEFAULT_255_2_778
10
80.599847
20
78.5322033
40
0.900839
50
164.3482294
51
174.5430728
0
ARC
8
DEFAULT_255_2_778
10
80.3446111
20
78.5606284
40
0.6440695
50
174.901047
51
179.9229853
0
ARC
8
DEFAULT_255_2_778
10
80.249218
20
78.5609913
40
0.548676
50
179.9474959
51
184.5250092
0
ARC
8
DEFAULT_255_2_778
10
80.1791939
20
78.5553723
40
0.478427
50
184.5157857
51
190.036632
0
ARC
8
DEFAULT_255_2_778
10
80.1210765
20
78.5449823
40
0.4193882
50
190.0226352
51
197.072441
0
ARC
8
DEFAULT_255_2_778
10
80.0766988
20
78.5311676
40
0.3729104
50
197.045177
51
207.8261289
0
ARC
8
DEFAULT_255_2_778
10
80.0616724
20
78.52373
40
0.35615
50
207.8963658
51
215.5386384
0
ARC
8
DEFAULT_255_2_778
10
80.4251339
20
55.3410831
40
0.4473218
50
150.3288059
51
161.5078054
0
ARC
8
DEFAULT_255_2_778
10
80.4749789
20
55.3241295
40
0.4999706
50
161.4770182
51
168.4516737
0
ARC
8
DEFAULT_255_2_778
10
80.5391762
20
55.3108668
40
0.5655234
50
168.4372645
51
173.8290847
0
ARC
8
DEFAULT_255_2_778
10
80.6166468
20
55.3024145
40
0.6434538
50
173.8223479
51
178.3789031
0
ARC
8
DEFAULT_255_2_778
10
80.680022
20
55.300101
40
0.7068692
50
178.3367741
51
180.0076204
0
ARC
8
DEFAULT_255_2_778
10
80.9067368
20
55.3086965
40
0.9336245
50
180.5332808
51
192.6020103
0
ARC
8
DEFAULT_255_2_778
10
81.4911074
20
55.4344829
40
1.5313681
50
192.4246476
51
200.2650923
0
ARC
8
DEFAULT_255_2_778
10
82.2934857
20
55.7267804
40
2.3853235
50
200.175958
51
205.7289827
0
ARC
8
DEFAULT_255_2_778
10
83.3230687
20
56.2191751
40
3.5265886
50
205.6740733
51
209.7486059
0
ARC
8
DEFAULT_255_2_778
10
84.569797
20
56.9283721
40
4.9609128
50
209.7152473
51
212.8073776
0
ARC
8
DEFAULT_255_2_778
10
86.095013
20
57.9102777
40
6.7748646
50
212.7980871
51
215.4312601
0
ARC
8
DEFAULT_255_2_778
10
87.9986206
20
59.2629717
40
9.1101379
50
215.422583
51
217.6596892
0
ARC
8
DEFAULT_255_2_778
10
90.2113066
20
60.9670308
40
11.9029484
50
217.6459187
51
219.4150023
0
ARC
8
DEFAULT_255_2_778
10
92.6118592
20
62.9369028
40
15.0082737
50
219.4061042
51
220.839533
0
ARC
8
DEFAULT_255_2_778
10
95.3778102
20
65.3280385
40
18.6645032
50
220.8402262
51
222.2077819
0
ARC
8
DEFAULT_255_2_778
10
98.7081978
20
68.3478231
40
23.1601212
50
222.2062227
51
223.4553376
0
ARC
8
DEFAULT_255_2_778
10
102.3834486
20
71.8266176
40
28.2207015
50
223.4502566
51
224.4857922
0
ARC
8
DEFAULT_255_2_778
10
106.1267902
20
75.5002228
40
33.4655063
50
224.4819544
51
225.3422411
0
ARC
8
DEFAULT_255_2_778
10
109.8453806
20
79.2609936
40
38.754297
50
225.3396317
51
226.0662786
0
ARC
8
DEFAULT_255_2_778
10
113.490674
20
83.042501
40
44.0067213
50
226.0644236
51
226.686685
0
ARC
8
DEFAULT_255_2_778
10
117.8812004
20
87.7049843
40
50.4110526
50
226.6910033
51
227.4851953
0
ARC
8
DEFAULT_255_2_778
10
123.3132727
20
93.6292949
40
58.4487678
50
227.4847436
51
228.2401718
0
ARC
8
DEFAULT_255_2_778
10
129.019235
20
100.018288
40
67.0148193
50
228.2391523
51
228.9363892
0
ARC
8
DEFAULT_255_2_778
10
134.3797807
20
106.1660874
40
75.1714655
50
228.933889
51
229.4958483
0
ARC
8
DEFAULT_255_2_778
10
138.9688757
20
111.5350095
40
82.234405
50
229.4942964
51
229.9554181
0
ARC
8
DEFAULT_255_2_778
10
144.1463602
20
117.7029392
40
90.287335
50
229.9584334
51
230.6189412
0
ARC
8
DEFAULT_255_2_778
10
149.6465406
20
124.3983878
40
98.9522648
50
230.6170691
51
231.1696199
0
ARC
8
DEFAULT_255_2_778
10
154.5311454
20
130.4674131
40
106.7427998
50
231.1697526
51
231.7589977
0
ARC
8
DEFAULT_255_2_778
10
159.3429488
20
136.5753405
40
114.5184173
50
231.7596827
51
232.4610589
0
ARC
8
DEFAULT_255_2_778
10
162.1483867
20
140.2148877
40
119.1137126
50
232.4577089
51
232.6853551
0
ARC
8
DEFAULT_255_2_778
10
163.4997043
20
141.9889298
40
121.3437987
50
232.6856769
51
233.0246556
0
ARC
8
DEFAULT_255_2_778
10
164.9526705
20
143.9200377
40
123.7604675
50
233.0249979
51
233.5377975
0
ARC
8
DEFAULT_255_2_778
10
165.8055941
20
145.072783
40
125.1944479
50
233.5373877
51
234.2207872
0
ARC
8
DEFAULT_255_2_778
10
164.8404229
20
143.7264427
40
123.5378941
50
234.2188692
51
235.0858072
0
ARC
8
DEFAULT_255_2_778
10
162.8063332
20
140.8202969
40
119.9906161
50
235.0880249
51
235.3844872
0
ARC
8
DEFAULT_255_2_778
10
161.0034561
20
138.2056168
40
116.8146257
50
235.3837142
51
235.8225029
0
ARC
8
DEFAULT_255_2_778
10
158.6228783
20
134.7000928
40
112.5771914
50
235.8226032
51
236.2182261
0
ARC
8
DEFAULT_255_2_778
10
156.2312302
20
131.1255425
40
108.2763321
50
236.2183763
51
236.575497
0
ARC
8
DEFAULT_255_2_778
10
153.9671039
20
127.6955811
40
104.1664777
50
236.5756707
51
236.8978382
0
ARC
8
DEFAULT_255_2_778
10
151.322047
20
123.6353914
40
99.32071
50
236.8968883
51
237.3358244
0
ARC
8
DEFAULT_255_2_778
10
148.2592886
20
118.8580078
40
93.6458634
50
237.3357982
51
237.7713403
0
ARC
8
DEFAULT_255_2_778
10
145.3347325
20
114.2196373
40
88.1624787
50
237.7715476
51
238.1789614
0
ARC
8
DEFAULT_255_2_778
10
142.8967778
20
110.2930959
40
83.5406447
50
238.1797769
51
238.4981943
0
ARC
8
DEFAULT_255_2_778
10
140.4326293
20
106.2693563
40
78.8223287
50
238.4970932
51
238.933986
0
ARC
8
DEFAULT_255_2_778
10
137.7014036
20
101.7354659
40
73.5293377
50
238.9339025
51
239.3780244
0
ARC
8
DEFAULT_255_2_778
10
135.8889698
20
98.6788663
40
69.9757888
50
239.3802672
51
239.5340069
0
ARC
8
DEFAULT_255_2_778
10
102.6029558
20
42.5056237
40
4.6861259
50
242.0887513
51
245.1761325
0
ARC
8
DEFAULT_255_2_778
10
102.4997996
20
42.2824819
40
4.4402937
50
245.175399
51
248.5284423
0
ARC
8
DEFAULT_255_2_778
10
102.4207712
20
42.0815438
40
4.2243733
50
248.5283418
51
252.1270504
0
ARC
8
DEFAULT_255_2_778
10
102.3644484
20
41.9069686
40
4.0409374
50
252.127422
51
255.9870606
0
ARC
8
DEFAULT_255_2_778
10
102.3276454
20
41.7594054
40
3.8888541
50
255.9867173
51
260.3483992
0
ARC
8
DEFAULT_255_2_778
10
102.3079745
20
41.6443052
40
3.7720851
50
260.3498439
51
265.1765285
0
ARC
8
DEFAULT_255_2_778
10
102.3018569
20
41.5749114
40
3.7024228
50
265.1805663
51
269.9958416
0
ARC
8
DEFAULT_255_2_778
10
102.2998523
20
41.5829449
40
3.7104567
50
270.0268046
51
284.332138
0
ARC
8
DEFAULT_255_2_778
10
102.1285708
20
42.1027906
40
4.2566859
50
284.8337624
51
312.2895485
0
ARC
8
DEFAULT_255_2_778
10
101.6223976
20
42.7126401
40
5.0485447
50
311.8819978
51
349.9298997
0
ARC
8
DEFAULT_255_2_778
10
102.2863098
20
42.5586184
40
4.3680739
50
350.3963685
51
358.4332841
0
ARC
8
DEFAULT_255_2_778
10
102.4785651
20
42.5497316
40
4.1756491
50
358.4830534
51
359.9982467
0
ARC
8
DEFAULT_255_2_778
10
102.7818885
20
42.5628192
40
3.8723482
50
359.8044619
51
18.0595342
0
ARC
8
DEFAULT_255_2_778
10
102.9830926
20
42.6179294
40
3.6639857
50
18.2155839
51
27.5506398
0
ARC
8
DEFAULT_255_2_778
10
102.9430264
20
42.5959548
40
3.7096724
50
27.5653244
51
34.7582528
0
ARC
8
DEFAULT_255_2_778
10
102.8249426
20
42.5137202
40
3.8535691
50
34.7618169
51
40.8008949
0
ARC
8
DEFAULT_255_2_778
10
102.6598704
20
42.3710096
40
4.071778
50
40.8032342
51
46.2482143
0
ARC
8
DEFAULT_255_2_778
10
102.464977
20
42.1676706
40
4.353434
50
46.2460603
51
50.9657992
0
ARC
8
DEFAULT_255_2_778
10
102.2495609
20
41.9018573
40
4.6955754
50
50.9667294
51
55.3825511
0
ARC
8
DEFAULT_255_2_778
10
102.1352393
20
41.7408131
40
4.8930551
50
55.3521742
51
55.4919218
0
ARC
8
DEFAULT_255_2_778
10
98.1158284
20
35.8891255
40
11.9922036
50
55.505928
51
56.3481349
0
ARC
8
DEFAULT_255_2_778
10
96.6288374
20
33.6567927
40
14.6744511
50
56.3451507
51
57.0548781
0
ARC
8
DEFAULT_255_2_778
10
95.0479934
20
31.2185919
40
17.5802885
50
57.0527557
51
57.6595429
0
ARC
8
DEFAULT_255_2_778
10
93.3915342
20
28.6034075
40
20.675938
50
57.6580856
51
58.1835257
0
ARC
8
DEFAULT_255_2_778
10
91.2264346
20
25.1094018
40
24.7863794
50
58.1887639
51
58.8621405
0
ARC
8
DEFAULT_255_2_778
10
88.5070252
20
20.6107605
40
30.0430854
50
58.8595295
51
59.4211736
0
ARC
8
DEFAULT_255_2_778
10
85.714875
20
15.8876476
40
35.5297872
50
59.4194182
51
59.8958718
0
ARC
8
DEFAULT_255_2_778
10
82.6587187
20
10.6156667
40
41.6235441
50
59.896362
51
60.3710192
0
ARC
8
DEFAULT_255_2_778
10
79.1375508
20
4.4244597
40
48.7460203
50
60.3710913
51
60.8306843
0
ARC
8
DEFAULT_255_2_778
10
75.4294847
20
-2.2158284
40
56.3514907
50
60.8292638
51
61.218913
0
ARC
8
DEFAULT_255_2_778
10
71.8515533
20
-8.7268965
40
63.7808648
50
61.2179369
51
61.5532245
0
ARC
8
DEFAULT_255_2_778
10
68.4390024
20
-15.0242966
40
70.9434586
50
61.5525766
51
61.8446327
0
ARC
8
DEFAULT_255_2_778
10
65.2164984
20
-21.0441713
40
77.7715933
50
61.8441711
51
62.101179
0
ARC
8
DEFAULT_255_2_778
10
61.4909933
20
-28.0852083
40
85.7374948
50
62.1025649
51
62.4406143
0
ARC
8
DEFAULT_255_2_778
10
57.0931394
20
-36.5117458
40
95.2426331
50
62.440524
51
62.7732522
0
ARC
8
DEFAULT_255_2_778
10
52.703035
20
-45.0428248
40
104.8370233
50
62.772917
51
63.0903577
0
ARC
8
DEFAULT_255_2_778
10
48.7677784
20
-52.7928325
40
113.528908
50
63.0895417
51
63.3529245
0
ARC
8
DEFAULT_255_2_778
10
45.5641771
20
-59.1749417
40
120.6699428
50
63.3524501
51
63.5738503
0
ARC
8
DEFAULT_255_2_778
10
42.1509499
20
-66.0478085
40
128.3436912
50
63.5748114
51
63.9006524
0
ARC
8
DEFAULT_255_2_778
10
38.7443731
20
-72.9982979
40
136.0841089
50
63.9000228
51
64.1805321
0
ARC
8
DEFAULT_255_2_778
10
35.7586011
20
-79.1714871
40
142.941448
50
64.1809118
51
64.5386037
0
ARC
8
DEFAULT_255_2_778
10
33.226466
20
-84.4882495
40
148.8303927
50
64.5384073
51
64.932574
0
ARC
8
DEFAULT_255_2_778
10
32.2740965
20
-86.5184815
40
151.0729009
50
64.9316305
51
64.9876454
0
ARC
8
DEFAULT_255_2_778
10
31.9685586
20
-87.1734926
40
151.7956685
50
64.9876696
51
65.1564771
0
ARC
8
DEFAULT_255_2_778
10
31.6617867
20
-87.8359471
40
152.5257061
50
65.1564553
51
65.4153847
0
ARC
8
DEFAULT_255_2_778
10
31.8267721
20
-87.4746882
40
152.1285561
50
65.4152839
51
65.6483784
0
ARC
8
DEFAULT_255_2_778
10
33.4738639
20
-83.8172159
40
148.1173273
50
65.6454573
51
66.3668955
0
ARC
8
DEFAULT_255_2_778
10
38.3181119
20
-72.7325674
40
136.0203798
50
66.3645243
51
67.1089192
0
ARC
8
DEFAULT_255_2_778
10
43.2335223
20
-61.1176472
40
123.4081828
50
67.1137124
51
67.525731
0
ARC
8
DEFAULT_255_2_778
10
46.8647964
20
-52.3392924
40
113.9084109
50
67.525628
51
67.9384271
0
ARC
8
DEFAULT_255_2_778
10
50.4367654
20
-43.5254548
40
104.3982745
50
67.9383888
51
68.3538097
0
ARC
8
DEFAULT_255_2_778
10
53.8298139
20
-34.9755244
40
95.199683
50
68.3537627
51
68.7730198
0
ARC
8
DEFAULT_255_2_778
10
56.9918191
20
-26.8347017
40
86.4663404
50
68.7730057
51
69.1970539
0
ARC
8
DEFAULT_255_2_778
10
59.8804837
20
-19.2313966
40
78.3327907
50
69.1970488
51
69.6264058
0
ARC
8
DEFAULT_255_2_778
10
62.4963242
20
-12.1878846
40
70.8192241
50
69.6264637
51
70.0615615
0
ARC
8
DEFAULT_255_2_778
10
64.8422179
20
-5.721101
40
63.9400884
50
70.0615973
51
70.5026832
0
ARC
8
DEFAULT_255_2_778
10
66.9190964
20
0.1445008
40
57.7176524
50
70.5027478
51
70.94966
0
ARC
8
DEFAULT_255_2_778
10
68.7582844
20
5.4703283
40
52.0832002
50
70.9497877
51
71.4025041
0
ARC
8
DEFAULT_255_2_778
10
70.75123
20
11.4054352
40
45.8224249
50
71.3975863
51
72.0982439
0
ARC
8
DEFAULT_255_2_778
10
72.7592732
20
17.6207518
40
39.2907789
50
72.0987161
51
72.8104933
0
ARC
8
DEFAULT_255_2_778
10
74.5073595
20
23.276956
40
33.3706058
50
72.8077601
51
73.6565593
0
ARC
8
DEFAULT_255_2_778
10
76.0601546
20
28.5752991
40
27.8494093
50
73.654762
51
74.6100802
0
ARC
8
DEFAULT_255_2_778
10
77.3147662
20
33.1325395
40
23.1226251
50
74.6105604
51
75.6026256
0
ARC
8
DEFAULT_255_2_778
10
78.2595323
20
36.8105436
40
19.3252184
50
75.6043336
51
76.592373
0
ARC
8
DEFAULT_255_2_778
10
79.0301959
20
40.0505768
40
15.9947927
50
76.5865296
51
77.8242976
0
ARC
8
DEFAULT_255_2_778
10
79.682309
20
43.0780995
40
12.8978353
50
77.8194483
51
79.2807387
0
ARC
8
DEFAULT_255_2_778
10
80.1881073
20
45.756753
40
10.1718465
50
79.2737032
51
81.0302144
0
ARC
8
DEFAULT_255_2_778
10
80.5229036
20
47.8711097
40
8.0311477
50
81.0376698
51
82.7325507
0
ARC
8
DEFAULT_255_2_778
10
80.7420766
20
49.6046111
40
6.283847
50
82.7154317
51
84.9811076
0
ARC
8
DEFAULT_255_2_778
10
80.8784281
20
51.1746676
40
4.7078819
50
84.9625297
51
87.8511407
0
ARC
8
DEFAULT_255_2_778
10
80.9209462
20
52.2338315
40
3.6478696
50
87.894711
51
89.9648241
0
ARC
8
DEFAULT_255_2_778
10
80.9221733
20
52.8089856
40
3.072715
50
89.9811198
51
91.5858892
0
ARC
8
DEFAULT_255_2_778
10
80.9092381
20
53.2593817
40
2.6221334
50
91.575721
51
93.6749975
0
ARC
8
DEFAULT_255_2_778
10
80.8814224
20
53.6894805
40
2.1911362
50
93.6700167
51
96.0809083
0
ARC
8
DEFAULT_255_2_778
10
80.8415871
20
54.0620351
40
1.8164578
50
96.0763193
51
98.8133497
0
ARC
8
DEFAULT_255_2_778
10
80.7911199
20
54.3856205
40
1.4889607
50
98.8020846
51
102.1071722
0
ARC
8
DEFAULT_255_2_778
10
80.7312948
20
54.6634074
40
1.204805
50
102.096182
51
106.0093446
0
ARC
8
DEFAULT_255_2_778
10
80.6668391
20
54.8876648
40
0.9714685
50
106.0030283
51
110.4717233
0
ARC
8
DEFAULT_255_2_778
10
80.5989642
20
55.0684588
40
0.7783535
50
110.4454896
51
116.1633116
0
ARC
8
DEFAULT_255_2_778
10
80.5286696
20
55.2109822
40
0.619438
50
116.1402527
51
123.3048132
0
ARC
8
DEFAULT_255_2_778
10
80.4603233
20
55.3143205
40
0.4955435
50
123.2610098
51
133.0845049
0
ARC
8
DEFAULT_255_2_778
10
80.396303
20
55.3813079
40
0.4028901
50
132.9423613
51
153.2708462
0
LINE
8
DEFAULT_255_2_778
10
86.3864647
20
66.4104172
11
86.3864647
21
66.4104172
0
LINE
8
DEFAULT_255_2_778
10
79.7718647
20
78.3167172
11
79.7718647
21
78.3167172
0
LINE
8
DEFAULT_255_2_778
10
80.0364647
20
55.5625172
11
80.0364647
21
55.5625172
0
ARC
8
DEFAULT_255_2_778
10
50.3303386
20
43.4481523
40
0.9241272
50
339.2797697
51
339.674675
0
ARC
8
DEFAULT_255_2_778
10
48.9917522
20
43.9533943
40
2.3548904
50
338.8642639
51
339.3049817
0
ARC
8
DEFAULT_255_2_778
10
47.4115996
20
44.564806
40
4.0492062
50
338.196796
51
338.8570178
0
ARC
8
DEFAULT_255_2_778
10
45.8003258
20
45.2084882
40
5.784294
50
337.5495744
51
338.204943
0
ARC
8
DEFAULT_255_2_778
10
44.4359239
20
45.7717167
40
7.260376
50
336.9060331
51
337.5535329
0
ARC
8
DEFAULT_255_2_778
10
43.1932035
20
46.3016661
40
8.6113758
50
336.1593723
51
336.9057946
0
ARC
8
DEFAULT_255_2_778
10
42.0243656
20
46.8181102
40
9.8892243
50
335.3214427
51
336.1597181
0
ARC
8
DEFAULT_255_2_778
10
41.0210306
20
47.2786764
40
10.9932179
50
334.5033056
51
335.3236279
0
ARC
8
DEFAULT_255_2_778
10
40.2283257
20
47.6563753
40
11.8713053
50
333.7054184
51
334.5048122
0
ARC
8
DEFAULT_255_2_778
10
39.6039893
20
47.9646239
40
12.5675905
50
332.9290981
51
333.7064165
0
ARC
8
DEFAULT_255_2_778
10
39.1121185
20
48.2158229
40
13.1198929
50
332.1756691
51
332.9298325
0
ARC
8
DEFAULT_255_2_778
10
38.6501592
20
48.4600588
40
13.6424418
50
331.069731
51
332.1741034
0
ARC
8
DEFAULT_255_2_778
10
38.2527126
20
48.6794083
40
14.0963999
50
330.0236994
51
331.0708936
0
ARC
8
DEFAULT_255_2_778
10
37.9599639
20
48.8483179
40
14.4343827
50
328.7173316
51
330.0235189
0
ARC
8
DEFAULT_255_2_778
10
37.7676568
20
48.9648656
40
14.65925
50
327.4961443
51
328.7183241
0
ARC
8
DEFAULT_255_2_778
10
37.6700492
20
49.0269312
40
14.7749192
50
326.0933469
51
327.4965583
0
ARC
8
DEFAULT_255_2_778
10
37.6495419
20
49.0405465
40
14.7995343
50
324.5986386
51
326.0938882
0
ARC
8
DEFAULT_255_2_778
10
37.7014548
20
49.0034147
40
14.7357091
50
322.8904356
51
324.5993912
0
ARC
8
DEFAULT_255_2_778
10
37.8220559
20
48.9118612
40
14.5842937
50
320.8962033
51
322.8914128
0
ARC
8
DEFAULT_255_2_778
10
37.9873132
20
48.7775996
40
14.3713708
50
319.0770525
51
320.8960255
0
ARC
8
DEFAULT_255_2_778
10
38.166375
20
48.6222276
40
14.134298
50
317.1624779
51
319.0774759
0
ARC
8
DEFAULT_255_2_778
10
38.380654
20
48.4228644
40
13.8416192
50
314.6673851
51
317.1645355
0
ARC
8
DEFAULT_255_2_778
10
38.6221599
20
48.1782883
40
13.4979005
50
311.9255568
51
314.6681302
0
ARC
8
DEFAULT_255_2_778
10
38.8529593
20
47.9211676
40
13.1523873
50
308.9728706
51
311.9259098
0
ARC
8
DEFAULT_255_2_778
10
39.0538391
20
47.672935
40
12.8330566
50
305.8561718
51
308.9726641
0
ARC
8
DEFAULT_255_2_778
10
39.2150852
20
47.4499002
40
12.557839
50
302.4431564
51
305.8559662
0
ARC
8
DEFAULT_255_2_778
10
39.3264554
20
47.2752823
40
12.3507288
50
298.9556968
51
302.4417088
0
ARC
8
DEFAULT_255_2_778
10
39.3826192
20
47.1745706
40
12.2354159
50
295.5384128
51
298.9538932
0
ARC
8
DEFAULT_255_2_778
10
39.3910501
20
47.1577678
40
12.2166202
50
292.0664117
51
295.5367093
0
ARC
8
DEFAULT_255_2_778
10
39.3607069
20
47.2335854
40
12.2982835
50
288.670646
51
292.064722
0
ARC
8
DEFAULT_255_2_778
10
39.3021075
20
47.4081122
40
12.482385
50
285.321415
51
288.6690151
0
ARC
8
DEFAULT_255_2_778
10
39.2311182
20
47.6670584
40
12.7508856
50
282.4304195
51
285.3216127
0
ARC
8
DEFAULT_255_2_778
10
39.1539856
20
48.0196481
40
13.111813
50
279.2867599
51
282.4279207
0
ARC
8
DEFAULT_255_2_778
10
39.0777306
20
48.4863855
40
13.5847386
50
276.349458
51
279.2864874
0
ARC
8
DEFAULT_255_2_778
10
39.0157101
20
49.0446837
40
14.146471
50
273.5438011
51
276.3490392
0
ARC
8
DEFAULT_255_2_778
10
38.9752548
20
49.6986834
40
14.801721
50
270.8710892
51
273.5436202
0
ARC
8
DEFAULT_255_2_778
10
38.9652647
20
50.1893385
40
15.2924715
50
269.9987449
51
270.8805667
0
ARC
8
DEFAULT_255_2_778
10
38.9655704
20
50.5063057
40
15.6094386
50
268.8221829
51
269.9976483
0
ARC
8
DEFAULT_255_2_778
10
38.9734322
20
50.8876552
40
15.990869
50
267.6729002
51
268.8221064
0
ARC
8
DEFAULT_255_2_778
10
38.9889014
20
51.271473
40
16.3749985
50
266.639784
51
267.6733489
0
ARC
8
DEFAULT_255_2_778
10
39.0103194
20
51.6386927
40
16.7428423
50
265.7436809
51
266.6402725
0
ARC
8
DEFAULT_255_2_778
10
39.0349458
20
51.9708514
40
17.0759125
50
264.9654745
51
265.7439957
0
ARC
8
DEFAULT_255_2_778
10
39.0687541
20
52.3516578
40
17.4582168
50
263.9519753
51
264.9646217
0
ARC
8
DEFAULT_255_2_778
10
39.1169551
20
52.8062774
40
17.9153843
50
262.9342976
51
263.9518695
0
ARC
8
DEFAULT_255_2_778
10
39.170887
20
53.2435169
40
18.3559375
50
262.1125514
51
262.9351135
0
ARC
8
DEFAULT_255_2_778
10
39.2324445
20
53.6869065
40
18.8035797
50
261.1964474
51
262.1121557
0
ARC
8
DEFAULT_255_2_778
10
39.3003924
20
54.1269038
40
19.2487926
50
260.4415991
51
261.1970217
0
ARC
8
DEFAULT_255_2_778
10
39.3714566
20
54.5490903
40
19.6769182
50
259.6936235
51
260.4416795
0
LINE
8
DEFAULT_255_2_778
10
73.6864255
20
99.7479565
11
54.1073255
21
50.8000565
0
LINE
8
DEFAULT_255_2_778
10
54.1073255
20
50.8000565
11
34.7927255
21
99.7479565
0
LINE
8
DEFAULT_255_2_778
10
54.1073255
20
50.8000565
11
51.1969255
21
43.1271565
0
ENDSEC
0
EOF