0
SECTION
2
HEADER
9
$MEASUREMENT
70
1
0
ENDSEC
0
SECTION
2
TABLES
0
TABLE
2
LTYPE
0
LTYPE
72
65
70
64
2
CONTINUOUS
3
______
73
0
40
0
0
ENDTAB
0
TABLE
2
LAYER
0
LAYER
2
DEFAULT_255_2_778
70
0
62
255
6
CONTINUOUS
0
ENDTAB
0
ENDSEC
0
SECTION
2
ENTITIES
0
ARC
8
DEFAULT_255_2_778
10
12.8408455
20
6.8887548
40
3.9087864
50
336.6648284
51
343.9822433
0
ARC
8
DEFAULT_255_2_778
10
13.1861304
20
6.7419517
40
3.5335951
50
327.9554263
51
336.6327968
0
ARC
8
DEFAULT_255_2_778
10
13.0671157
20
6.8255826
40
3.6788571
50
318.3782458
51
327.8348521
0
ARC
8
DEFAULT_255_2_778
10
12.7161319
20
7.1238238
40
4.1393409
50
317.9817224
51
318.519128
0
ARC
8
DEFAULT_255_2_778
10
15.4068265
20
7.563875
40
0.3845954
50
0.8652717
51
65.9421254
0
ARC
8
DEFAULT_255_2_778
10
15.3088599
20
7.3806597
40
0.5920167
50
64.5127916
51
89.3285716
0
ARC
8
DEFAULT_255_2_778
10
15.2967209
20
7.2366889
40
0.7361941
50
88.5151668
51
90.0033338
0
ARC
8
DEFAULT_255_2_778
10
15.2869183
20
7.6743224
40
0.2987199
50
88.1277163
51
126.0426745
0
ARC
8
DEFAULT_255_2_778
10
15.1886637
20
7.8112243
40
0.1302169
50
126.5287823
51
178.742136
0
ARC
8
DEFAULT_255_2_778
10
15.2338278
20
7.8142264
40
0.1753498
50
180.0468948
51
184.4299702
0
ARC
8
DEFAULT_255_2_778
10
15.5059044
20
7.8495282
40
0.4495642
50
186.2376016
51
194.7429599
0
ARC
8
DEFAULT_255_2_778
10
13.5321407
20
7.376861
40
1.5801498
50
12.1270933
51
13.1043809
0
ARC
8
DEFAULT_255_2_778
10
14.3023278
20
7.541645
40
0.7925327
50
6.4902456
51
12.1773349
0
ARC
8
DEFAULT_255_2_778
10
14.1571593
20
7.5277509
40
0.9383449
50
0.7997182
51
6.3312467
0
ARC
8
DEFAULT_255_2_778
10
13.9187475
20
7.5211055
40
1.1768307
50
359.9940299
51
0.9612219
0
ARC
8
DEFAULT_255_2_778
10
11.8612411
20
6.5853776
40
3.2791051
50
340.1909271
51
350.5215009
0
ARC
8
DEFAULT_255_2_778
10
13.1110257
20
6.133185
40
1.9500325
50
329.7599596
51
340.2467354
0
ARC
8
DEFAULT_255_2_778
10
13.9364233
20
5.6460927
40
0.9916545
50
314.3896971
51
330.0558056
0
ARC
8
DEFAULT_255_2_778
10
14.3200975
20
5.2378763
40
0.4317004
50
277.0249784
51
315.9013813
0
ARC
8
DEFAULT_255_2_778
10
14.3440918
20
5.1450153
40
0.3368324
50
269.99765
51
274.9055211
0
ARC
8
DEFAULT_255_2_778
10
14.3436397
20
5.1525962
40
0.3444137
50
205.1908486
51
270.0729138
0
ARC
8
DEFAULT_255_2_778
10
14.7170898
20
5.3706258
40
0.7760954
50
192.0250534
51
208.0225209
0
ARC
8
DEFAULT_255_2_778
10
15.3851045
20
5.5221304
40
1.4610437
50
182.5695194
51
192.3782421
0
ARC
8
DEFAULT_255_2_778
10
16.0608699
20
5.5670371
40
2.1381926
50
179.9505405
51
182.9598365
0
ARC
8
DEFAULT_255_2_778
10
21.5300443
20
5.5751573
40
7.6073688
50
178.0015148
51
180.047257
0
ARC
8
DEFAULT_255_2_778
10
19.8862511
20
5.6326162
40
5.9625716
50
175.3814537
51
178.0024733
0
ARC
8
DEFAULT_255_2_778
10
19.1182259
20
5.6930405
40
5.1921751
50
171.5909854
51
175.3636382
0
ARC
8
DEFAULT_255_2_778
10
19.5501792
20
5.6270589
40
5.629134
50
169.5639745
51
171.5695704
0
ARC
8
DEFAULT_255_2_778
10
22.2695043
20
5.1072269
40
8.3976573
50
166.871709
51
169.4366538
0
ARC
8
DEFAULT_255_2_778
10
33.3087789
20
2.5771402
40
19.7231208
50
166.4135903
51
166.9978286
0
ARC
8
DEFAULT_255_2_778
10
89.6590929
20
-11.0332889
40
77.6938174
50
166.2600613
51
166.4193242
0
ARC
8
DEFAULT_255_2_778
10
14.555537
20
7.3150637
40
0.3817184
50
157.2134493
51
164.0150919
0
ARC
8
DEFAULT_255_2_778
10
16.5261705
20
6.4967309
40
2.5155069
50
155.7934738
51
157.4129659
0
ARC
8
DEFAULT_255_2_778
10
10.9608771
20
8.9732648
40
3.5759699
50
336.1642264
51
336.5813534
0
ARC
8
DEFAULT_255_2_778
10
13.2457462
20
7.9931163
40
1.0897941
50
336.1237261
51
341.4537975
0
ARC
8
DEFAULT_255_2_778
10
13.8772815
20
7.7832578
40
0.4243108
50
341.1956091
51
353.5183319
0
ARC
8
DEFAULT_255_2_778
10
14.0526303
20
7.7595654
40
0.2474367
50
354.385933
51
359.8895506
0
ARC
8
DEFAULT_255_2_778
10
14.1629826
20
7.7671315
40
0.1373196
50
356.6421625
51
62.6542975
0
ARC
8
DEFAULT_255_2_778
10
14.1052341
20
7.6589469
40
0.2599468
50
62.3016947
51
79.6100139
0
ARC
8
DEFAULT_255_2_778
10
14.0539757
20
7.4030201
40
0.5209388
50
79.1412264
51
88.7355441
0
ARC
8
DEFAULT_255_2_778
10
14.0422465
20
7.1553104
40
0.7688725
50
88.2690416
51
90.0200056
0
ARC
8
DEFAULT_255_2_778
10
14.0343281
20
6.5307272
40
1.3934766
50
89.6854568
51
95.6846843
0
ARC
8
DEFAULT_255_2_778
10
13.9581079
20
7.2553749
40
0.6648553
50
95.3342534
51
106.3752543
0
ARC
8
DEFAULT_255_2_778
10
13.8487198
20
7.614712
40
0.289278
50
105.6534983
51
128.428661
0
ARC
8
DEFAULT_255_2_778
10
13.8651917
20
7.6353905
40
0.2844851
50
133.6231286
51
171.9720747
0
ARC
8
DEFAULT_255_2_778
10
11.4004941
20
8.2184724
40
2.249605
50
345.2766502
51
346.0230123
0
ARC
8
DEFAULT_255_2_778
10
13.0995841
20
7.7673998
40
0.4916847
50
338.2224563
51
345.7933403
0
ARC
8
DEFAULT_255_2_778
10
15.4062321
20
7.0675481
40
1.9210515
50
164.3744242
51
164.7607251
0
ARC
8
DEFAULT_255_2_778
10
17.8885246
20
6.3890952
40
4.4943903
50
164.7336472
51
165.136302
0
ARC
8
DEFAULT_255_2_778
10
19.7102463
20
5.9047333
40
6.3794039
50
165.1287063
51
165.5065363
0
ARC
8
DEFAULT_255_2_778
10
21.2492062
20
5.50715
40
7.9688912
50
165.5081478
51
166.0411736
0
ARC
8
DEFAULT_255_2_778
10
22.5444332
20
5.1849483
40
9.3035922
50
166.0396566
51
166.6706009
0
ARC
8
DEFAULT_255_2_778
10
23.4005972
20
4.9818634
40
10.1835127
50
166.6693288
51
167.4556922
0
ARC
8
DEFAULT_255_2_778
10
23.7545005
20
4.9025841
40
10.5461868
50
167.4528621
51
168.1800776
0
ARC
8
DEFAULT_255_2_778
10
23.737729
20
4.9058644
40
10.5290988
50
168.1788553
51
168.9815167
0
ARC
8
DEFAULT_255_2_778
10
23.3678124
20
4.9771257
40
10.1523816
50
168.9772674
51
170.2288136
0
ARC
8
DEFAULT_255_2_778
10
22.4923513
20
5.1261266
40
9.264333
50
170.2180615
51
172.0414609
0
ARC
8
DEFAULT_255_2_778
10
20.8773525
20
5.3453641
40
7.6345369
50
171.9928212
51
175.3537785
0
ARC
8
DEFAULT_255_2_778
10
19.5066759
20
5.4644063
40
6.2587263
50
175.4235552
51
176.8150488
0
ARC
8
DEFAULT_255_2_778
10
18.4887951
20
5.5165816
40
5.2395209
50
176.7662991
51
179.931094
0
ARC
8
DEFAULT_255_2_778
10
15.6330065
20
5.5109716
40
2.3837583
50
179.7137027
51
189.4139189
0
ARC
8
DEFAULT_255_2_778
10
14.8503396
20
5.3768932
40
1.5897071
50
189.2605495
51
202.783736
0
ARC
8
DEFAULT_255_2_778
10
14.3175741
20
5.146621
40
1.0093556
50
202.4437532
51
225.2229237
0
ARC
8
DEFAULT_255_2_778
10
14.1645134
20
5.008897
40
0.8038678
50
226.0529249
51
265.6760043
0
ARC
8
DEFAULT_255_2_778
10
14.1969066
20
5.2264315
40
1.0233491
50
264.7857675
51
270.0487893
0
ARC
8
DEFAULT_255_2_778
10
14.1827532
20
5.0936171
40
0.890661
50
270.9665835
51
320.513685
0
ARC
8
DEFAULT_255_2_778
10
13.4436568
20
5.8016475
40
1.912839
50
318.2230184
51
329.7525601
0
ARC
8
DEFAULT_255_2_778
10
31.1900368
20
-14.7786174
40
24.4848989
50
131.0943869
51
131.6553175
0
ARC
8
DEFAULT_255_2_778
10
22.6369863
20
-5.1375758
40
11.5967759
50
131.7414258
51
131.9083082
0
ARC
8
DEFAULT_255_2_778
10
17.7790668
20
0.1683865
40
4.4037764
50
130.9810276
51
139.9547041
0
ARC
8
DEFAULT_255_2_778
10
15.8871346
20
1.7583709
40
1.9324492
50
139.9527597
51
163.8116749
0
ARC
8
DEFAULT_255_2_778
10
15.8911721
20
1.7804535
40
1.9302992
50
164.4745754
51
176.2612414
0
ARC
8
DEFAULT_255_2_778
10
16.2405928
20
1.7508707
40
2.2809152
50
176.0920596
51
180.0373754
0
ARC
8
DEFAULT_255_2_778
10
15.2373782
20
1.7414466
40
1.2777248
50
179.6441195
51
201.2187025
0
ARC
8
DEFAULT_255_2_778
10
14.9561192
20
1.6244715
40
0.9732239
50
200.7919286
51
232.0542865
0
ARC
8
DEFAULT_255_2_778
10
14.8358832
20
1.4841674
40
0.7886923
50
232.6748759
51
270.2538914
0
ARC
8
DEFAULT_255_2_778
10
14.8394748
20
1.6515627
40
0.9560799
50
269.9942026
51
272.9875309
0
ARC
8
DEFAULT_255_2_778
10
14.8537197
20
1.5440786
40
0.8480432
50
272.4048886
51
310.1005752
0
ARC
8
DEFAULT_255_2_778
10
14.7938497
20
1.6006008
40
0.9298895
50
310.6790149
51
330.7017778
0
ARC
8
DEFAULT_255_2_778
10
14.5065127
20
1.7639156
40
1.2603919
50
330.6192966
51
344.0856354
0
ARC
8
DEFAULT_255_2_778
10
13.9986578
20
1.9115858
40
1.7892754
50
343.9973717
51
353.849419
0
ARC
8
DEFAULT_255_2_778
10
13.3168755
20
1.9906583
40
2.4756115
50
353.720507
51
0.1533181
0
ARC
8
DEFAULT_255_2_778
10
10.5446831
20
9.6249337
40
8.0030086
50
310.9748557
51
312.526209
0
ARC
8
DEFAULT_255_2_778
10
11.8667543
20
8.1742337
40
6.0402679
50
312.5854314
51
313.2867481
0
ARC
8
DEFAULT_255_2_778
10
12.9581421
20
7.0395746
40
4.4660342
50
313.0753685
51
319.5359669
0
ARC
8
DEFAULT_255_2_778
10
13.5478833
20
6.5252898
40
3.6836054
50
319.6689588
51
326.8080656
0
ARC
8
DEFAULT_255_2_778
10
13.5090352
20
6.5463245
40
3.7276321
50
326.8643912
51
333.5629341
0
ARC
8
DEFAULT_255_2_778
10
13.1313253
20
6.732801
40
4.1488648
50
333.5793181
51
339.4358055
0
ARC
8
DEFAULT_255_2_778
10
12.5364402
20
6.9576543
40
4.7848249
50
339.4170278
51
343.7657319
0
ARC
8
DEFAULT_255_2_778
10
16.8864438
20
5.679731
40
0.251242
50
346.2425952
51
351.2603316
0
ARC
8
DEFAULT_255_2_778
10
16.6769129
20
5.7086612
40
0.4627472
50
351.6618752
51
359.5469585
0
ARC
8
DEFAULT_255_2_778
10
16.5946831
20
5.7109671
40
0.5449952
50
359.372895
51
0.0542204
0
ARC
8
DEFAULT_255_2_778
10
16.8426624
20
5.7100569
40
0.2970191
50
0.2750648
51
12.6237037
0
ARC
8
DEFAULT_255_2_778
10
16.6969702
20
5.6693453
40
0.4481561
50
13.6320768
51
62.8935618
0
ARC
8
DEFAULT_255_2_778
10
16.7995084
20
5.8388083
40
0.2509798
50
66.1051185
51
71.2335432
0
ARC
8
DEFAULT_255_2_778
10
16.8170551
20
5.8960332
40
0.1911605
50
70.6952138
51
89.393651
0
ARC
8
DEFAULT_255_2_778
10
16.8247292
20
5.9243018
40
0.1629791
50
91.9870845
51
148.8036669
0
ARC
8
DEFAULT_255_2_778
10
17.1116112
20
5.7158964
40
0.5171773
50
145.5145807
51
161.4479073
0
ARC
8
DEFAULT_255_2_778
10
17.6018582
20
5.5296465
40
1.0414107
50
160.3149616
51
164.2639858
0
ARC
8
DEFAULT_255_2_778
10
14.849883
20
1.4533256
40
0.1801106
50
206.2242843
51
266.337594
0
ARC
8
DEFAULT_255_2_778
10
15.1719149
20
1.654355
40
0.5591234
50
191.0834237
51
210.1250326
0
ARC
8
DEFAULT_255_2_778
10
15.6934306
20
1.7697921
40
1.093181
50
179.5864253
51
191.7663063
0
ARC
8
DEFAULT_255_2_778
10
16.49742
20
1.787162
40
1.8971657
50
169.661641
51
180.2862774
0
ARC
8
DEFAULT_255_2_778
10
16.1028866
20
1.8580031
40
1.4963246
50
153.1553332
51
169.6190519
0
ARC
8
DEFAULT_255_2_778
10
16.3877429
20
1.6845683
40
1.8289879
50
134.97675
51
152.337342
0
ARC
8
DEFAULT_255_2_778
10
17.3090341
20
2.0011929
40
2.2140587
50
180.0882455
51
180.8408604
0
ARC
8
DEFAULT_255_2_778
10
31.5319685
20
2.2016129
40
16.4384048
50
180.8118377
51
180.9307095
0
ARC
8
DEFAULT_255_2_778
10
7.5326371
20
1.8132732
40
7.5640685
50
0.6281002
51
0.9190582
0
ARC
8
DEFAULT_255_2_778
10
11.115031
20
1.8528397
40
3.9814563
50
0.0194089
51
0.6238798
0
ARC
8
DEFAULT_255_2_778
10
12.5772529
20
1.8499686
40
2.5192378
50
357.6993071
51
0.0959734
0
ARC
8
DEFAULT_255_2_778
10
13.3910228
20
1.8179397
40
1.7048382
50
354.7497281
51
357.6769656
0
ARC
8
DEFAULT_255_2_778
10
14.2606411
20
1.7198502
40
0.83009
50
339.6320784
51
355.9993176
0
ARC
8
DEFAULT_255_2_778
10
14.793861
20
1.5162622
40
0.2594041
50
302.8168144
51
340.7968924
0
ARC
8
DEFAULT_255_2_778
10
14.8414388
20
1.4633278
40
0.1894697
50
269.0743661
51
299.3986592
0
LINE
8
DEFAULT_255_2_778
10
15.791378
20
4.3530828
11
15.791378
21
7.5696828
0
LINE
8
DEFAULT_255_2_778
10
15.095578
20
7.5209828
11
15.095578
21
6.0453828
0
LINE
8
DEFAULT_255_2_778
10
15.096078
20
4.8380828
11
15.096078
21
3.6738828
0
LINE
8
DEFAULT_255_2_778
10
15.792478
20
1.9972828
11
15.792478
21
3.5826828
0
LINE
8
DEFAULT_255_2_778
10
16.599478
20
5.8120828
11
16.597878
21
5.8101828
0
LINE
8
DEFAULT_255_2_778
10
15.094978
20
2.9783828
11
15.094978
21
1.9977828
0
LINE
8
DEFAULT_255_2_778
10
14.838378
20
1.2738828
11
14.838378
21
1.2735828
0
ARC
8
DEFAULT_255_2_778
10
19.2342405
20
5.1161002
40
0.295785
50
192.8800523
51
268.8045207
0
ARC
8
DEFAULT_255_2_778
10
19.51458
20
5.2347295
40
0.597882
50
183.6656936
51
197.9805796
0
ARC
8
DEFAULT_255_2_778
10
19.5801299
20
5.2418682
40
0.6637606
50
179.9990082
51
183.9188795
0
ARC
8
DEFAULT_255_2_778
10
18.5317954
20
6.7478236
40
0.3846186
50
0.8724012
51
65.9519566
0
ARC
8
DEFAULT_255_2_778
10
18.4337383
20
6.564482
40
0.5921914
50
64.516581
51
89.3274966
0
ARC
8
DEFAULT_255_2_778
10
18.4216122
20
6.4206806
40
0.7361992
50
88.5151655
51
90.0033325
0
ARC
8
DEFAULT_255_2_778
10
18.4117678
20
6.8588211
40
0.2982197
50
88.1165062
51
126.1878015
0
ARC
8
DEFAULT_255_2_778
10
18.3133894
20
6.9953477
40
0.1299507
50
126.7213763
51
178.7512853
0
ARC
8
DEFAULT_255_2_778
10
18.3599204
20
6.9983266
40
0.176451
50
180.0477083
51
184.4547307
0
ARC
8
DEFAULT_255_2_778
10
18.6338936
20
7.0338633
40
0.4525782
50
186.246331
51
194.689375
0
ARC
8
DEFAULT_255_2_778
10
16.6509289
20
6.5605545
40
1.5862324
50
12.0915554
51
13.0637734
0
ARC
8
DEFAULT_255_2_778
10
17.4247108
20
6.7255965
40
0.7950458
50
6.4730435
51
12.1425184
0
ARC
8
DEFAULT_255_2_778
10
17.2794619
20
6.7117454
40
0.9409338
50
0.7976615
51
6.3139955
0
ARC
8
DEFAULT_255_2_778
10
17.0407111
20
6.7051135
40
1.1797583
50
359.9934996
51
0.9582915
0
ARC
8
DEFAULT_255_2_778
10
17.2750843
20
5.6357239
40
1.0053593
50
317.7192728
51
340.1096646
0
ARC
8
DEFAULT_255_2_778
10
17.7004025
20
5.2457716
40
0.4283453
50
270.9051828
51
318.0363545
0
ARC
8
DEFAULT_255_2_778
10
17.7013292
20
5.2798
40
0.4623572
50
202.1573423
51
270.723749
0
ARC
8
DEFAULT_255_2_778
10
18.0926282
20
5.4804523
40
0.9012481
50
187.8959141
51
204.5901234
0
ARC
8
DEFAULT_255_2_778
10
18.6026968
20
5.5628036
40
1.4178406
50
179.7544612
51
188.3606563
0
ARC
8
DEFAULT_255_2_778
10
20.0502161
20
5.576191
40
2.865356
50
172.1217994
51
180.1461982
0
ARC
8
DEFAULT_255_2_778
10
19.5028063
20
5.6530393
40
2.3125797
50
162.2846597
51
172.1488232
0
ARC
8
DEFAULT_255_2_778
10
19.1133145
20
5.7781321
40
1.9034935
50
150.1354901
51
162.3040209
0
ARC
8
DEFAULT_255_2_778
10
18.8748177
20
5.9152366
40
1.6283965
50
134.8656558
51
150.1403497
0
ARC
8
DEFAULT_255_2_778
10
18.7608677
20
6.0293317
40
1.4671446
50
115.6495531
51
134.854895
0
ARC
8
DEFAULT_255_2_778
10
18.7189878
20
6.1131124
40
1.3734923
50
102.3092116
51
115.5875154
0
ARC
8
DEFAULT_255_2_778
10
18.7011794
20
6.1918888
40
1.2927306
50
93.2537752
51
102.2824038
0
ARC
8
DEFAULT_255_2_778
10
18.6971134
20
6.2481682
40
1.2363114
50
90.0066708
51
93.2136782
0
ARC
8
DEFAULT_255_2_778
10
18.6969692
20
6.7951496
40
0.68933
50
89.5139865
51
89.9999828
0
ARC
8
DEFAULT_255_2_778
10
18.6705138
20
6.099366
40
1.3854655
50
83.2505577
51
88.6640083
0
ARC
8
DEFAULT_255_2_778
10
18.9897568
20
8.7542407
40
1.2885395
50
263.0278222
51
268.808794
0
ARC
8
DEFAULT_255_2_778
10
18.9722682
20
7.5690905
40
0.1035293
50
264.84684
51
2.9090586
0
ARC
8
DEFAULT_255_2_778
10
18.4131304
20
7.6665386
40
0.6689175
50
352.0779597
51
0.8772271
0
ARC
8
DEFAULT_255_2_778
10
18.7098955
20
7.6876466
40
0.3722326
50
358.3270728
51
41.0900367
0
ARC
8
DEFAULT_255_2_778
10
18.6945191
20
7.6509407
40
0.4083239
50
43.5545761
51
85.0039837
0
ARC
8
DEFAULT_255_2_778
10
18.6612508
20
7.4773042
40
0.5844759
50
83.2371671
51
90.0766004
0
ARC
8
DEFAULT_255_2_778
10
18.6700894
20
5.9855926
40
2.0762094
50
90.2654783
51
130.9638029
0
ARC
8
DEFAULT_255_2_778
10
18.7826071
20
5.844299
40
2.2566811
50
130.7691987
51
149.929647
0
ARC
8
DEFAULT_255_2_778
10
18.9881963
20
5.7250562
40
2.4943483
50
149.9254923
51
164.5489256
0
ARC
8
DEFAULT_255_2_778
10
19.3385456
20
5.6275187
40
2.858021
50
164.5354175
51
176.1425694
0
ARC
8
DEFAULT_255_2_778
10
19.675839
20
5.5976194
40
3.1965698
50
176.0145808
51
180.0222207
0
ARC
8
DEFAULT_255_2_778
10
18.555658
20
5.583657
40
2.0764276
50
179.6489345
51
193.2784951
0
ARC
8
DEFAULT_255_2_778
10
17.9237329
20
5.4289885
40
1.4258822
50
193.0619094
51
211.9386323
0
ARC
8
DEFAULT_255_2_778
10
17.5323164
20
5.1747112
40
0.9592444
50
211.417775
51
262.3348528
0
ARC
8
DEFAULT_255_2_778
10
17.5677147
20
5.3823966
40
1.1698189
50
261.9733754
51
270.1055325
0
ARC
8
DEFAULT_255_2_778
10
17.5754708
20
5.2033225
40
0.9907587
50
269.6760694
51
290.5939601
0
ARC
8
DEFAULT_255_2_778
10
17.5226893
20
5.2918656
40
1.0923617
50
291.5519823
51
319.908907
0
ARC
8
DEFAULT_255_2_778
10
19.0283399
20
5.0078563
40
0.7904563
50
212.0511811
51
252.1408966
0
ARC
8
DEFAULT_255_2_778
10
19.0594813
20
5.105789
40
0.8932205
50
252.1661021
51
270.287893
0
ARC
8
DEFAULT_255_2_778
10
19.0694011
20
5.2292152
40
1.01665
50
269.693884
51
289.4929019
0
ARC
8
DEFAULT_255_2_778
10
18.946054
20
5.4329837
40
1.250831
50
291.7050477
51
329.2179201
0
ARC
8
DEFAULT_255_2_778
10
17.9463355
20
6.1176275
40
2.461283
50
327.4353818
51
339.1407323
0
ARC
8
DEFAULT_255_2_778
10
17.1366315
20
6.4492948
40
3.3360853
50
338.7695058
51
342.4879581
0
ARC
8
DEFAULT_255_2_778
10
16.7410671
20
6.5756098
40
3.7513261
50
342.4660721
51
345.2167561
0
ARC
8
DEFAULT_255_2_778
10
16.5742683
20
6.6208508
40
3.9241475
50
345.19949
51
345.5611757
0
ARC
8
DEFAULT_255_2_778
10
20.1096225
20
5.7146015
40
0.2745175
50
344.7467268
51
356.4390351
0
ARC
8
DEFAULT_255_2_778
10
20.1890715
20
5.7054898
40
0.1947005
50
357.6631462
51
0.291281
0
ARC
8
DEFAULT_255_2_778
10
20.0867704
20
5.7050547
40
0.2970024
50
0.2748933
51
12.6242305
0
ARC
8
DEFAULT_255_2_778
10
19.9411865
20
5.6643861
40
0.4480242
50
13.630386
51
62.9366193
0
ARC
8
DEFAULT_255_2_778
10
20.0436531
20
5.8339782
40
0.2507777
50
66.1567082
51
71.2928525
0
ARC
8
DEFAULT_255_2_778
10
20.0610624
20
5.890947
40
0.1912433
50
70.7589445
51
89.3987065
0
ARC
8
DEFAULT_255_2_778
10
20.0630694
20
5.9306187
40
0.1515609
50
90.0000016
51
90.3723501
0
ARC
8
DEFAULT_255_2_778
10
20.0693475
20
5.9048959
40
0.1774293
50
92.3460372
51
145.49795
0
ARC
8
DEFAULT_255_2_778
10
20.2469931
20
5.7672197
40
0.4020176
50
143.6683911
51
165.1996473
0
ARC
8
DEFAULT_255_2_778
10
20.5076372
20
5.683547
40
0.67554
50
163.9854622
51
169.4719395
0
ARC
8
DEFAULT_255_2_778
10
15.0846804
20
6.7777632
40
4.8567987
50
346.6823268
51
348.4699786
0
ARC
8
DEFAULT_255_2_778
10
16.3453512
20
6.4782776
40
3.5610438
50
344.0278157
51
346.6990025
0
ARC
8
DEFAULT_255_2_778
10
17.9715595
20
5.9820765
40
1.8613093
50
331.5844215
51
344.9378033
0
ARC
8
DEFAULT_255_2_778
10
18.9888633
20
5.4328208
40
0.705201
50
311.5499498
51
331.5018186
0
ARC
8
DEFAULT_255_2_778
10
19.2263269
20
5.1639343
40
0.3464698
50
270.5362193
51
311.6545673
0
LINE
8
DEFAULT_255_2_778
10
18.9163694
20
5.2418797
11
18.9163694
21
6.7536797
0
LINE
8
DEFAULT_255_2_778
10
18.2204694
20
6.7049797
11
18.2204694
21
5.2936797
0
LINE
8
DEFAULT_255_2_778
10
19.2295694
20
4.8174797
11
19.2280694
21
4.8203797
0
ARC
8
DEFAULT_255_2_778
10
21.8826111
20
5.2288589
40
1.0133474
50
269.6910577
51
288.9709321
0
ARC
8
DEFAULT_255_2_778
10
21.76692
20
5.4190545
40
1.2317413
50
291.1845703
51
328.9583829
0
ARC
8
DEFAULT_255_2_778
10
20.7122509
20
6.1441042
40
2.5104462
50
327.1923783
51
338.9930358
0
ARC
8
DEFAULT_255_2_778
10
19.7208827
20
6.5530276
40
3.5826135
50
338.5714953
51
342.0419813
0
ARC
8
DEFAULT_255_2_778
10
19.1127237
20
6.7517934
40
4.2224283
50
342.020612
51
344.4725639
0
ARC
8
DEFAULT_255_2_778
10
18.766345
20
6.8503047
40
4.582537
50
344.4451778
51
344.7561135
0
ARC
8
DEFAULT_255_2_778
10
23.3225847
20
5.6386563
40
0.1351073
50
164.7302503
51
177.1278589
0
ARC
8
DEFAULT_255_2_778
10
23.0411127
20
5.7118907
40
0.155754
50
346.0107222
51
359.0933645
0
ARC
8
DEFAULT_255_2_778
10
22.8998481
20
5.7080012
40
0.2970024
50
0.2748933
51
12.6242305
0
ARC
8
DEFAULT_255_2_778
10
22.7542642
20
5.6673326
40
0.4480242
50
13.630386
51
62.9366193
0
ARC
8
DEFAULT_255_2_778
10
22.8567308
20
5.8369247
40
0.2507777
50
66.1567082
51
71.2928525
0
ARC
8
DEFAULT_255_2_778
10
22.8741402
20
5.8938935
40
0.1912433
50
70.7589445
51
89.3987065
0
ARC
8
DEFAULT_255_2_778
10
22.8761471
20
5.9338492
40
0.151277
50
90.0000056
51
90.5589744
0
ARC
8
DEFAULT_255_2_778
10
22.8825629
20
5.9076817
40
0.1776128
50
92.546571
51
145.5543977
0
ARC
8
DEFAULT_255_2_778
10
23.0607627
20
5.7698117
40
0.4027568
50
143.7186099
51
165.186748
0
ARC
8
DEFAULT_255_2_778
10
23.3217326
20
5.6860157
40
0.6766281
50
163.9766938
51
169.4479124
0
ARC
8
DEFAULT_255_2_778
10
17.5061977
20
6.8568857
40
5.2556849
50
346.8582324
51
348.5095176
0
ARC
8
DEFAULT_255_2_778
10
19.3083179
20
6.4353219
40
3.4049142
50
344.0792671
51
346.8715419
0
ARC
8
DEFAULT_255_2_778
10
20.9937209
20
5.9202956
40
1.6432148
50
329.4315746
51
345.2283429
0
ARC
8
DEFAULT_255_2_778
10
21.888734
20
5.3889837
40
0.602385
50
300.6857173
51
329.650087
0
ARC
8
DEFAULT_255_2_778
10
21.9994152
20
5.2286799
40
0.4082625
50
269.6255552
51
298.8081906
0
ARC
8
DEFAULT_255_2_778
10
22.0028717
20
5.1676069
40
0.3472347
50
193.470953
51
268.9893623
0
ARC
8
DEFAULT_255_2_778
10
22.3504229
20
5.3093736
40
0.7204996
50
179.5345845
51
198.0007725
0
ARC
8
DEFAULT_255_2_778
10
25.1667759
20
5.3081665
40
3.5368358
50
175.380072
51
179.8856345
0
ARC
8
DEFAULT_255_2_778
10
25.9650609
20
5.2502431
40
4.3371976
50
173.772298
51
175.4667737
0
ARC
8
DEFAULT_255_2_778
10
27.4485758
20
5.0663554
40
5.831947
50
168.0382052
51
173.5574289
0
ARC
8
DEFAULT_255_2_778
10
29.6963822
20
4.612672
40
8.1250047
50
166.1859784
51
168.193675
0
ARC
8
DEFAULT_255_2_778
10
31.0772541
20
4.2780239
40
9.5458416
50
165.4789861
51
166.2144505
0
ARC
8
DEFAULT_255_2_778
10
31.1804346
20
4.2528738
40
9.6520323
50
165.4594169
51
165.4880346
0
ARC
8
DEFAULT_255_2_778
10
37.3105665
20
2.6611444
40
15.985445
50
165.4362131
51
165.4533929
0
ARC
8
DEFAULT_255_2_778
10
30.9313619
20
4.3174582
40
9.3947223
50
165.4010122
51
165.4300757
0
ARC
8
DEFAULT_255_2_778
10
30.8106997
20
4.349308
40
9.2699283
50
165.3742515
51
165.4035361
0
ARC
8
DEFAULT_255_2_778
10
36.6548614
20
2.8240649
40
15.309845
50
165.3560862
51
165.3737152
0
ARC
8
DEFAULT_255_2_778
10
34.6569708
20
3.3442727
40
13.2453403
50
165.3281301
51
165.3483888
0
ARC
8
DEFAULT_255_2_778
10
34.4752249
20
3.3904475
40
13.0578256
50
165.3017143
51
165.3221448
0
ARC
8
DEFAULT_255_2_778
10
31.1196364
20
4.2707368
40
9.5886927
50
165.274484
51
165.3021445
0
ARC
8
DEFAULT_255_2_778
10
30.2336432
20
4.504022
40
8.6725016
50
165.2468108
51
165.2772157
0
ARC
8
DEFAULT_255_2_778
10
30.1222667
20
4.534054
40
8.5571491
50
165.2207234
51
165.2513587
0
ARC
8
DEFAULT_255_2_778
10
33.7794342
20
3.5696572
40
12.3393357
50
165.2016384
51
165.2227597
0
ARC
8
DEFAULT_255_2_778
10
35.2393035
20
3.1824848
40
13.8496731
50
165.1769186
51
165.1956268
0
ARC
8
DEFAULT_255_2_778
10
30.5214305
20
4.4311308
40
8.9693614
50
165.1487973
51
165.1775159
0
ARC
8
DEFAULT_255_2_778
10
30.4057023
20
4.4622912
40
8.8495124
50
165.1228204
51
165.1517576
0
ARC
8
DEFAULT_255_2_778
10
34.6813493
20
3.3268606
40
13.2733524
50
165.1053421
51
165.1245219
0
ARC
8
DEFAULT_255_2_778
10
30.1831738
20
4.5235407
40
8.6187175
50
165.0776294
51
165.1069942
0
ARC
8
DEFAULT_255_2_778
10
34.324341
20
3.4202893
40
12.9043247
50
165.0596746
51
165.079172
0
ARC
8
DEFAULT_255_2_778
10
34.1452534
20
3.4666705
40
12.7193335
50
165.0338935
51
165.0535581
0
ARC
8
DEFAULT_255_2_778
10
29.857009
20
4.6133962
40
8.2804125
50
165.0066226
51
165.0366511
0
ARC
8
DEFAULT_255_2_778
10
33.8041898
20
3.5568349
40
12.3665546
50
164.9892912
51
165.0092793
0
ARC
8
DEFAULT_255_2_778
10
33.6358368
20
3.601154
40
12.1924677
50
164.9653941
51
164.985548
0
ARC
8
DEFAULT_255_2_778
10
33.4751861
20
3.644593
40
12.0260481
50
164.9464105
51
164.9667226
0
ARC
8
DEFAULT_255_2_778
10
33.3100452
20
3.6881606
40
11.8552587
50
164.9219733
51
164.9424561
0
ARC
8
DEFAULT_255_2_778
10
33.1524603
20
3.7308635
40
11.6919907
50
164.9025009
51
164.9231468
0
ARC
8
DEFAULT_255_2_778
10
32.9931795
20
3.7732601
40
11.5271647
50
164.8789333
51
164.8997503
0
ARC
8
DEFAULT_255_2_778
10
32.8412651
20
3.8148134
40
11.3696706
50
164.8604038
51
164.8813839
0
ARC
8
DEFAULT_255_2_778
10
32.6850269
20
3.8564883
40
11.2079706
50
164.8363002
51
164.8574566
0
ARC
8
DEFAULT_255_2_778
10
32.5386342
20
3.8969161
40
11.0561
50
164.8187487
51
164.8400681
0
ARC
8
DEFAULT_255_2_778
10
32.3879741
20
3.9374653
40
10.9000787
50
164.7955725
51
164.8170684
0
ARC
8
DEFAULT_255_2_778
10
32.2443625
20
3.9772064
40
10.7510714
50
164.7775634
51
164.7992273
0
ARC
8
DEFAULT_255_2_778
10
33.7139497
20
3.5767315
40
12.2742476
50
164.7560942
51
164.7749565
0
ARC
8
DEFAULT_255_2_778
10
33.5525034
20
3.6211763
40
12.106796
50
164.7391301
51
164.7581392
0
ARC
8
DEFAULT_255_2_778
10
33.3859675
20
3.665848
40
11.9343742
50
164.716418
51
164.7355864
0
ARC
8
DEFAULT_255_2_778
10
41.4088669
20
1.471977
40
20.2518248
50
164.7010282
51
164.7122565
0
ARC
8
DEFAULT_255_2_778
10
31.5453056
20
4.1697998
40
10.0259708
50
164.6765429
51
164.6990875
0
ARC
8
DEFAULT_255_2_778
10
40.8002239
20
1.6331371
40
19.6222289
50
164.6630355
51
164.6744856
0
ARC
8
DEFAULT_255_2_778
10
32.7604247
20
3.8375633
40
11.2856909
50
164.6403584
51
164.660147
0
ARC
8
DEFAULT_255_2_778
10
40.2127755
20
1.7894575
40
19.0143564
50
164.6256825
51
164.6373572
0
ARC
8
DEFAULT_255_2_778
10
31.0243956
20
4.3158078
40
9.4849927
50
164.6017165
51
164.6249797
0
ARC
8
DEFAULT_255_2_778
10
32.312318
20
3.9613476
40
10.8208018
50
164.5827302
51
164.6029988
0
ARC
8
DEFAULT_255_2_778
10
30.7760436
20
4.3861792
40
9.2268699
50
164.5661252
51
164.589752
0
ARC
8
DEFAULT_255_2_778
10
30.6523254
20
4.4209251
40
9.0983663
50
164.5458872
51
164.5697032
0
ARC
8
DEFAULT_255_2_778
10
44.9579582
20
0.4658572
40
23.9406604
50
164.5366595
51
164.5456558
0
ARC
8
DEFAULT_255_2_778
10
31.7497161
20
4.1192264
40
10.2364726
50
164.5130425
51
164.5339557
0
ARC
8
DEFAULT_255_2_778
10
44.2203532
20
0.6633737
40
23.1770949
50
164.5026807
51
164.5118614
0
ARC
8
DEFAULT_255_2_778
10
31.4818078
20
4.1952238
40
9.9579987
50
164.4802257
51
164.5014643
0
ARC
8
DEFAULT_255_2_778
10
33.0999254
20
3.7460578
40
11.6373004
50
164.4630121
51
164.4810758
0
ARC
8
DEFAULT_255_2_778
10
43.1577287
20
0.9488927
40
22.0768187
50
164.451308
51
164.4607721
0
ARC
8
DEFAULT_255_2_778
10
31.0918712
20
4.3061395
40
9.5526012
50
164.4298174
51
164.451557
0
ARC
8
DEFAULT_255_2_778
10
32.6411261
20
3.874927
40
11.1607476
50
164.4136888
51
164.4321829
0
ARC
8
DEFAULT_255_2_778
10
42.1631663
20
1.2184858
40
21.0463902
50
164.4031754
51
164.4129231
0
ARC
8
DEFAULT_255_2_778
10
41.8364513
20
1.3068695
40
20.7079424
50
164.3858211
51
164.3956677
0
ARC
8
DEFAULT_255_2_778
10
30.5983896
20
4.4478752
40
9.039183
50
164.3651369
51
164.3875573
0
ARC
8
DEFAULT_255_2_778
10
32.0599515
20
4.03959
40
10.5567005
50
164.3499713
51
164.3690517
0
ARC
8
DEFAULT_255_2_778
10
40.9164773
20
1.558724
40
19.754132
50
164.3405587
51
164.3506932
0
ARC
8
DEFAULT_255_2_778
10
40.6141054
20
1.6413156
40
19.4406903
50
164.3241648
51
164.3343997
0
ARC
8
DEFAULT_255_2_778
10
50.1286009
20
-1.0325643
40
29.3237693
50
164.3102624
51
164.3170064
0
ARC
8
DEFAULT_255_2_778
10
30.0216591
20
4.6157225
40
8.4385533
50
164.2893633
51
164.3126552
0
ARC
8
DEFAULT_255_2_778
10
29.9109862
20
4.6481019
40
8.3232473
50
164.2741671
51
164.2976371
0
ARC
8
DEFAULT_255_2_778
10
29.8013699
20
4.6801975
40
8.2090351
50
164.2587829
51
164.2824337
0
ARC
8
DEFAULT_255_2_778
10
31.1232212
20
4.3088899
40
9.582046
50
164.2459791
51
164.2661168
0
ARC
8
DEFAULT_255_2_778
10
30.9977497
20
4.3453834
40
9.4513795
50
164.2320912
51
164.2523819
0
ARC
8
DEFAULT_255_2_778
10
40.7520611
20
1.5918519
40
19.5868878
50
164.2196439
51
164.234232
0
ARC
8
DEFAULT_255_2_778
10
37.6375986
20
2.4707834
40
16.3507795
50
164.1982179
51
164.2155322
0
ARC
8
DEFAULT_255_2_778
10
32.0659062
20
4.0475786
40
10.5602666
50
164.1715418
51
164.1981027
0
ARC
8
DEFAULT_255_2_778
10
31.8550204
20
4.1088319
40
10.3406698
50
164.1524798
51
164.1793542
0
ARC
8
DEFAULT_255_2_778
10
36.6056531
20
2.7608902
40
15.2788332
50
164.1366543
51
164.1546746
0
ARC
8
DEFAULT_255_2_778
10
36.2867321
20
2.8518239
40
14.9472017
50
164.1195375
51
164.1377872
0
ARC
8
DEFAULT_255_2_778
10
38.3234733
20
2.2710659
40
17.0651236
50
164.099413
51
164.1152496
0
ARC
8
DEFAULT_255_2_778
10
32.0182389
20
4.067858
40
10.5088715
50
164.0772328
51
164.1027109
0
ARC
8
DEFAULT_255_2_778
10
37.6079327
20
2.4745341
40
16.3212168
50
164.065517
51
164.0817695
0
ARC
8
DEFAULT_255_2_778
10
40.3252421
20
1.6975506
40
19.1474284
50
164.0484281
51
164.0621529
0
ARC
8
DEFAULT_255_2_778
10
36.9163561
20
2.6713184
40
15.6021884
50
164.0296335
51
164.0463202
0
ARC
8
DEFAULT_255_2_778
10
39.5036862
20
1.9305801
40
18.2934651
50
164.0146872
51
164.0287864
0
ARC
8
DEFAULT_255_2_778
10
39.1102247
20
2.0427595
40
17.8843246
50
163.9987531
51
164.0130404
0
ARC
8
DEFAULT_255_2_778
10
31.8689619
20
4.119736
40
10.3510837
50
163.9764651
51
164.0009199
0
ARC
8
DEFAULT_255_2_778
10
38.3437503
20
2.2613213
40
17.0872984
50
163.9652687
51
163.9799445
0
ARC
8
DEFAULT_255_2_778
10
31.4614265
20
4.2401986
40
9.92613
50
163.9451618
51
163.9701891
0
ARC
8
DEFAULT_255_2_778
10
37.629801
20
2.4669256
40
16.3443337
50
163.9364072
51
163.9514644
0
ARC
8
DEFAULT_255_2_778
10
47.50663
20
-0.3793031
40
26.6230867
50
163.9211233
51
163.9318036
0
ARC
8
DEFAULT_255_2_778
10
46.788212
20
-0.1750639
40
25.8762063
50
163.9042239
51
163.9150923
0
ARC
8
DEFAULT_255_2_778
10
46.0985133
20
0.0217092
40
25.1589901
50
163.8882599
51
163.8993158
0
ARC
8
DEFAULT_255_2_778
10
34.8689321
20
3.2650985
40
13.4704031
50
163.8663836
51
163.8868066
0
ARC
8
DEFAULT_255_2_778
10
36.4308795
20
2.8149115
40
15.0959325
50
163.8543351
51
163.8723591
0
ARC
8
DEFAULT_255_2_778
10
36.0622223
20
2.9221615
40
14.7119918
50
163.8380044
51
163.8562957
0
ARC
8
DEFAULT_255_2_778
10
38.868749
20
2.1096517
40
17.6337659
50
163.8244676
51
163.8406362
0
LINE
8
DEFAULT_255_2_778
10
21.9330556
20
7.0220838
11
21.9337871
21
7.0246052
0
ARC
8
DEFAULT_255_2_778
10
38.1652882
20
2.3146665
40
16.9010399
50
163.8021476
51
163.8187134
0
ARC
8
DEFAULT_255_2_778
10
36.4957124
20
2.8003615
40
15.1622522
50
163.7858562
51
163.8047106
0
ARC
8
DEFAULT_255_2_778
10
48.4582626
20
-0.6782038
40
27.6203027
50
163.7757904
51
163.7860142
0
ARC
8
DEFAULT_255_2_778
10
43.4609944
20
0.7746825
40
22.4161154
50
163.7599925
51
163.7727363
0
ARC
8
DEFAULT_255_2_778
10
43.1540168
20
0.8641003
40
22.0963799
50
163.7471261
51
163.7599927
0
ARC
8
DEFAULT_255_2_778
10
42.5181734
20
1.0492708
40
21.4341224
50
163.7335277
51
163.7466242
0
ARC
8
DEFAULT_255_2_778
10
46.8833659
20
-0.224409
40
25.9813375
50
163.7229014
51
163.7335691
0
ARC
8
DEFAULT_255_2_778
10
41.3104176
20
1.4021029
40
20.1758837
50
163.7073901
51
163.7209535
0
ARC
8
DEFAULT_255_2_778
10
40.7371948
20
1.5701075
40
19.5785483
50
163.6948899
51
163.7086901
0
ARC
8
DEFAULT_255_2_778
10
44.6690439
20
0.4207934
40
23.6749321
50
163.6855262
51
163.6967938
0
ARC
8
DEFAULT_255_2_778
10
33.966683
20
3.5547643
40
12.5231476
50
163.670847
51
163.6918781
0
ARC
8
DEFAULT_255_2_778
10
50.2748835
20
-1.2193394
40
29.5157773
50
163.6690353
51
163.6778451
0
ARC
8
DEFAULT_255_2_778
10
49.3552576
20
-0.9521853
40
28.5581351
50
163.6556118
51
163.6646014
0
ARC
8
DEFAULT_255_2_778
10
61.039061
20
-4.377793
40
40.7337686
50
163.6504739
51
163.6566962
0
ARC
8
DEFAULT_255_2_778
10
47.7676683
20
-0.4850052
40
26.9032349
50
163.6401616
51
163.6494628
0
ARC
8
DEFAULT_255_2_778
10
58.5178152
20
-3.6429873
40
38.1076315
50
163.6304643
51
163.6369471
0
ARC
8
DEFAULT_255_2_778
10
57.4391073
20
-3.3254111
40
36.9831473
50
163.6249374
51
163.6315321
0
LINE
8
DEFAULT_255_2_778
10
21.956116
20
7.101022
11
21.9910333
21
7.2195297
0
ARC
8
DEFAULT_255_2_778
10
12.8777726
20
9.9046387
40
9.5005964
50
343.5830457
51
344.0452946
0
ARC
8
DEFAULT_255_2_778
10
19.4780041
20
8.0217329
40
2.6370451
50
343.9610107
51
345.4381905
0
ARC
8
DEFAULT_255_2_778
10
21.471024
20
7.5085893
40
0.5790472
50
344.9994739
51
349.963187
0
ARC
8
DEFAULT_255_2_778
10
21.93954
20
7.4255916
40
0.1032366
50
350.0043312
51
358.6315808
0
ARC
8
DEFAULT_255_2_778
10
21.8677056
20
7.4534655
40
0.1776514
50
350.1668131
51
0.1280189
0
ARC
8
DEFAULT_255_2_778
10
21.7953695
20
7.4498644
40
0.2500191
50
0.9162512
51
20.1206489
0
ARC
8
DEFAULT_255_2_778
10
21.6643603
20
7.4067926
40
0.387877
50
19.4376248
51
26.5181205
0
ARC
8
DEFAULT_255_2_778
10
21.4074188
20
7.265426
40
0.6810058
50
27.5088017
51
43.2709378
0
ARC
8
DEFAULT_255_2_778
10
21.1721506
20
7.0611562
40
0.992405
50
42.547432
51
50.1007961
0
ARC
8
DEFAULT_255_2_778
10
21.2674746
20
7.1806541
40
0.8395921
50
49.8605446
51
57.7560115
0
ARC
8
DEFAULT_255_2_778
10
21.4802037
20
7.5211453
40
0.4381171
50
57.5287226
51
66.9743276
0
ARC
8
DEFAULT_255_2_778
10
21.592831
20
7.7932355
40
0.1436775
50
65.8687806
51
85.0478193
0
ARC
8
DEFAULT_255_2_778
10
21.6027255
20
7.8729835
40
0.0634427
50
87.7341295
51
89.9804716
0
ARC
8
DEFAULT_255_2_778
10
21.10984
20
10.2655893
40
2.3292231
50
267.0160228
51
270.4109774
0
ARC
8
DEFAULT_255_2_778
10
21.1702153
20
11.1857811
40
3.2513336
50
264.5433914
51
266.7976591
0
ARC
8
DEFAULT_255_2_778
10
21.505786
20
14.7651741
40
6.8464195
50
263.283768
51
264.5962913
0
ARC
8
DEFAULT_255_2_778
10
21.9901241
20
18.9918625
40
11.1007548
50
263.0180169
51
263.3524448
0
ARC
8
DEFAULT_255_2_778
10
19.8291318
20
7.7633088
40
0.8383727
50
14.5145121
51
28.6380966
0
ARC
8
DEFAULT_255_2_778
10
20.0491934
20
7.8846251
40
0.5870895
50
28.5400341
51
50.267845
0
ARC
8
DEFAULT_255_2_778
10
20.0847801
20
7.9190159
40
0.5379215
50
50.8414323
51
78.5818341
0
ARC
8
DEFAULT_255_2_778
10
20.0645803
20
7.8323743
40
0.6268529
50
78.3398271
51
90.1035734
0
ARC
8
DEFAULT_255_2_778
10
20.0409795
20
8.0228443
40
0.4369599
50
87.0526673
51
174.7286068
0
ARC
8
DEFAULT_255_2_778
10
20.0455633
20
8.0378092
40
0.440416
50
176.7224154
51
180.0107994
0
ARC
8
DEFAULT_255_2_778
10
20.24369
20
8.0514791
40
0.6386909
50
181.233843
51
239.8999447
0
ARC
8
DEFAULT_255_2_778
10
20.5364377
20
8.419463
40
1.1060061
50
236.3375186
51
241.1072589
0
ARC
8
DEFAULT_255_2_778
10
3.8121669
20
7.7744609
40
16.1931086
50
358.2939078
51
358.8558746
0
ARC
8
DEFAULT_255_2_778
10
3.5536694
20
7.7806928
40
16.4516771
50
357.4962609
51
358.2990168
0
ARC
8
DEFAULT_255_2_778
10
5.8100885
20
7.6774221
40
14.1929014
50
356.2376031
51
357.5148365
0
ARC
8
DEFAULT_255_2_778
10
10.35426
20
7.3687234
40
9.6382724
50
354.0575235
51
356.2961528
0
ARC
8
DEFAULT_255_2_778
10
14.5074214
20
6.9361253
40
5.4626419
50
351.4153754
51
354.0606383
0
ARC
8
DEFAULT_255_2_778
10
16.978377
20
6.5619159
40
2.9635116
50
348.0081477
51
351.4381393
0
ARC
8
DEFAULT_255_2_778
10
18.2351569
20
6.2974321
40
1.6792075
50
344.7775178
51
347.925834
0
ARC
8
DEFAULT_255_2_778
10
20.1298683
20
5.7837991
40
0.2838947
50
165.1567033
51
169.9606593
0
ARC
8
DEFAULT_255_2_778
10
20.1335894
20
5.7832731
40
0.2876507
50
169.9866933
51
180.0364654
0
ARC
8
DEFAULT_255_2_778
10
20.2338854
20
5.8020333
40
0.3884089
50
182.7955102
51
242.2518884
0
ARC
8
DEFAULT_255_2_778
10
20.1918581
20
5.7201743
40
0.2963977
50
242.0744113
51
255.9398595
0
ARC
8
DEFAULT_255_2_778
10
20.1748436
20
5.6533752
40
0.2274665
50
256.0095245
51
269.7271375
0
ARC
8
DEFAULT_255_2_778
10
20.1759121
20
5.6018126
40
0.1759145
50
269.2991615
51
317.1401449
0
ARC
8
DEFAULT_255_2_778
10
20.1205897
20
5.6532643
40
0.2514647
50
317.1208999
51
335.5883486
0
ARC
8
DEFAULT_255_2_778
10
20.0102946
20
5.7068538
40
0.3740613
50
335.0959378
51
343.3899781
0
ARC
8
DEFAULT_255_2_778
10
17.3599651
20
6.5272911
40
3.148456
50
342.8696877
51
347.0034265
0
ARC
8
DEFAULT_255_2_778
10
15.4763656
20
6.9591736
40
5.0809322
50
347.0348746
51
350.9781931
0
ARC
8
DEFAULT_255_2_778
10
13.7786087
20
7.2449177
40
6.8025121
50
350.8435702
51
351.8475991
0
ARC
8
DEFAULT_255_2_778
10
12.0095973
20
7.487122
40
8.5879999
50
351.92166
51
354.8241708
0
ARC
8
DEFAULT_255_2_778
10
10.6712549
20
7.618084
40
9.9327044
50
354.7682588
51
356.1922859
0
ARC
8
DEFAULT_255_2_778
10
11.2429672
20
7.581772
40
9.3598429
50
356.1816674
51
357.2821428
0
ARC
8
DEFAULT_255_2_778
10
13.2895269
20
7.4867141
40
7.3110783
50
357.2657458
51
358.3950841
0
ARC
8
DEFAULT_255_2_778
10
14.9906632
20
7.435019
40
5.609163
50
358.4362541
51
358.4779081
0
ARC
8
DEFAULT_255_2_778
10
32.4656611
20
3.1494867
40
11.8179022
50
159.5112681
51
162.0700579
0
ARC
8
DEFAULT_255_2_778
10
28.5456264
20
4.4117098
40
7.6996712
50
162.0263305
51
166.0143727
0
ARC
8
DEFAULT_255_2_778
10
26.0101239
20
5.0384471
40
5.0878633
50
165.9623692
51
171.9776161
0
ARC
8
DEFAULT_255_2_778
10
24.5185763
20
5.2488491
40
3.5815489
50
171.9805384
51
179.8099969
0
ARC
8
DEFAULT_255_2_778
10
22.5257029
20
5.2528705
40
1.5886752
50
179.7166824
51
189.4491026
0
ARC
8
DEFAULT_255_2_778
10
22.0661641
20
5.1744386
40
1.122497
50
189.350864
51
203.0901844
0
ARC
8
DEFAULT_255_2_778
10
21.8150942
20
5.0669574
40
0.8493889
50
203.0627856
51
223.5088465
0
ARC
8
DEFAULT_255_2_778
10
21.8156794
20
5.0871861
40
0.8638579
50
224.4552429
51
258.8202663
0
ARC
8
DEFAULT_255_2_778
10
21.8692929
20
5.2710499
40
1.0547638
50
257.8996325
51
260.6961957
0
ARC
8
DEFAULT_255_2_778
10
21.8799563
20
5.3443317
40
1.1288062
50
260.7634184
51
270.0553703
0
LINE
8
DEFAULT_255_2_778
10
21.6027471
20
7.9364262
11
21.1265471
21
7.9364262
0
LINE
8
DEFAULT_255_2_778
10
20.5978471
20
7.2860262
11
21.3953471
21
7.2860262
0
LINE
8
DEFAULT_255_2_778
10
21.8810471
20
4.2155262
11
21.8771471
21
4.2155262
0
ARC
8
DEFAULT_255_2_778
10
23.1949884
20
4.6113538
40
0.5029823
50
179.1775957
51
197.0729752
0
ARC
8
DEFAULT_255_2_778
10
23.0235002
20
4.5582818
40
0.3234702
50
197.0045879
51
231.4092638
0
ARC
8
DEFAULT_255_2_778
10
23.0732377
20
4.6379624
40
0.4169146
50
232.8971078
51
260.2631053
0
ARC
8
DEFAULT_255_2_778
10
23.1281799
20
4.8906953
40
0.6753952
50
259.2953285
51
269.6779933
0
ARC
8
DEFAULT_255_2_778
10
23.1320786
20
5.0025995
40
0.7873264
50
269.4400426
51
269.9984922
0
ARC
8
DEFAULT_255_2_778
10
23.1404307
20
4.5279348
40
0.3127737
50
268.4660304
51
291.3025796
0
ARC
8
DEFAULT_255_2_778
10
23.1429154
20
4.4521794
40
0.2426047
50
297.2663548
51
3.1020788
0
ARC
8
DEFAULT_255_2_778
10
22.4276871
20
4.5440181
40
0.9607074
50
355.300524
51
358.8095134
0
ARC
8
DEFAULT_255_2_778
10
21.1831792
20
4.5717908
40
2.2055244
50
358.7598868
51
0.1334928
0
ARC
8
DEFAULT_255_2_778
10
12.8438059
20
4.5740185
40
10.5448922
50
0.0158169
51
0.1121533
0
ARC
8
DEFAULT_255_2_778
10
33.8485683
20
4.6152416
40
10.4599108
50
180.0168079
51
180.1127419
0
ARC
8
DEFAULT_255_2_778
10
25.1129384
20
5.7950344
40
1.7312456
50
169.3593804
51
174.8587673
0
ARC
8
DEFAULT_255_2_778
10
25.8278754
20
5.6293183
40
2.4646813
50
150.4734253
51
168.6420886
0
ARC
8
DEFAULT_255_2_778
10
25.8830504
20
5.6212466
40
2.5167493
50
144.6181007
51
150.9325786
0
ARC
8
DEFAULT_255_2_778
10
25.5222874
20
5.8743956
40
2.0760375
50
141.3546132
51
144.5492378
0
ARC
8
DEFAULT_255_2_778
10
25.1596243
20
6.1680555
40
1.6094005
50
136.0438899
51
141.4569085
0
ARC
8
DEFAULT_255_2_778
10
24.7644968
20
6.5507133
40
1.0593544
50
129.5306432
51
136.1089939
0
ARC
8
DEFAULT_255_2_778
10
24.4833624
20
6.8938214
40
0.615783
50
120.5290755
51
129.674917
0
ARC
8
DEFAULT_255_2_778
10
24.3282403
20
7.1612576
40
0.3066309
50
105.4832845
51
120.9464012
0
ARC
8
DEFAULT_255_2_778
10
24.2885278
20
7.298644
40
0.1636368
50
90.5497056
51
104.9248044
0
ARC
8
DEFAULT_255_2_778
10
24.2814397
20
7.2976631
40
0.1647025
50
8.179589
51
88.0799923
0
ARC
8
DEFAULT_255_2_778
10
23.6343492
20
7.0962105
40
0.8407521
50
2.4410998
51
15.5144776
0
ARC
8
DEFAULT_255_2_778
10
21.4746667
20
6.9590889
40
3.004652
50
359.6354796
51
3.2994514
0
ARC
8
DEFAULT_255_2_778
10
25.4822265
20
5.0679832
40
1.0030344
50
179.3436487
51
206.6068185
0
ARC
8
DEFAULT_255_2_778
10
25.2263641
20
4.9334382
40
0.7140324
50
206.1490423
51
263.0088408
0
ARC
8
DEFAULT_255_2_778
10
25.2455259
20
5.0557172
40
0.8377447
50
262.7259689
51
270.0705829
0
ARC
8
DEFAULT_255_2_778
10
25.251548
20
5.2456357
40
1.0276747
50
269.7217864
51
290.3014707
0
ARC
8
DEFAULT_255_2_778
10
25.1094736
20
5.4872251
40
1.3044875
50
292.4729261
51
328.8315665
0
ARC
8
DEFAULT_255_2_778
10
24.1610477
20
6.1486761
40
2.4594925
50
327.0816175
51
338.4838136
0
ARC
8
DEFAULT_255_2_778
10
23.5167814
20
6.4211394
40
3.1588387
50
338.172148
51
342.1112463
0
ARC
8
DEFAULT_255_2_778
10
23.2879568
20
6.4963527
40
3.3997043
50
342.0895211
51
345.128363
0
ARC
8
DEFAULT_255_2_778
10
23.2510617
20
6.5065757
40
3.4379875
50
345.1215097
51
345.5344394
0
ARC
8
DEFAULT_255_2_778
10
26.3165584
20
5.7198018
40
0.2731668
50
344.711474
51
356.4413563
0
ARC
8
DEFAULT_255_2_778
10
26.3947619
20
5.710783
40
0.1945985
50
357.6625318
51
0.2915394
0
ARC
8
DEFAULT_255_2_778
10
26.2923589
20
5.7103482
40
0.2970024
50
0.2748933
51
12.6242305
0
ARC
8
DEFAULT_255_2_778
10
26.146775
20
5.6696796
40
0.4480242
50
13.630386
51
62.9366193
0
ARC
8
DEFAULT_255_2_778
10
26.2492416
20
5.8392717
40
0.2507777
50
66.1567082
51
71.2928525
0
ARC
8
DEFAULT_255_2_778
10
26.2666509
20
5.8962405
40
0.1912433
50
70.7589445
51
89.3987065
0
ARC
8
DEFAULT_255_2_778
10
26.2686579
20
5.9361962
40
0.151277
50
90.0000056
51
90.5589744
0
ARC
8
DEFAULT_255_2_778
10
26.2750757
20
5.9100045
40
0.177637
50
92.5468656
51
145.5441114
0
ARC
8
DEFAULT_255_2_778
10
26.4531122
20
5.7722113
40
0.402605
50
143.7092303
51
165.178617
0
ARC
8
DEFAULT_255_2_778
10
26.713699
20
5.6884992
40
0.6760863
50
163.9694543
51
169.4424999
0
ARC
8
DEFAULT_255_2_778
10
22.4607827
20
6.5453248
40
3.6623677
50
346.1996058
51
348.455407
0
ARC
8
DEFAULT_255_2_778
10
22.9782558
20
6.416535
40
3.1291115
50
343.041775
51
346.2295235
0
ARC
8
DEFAULT_255_2_778
10
24.2197527
20
6.0094692
40
1.823071
50
330.0178879
51
343.8983116
0
ARC
8
DEFAULT_255_2_778
10
25.1730895
20
5.4602367
40
0.722841
50
310.0470777
51
329.9643423
0
ARC
8
DEFAULT_255_2_778
10
25.4079983
20
5.1796562
40
0.3569084
50
270.6838216
51
310.1600463
0
ARC
8
DEFAULT_255_2_778
10
25.4075052
20
5.0132634
40
0.1905495
50
233.4287378
51
271.4292289
0
ARC
8
DEFAULT_255_2_778
10
25.4993231
20
5.0928986
40
0.3103286
50
189.3581801
51
228.5686228
0
ARC
8
DEFAULT_255_2_778
10
25.9422961
20
5.2082126
40
0.7672934
50
183.5091309
51
192.4772469
0
ARC
8
DEFAULT_255_2_778
10
26.2719007
20
5.2329561
40
1.0978039
50
180.4499782
51
183.7451867
0
ARC
8
DEFAULT_255_2_778
10
27.2001634
20
5.2416811
40
2.026107
50
179.9266984
51
180.4905449
0
ARC
8
DEFAULT_255_2_778
10
23.5116455
20
7.1440965
40
1.6624147
50
359.9061405
51
6.171949
0
ARC
8
DEFAULT_255_2_778
10
24.2623794
20
7.2697415
40
0.9036058
50
3.3679872
51
42.861845
0
ARC
8
DEFAULT_255_2_778
10
24.4946599
20
7.4343867
40
0.6224678
50
46.2991145
51
73.4905731
0
ARC
8
DEFAULT_255_2_778
10
24.4273343
20
7.2077289
40
0.8589133
50
73.4812402
51
89.1197051
0
ARC
8
DEFAULT_255_2_778
10
24.4135853
20
6.973985
40
1.0928881
50
88.5872481
51
90.0066802
0
ARC
8
DEFAULT_255_2_778
10
24.4348043
20
7.2267484
40
0.8403959
50
91.4554913
51
136.5601778
0
ARC
8
DEFAULT_255_2_778
10
25.0861319
20
6.5275272
40
1.7951002
50
134.6493937
51
148.136048
0
ARC
8
DEFAULT_255_2_778
10
26.1978512
20
5.8106296
40
3.1178184
50
147.7320698
51
154.3678279
0
ARC
8
DEFAULT_255_2_778
10
23.0022839
20
7.5662171
40
0.3846186
50
0.8724012
51
65.9519566
0
ARC
8
DEFAULT_255_2_778
10
22.9042268
20
7.3828755
40
0.5921914
50
64.516581
51
89.3274966
0
ARC
8
DEFAULT_255_2_778
10
22.8921007
20
7.2390741
40
0.7361992
50
88.5151655
51
90.0033325
0
ARC
8
DEFAULT_255_2_778
10
22.8822563
20
7.6772146
40
0.2982197
50
88.1165062
51
126.1878015
0
ARC
8
DEFAULT_255_2_778
10
22.7838779
20
7.8137412
40
0.1299507
50
126.7213763
51
178.7512853
0
ARC
8
DEFAULT_255_2_778
10
22.8304089
20
7.8167201
40
0.176451
50
180.0477083
51
184.4547307
0
ARC
8
DEFAULT_255_2_778
10
23.1043821
20
7.8522569
40
0.4525782
50
186.246331
51
194.689375
0
ARC
8
DEFAULT_255_2_778
10
21.1214174
20
7.378948
40
1.5862324
50
12.0915554
51
13.0637734
0
ARC
8
DEFAULT_255_2_778
10
21.8951993
20
7.54399
40
0.7950458
50
6.4730435
51
12.1425184
0
ARC
8
DEFAULT_255_2_778
10
21.7499504
20
7.5301389
40
0.9409338
50
0.7976615
51
6.3139955
0
ARC
8
DEFAULT_255_2_778
10
21.5111996
20
7.523507
40
1.1797583
50
359.9934996
51
0.9582915
0
ARC
8
DEFAULT_255_2_778
10
6.0711579
20
5.7730985
40
5.9436756
50
77.3699582
51
90.0327756
0
ARC
8
DEFAULT_255_2_778
10
6.0780042
20
5.818072
40
5.8982943
50
59.1095433
51
77.3393298
0
ARC
8
DEFAULT_255_2_778
10
6.0486828
20
5.764496
40
5.9593247
50
20.0437212
51
59.1320757
0
ARC
8
DEFAULT_255_2_778
10
6.1065023
20
5.7943743
40
5.8947727
50
5.65332
51
19.9635164
0
ARC
8
DEFAULT_255_2_778
10
6.0077323
20
5.7835801
40
5.9941257
50
359.9913315
51
5.6629935
0
ARC
8
DEFAULT_255_2_778
10
6.0549419
20
5.7793283
40
5.9469169
50
347.7229739
51
0.0322269
0
ARC
8
DEFAULT_255_2_778
10
6.1068076
20
5.7710227
40
5.8944719
50
329.9596463
51
347.6946585
0
ARC
8
DEFAULT_255_2_778
10
6.049599
20
5.8024472
40
5.9597275
50
289.606443
51
329.9734503
0
ARC
8
DEFAULT_255_2_778
10
6.0786316
20
5.7460957
40
5.8969072
50
275.2198714
51
289.5244365
0
ARC
8
DEFAULT_255_2_778
10
6.0685311
20
5.8434251
40
5.994752
50
269.9926106
51
275.2313775
0
ARC
8
DEFAULT_255_2_778
10
6.0643539
20
5.7925964
40
5.9439242
50
257.3702324
51
270.0328124
0
ARC
8
DEFAULT_255_2_778
10
6.0574554
20
5.747397
40
5.8983111
50
239.109774
51
257.3396218
0
ARC
8
DEFAULT_255_2_778
10
6.0866938
20
5.800835
40
5.9591804
50
200.0363253
51
239.1323083
0
ARC
8
DEFAULT_255_2_778
10
6.0289237
20
5.7709797
40
5.8946836
50
185.6511887
51
199.9560833
0
ARC
8
DEFAULT_255_2_778
10
6.127603
20
5.7817641
40
5.9939452
50
179.9913101
51
185.6608899
0
ARC
8
DEFAULT_255_2_778
10
6.0863165
20
5.7860681
40
5.9526596
50
167.7351522
51
180.0326771
0
ARC
8
DEFAULT_255_2_778
10
6.0299699
20
5.7954343
40
5.89561
50
149.9777254
51
167.7077723
0
ARC
8
DEFAULT_255_2_778
10
6.0827256
20
5.7665498
40
5.9557397
50
109.8341066
51
149.9910638
0
ARC
8
DEFAULT_255_2_778
10
6.0558185
20
5.8173712
40
5.8988091
50
95.5914537
51
109.755748
0
ARC
8
DEFAULT_255_2_778
10
6.0668554
20
5.715972
40
6.0008013
50
89.9913828
51
95.6020003
0
LINE
8
DEFAULT_255_2_778
10
23.3886579
20
4.6121732
11
23.3886579
21
5.9501732
0
LINE
8
DEFAULT_255_2_778
10
24.4792579
20
6.9399732
11
24.4792579
21
5.0794732
0
LINE
8
DEFAULT_255_2_778
10
25.1740579
20
5.2442732
11
25.1740579
21
7.1413732
0
LINE
8
DEFAULT_255_2_778
10
23.3868579
20
7.1593732
11
23.3868579
21
7.5720732
0
LINE
8
DEFAULT_255_2_778
10
22.6909579
20
7.5233732
11
22.6920579
21
4.6185732
0
LINE
8
DEFAULT_255_2_778
10
6.0677579
20
11.7167732
11
6.0677579
21
11.7167732
0
ARC
8
DEFAULT_255_2_778
10
9.4907871
20
3.9057293
40
0.6189045
50
7.2632722
51
83.1069178
0
ARC
8
DEFAULT_255_2_778
10
9.4470795
20
3.7503709
40
0.7787788
50
81.2860117
51
90.0643161
0
ARC
8
DEFAULT_255_2_778
10
9.4462332
20
3.709701
40
0.8194481
50
90.0019503
51
90.7626971
0
ARC
8
DEFAULT_255_2_778
10
9.4682334
20
2.7928202
40
1.7365682
50
91.0858218
51
107.3611055
0
ARC
8
DEFAULT_255_2_778
10
9.6835292
20
2.098768
40
2.4632449
50
107.3235938
51
117.1085836
0
ARC
8
DEFAULT_255_2_778
10
10.1496418
20
1.1494165
40
3.5207467
50
116.8206791
51
119.2975694
0
ARC
8
DEFAULT_255_2_778
10
10.849086
20
-0.0942208
40
4.9475804
50
119.3138984
51
121.1051929
0
ARC
8
DEFAULT_255_2_778
10
13.727835
20
-4.8666553
40
10.5210288
50
121.1016609
51
121.7756934
0
ARC
8
DEFAULT_255_2_778
10
40.2341915
20
-47.8080615
40
60.9843839
50
121.701231
51
121.716898
0
ARC
8
DEFAULT_255_2_778
10
6.7116887
20
6.3915413
40
2.7444639
50
295.0870129
51
302.1796959
0
ARC
8
DEFAULT_255_2_778
10
5.2714303
20
4.0884772
40
2.6102828
50
355.9908355
51
358.8697357
0
ARC
8
DEFAULT_255_2_778
10
5.3233627
20
4.0871796
40
2.558335
50
358.8758492
51
359.9992415
0
ARC
8
DEFAULT_255_2_778
10
5.3929842
20
4.0882367
40
2.4887137
50
359.9748839
51
7.0573352
0
ARC
8
DEFAULT_255_2_778
10
5.4561575
20
4.0954891
40
2.4251281
50
7.0706633
51
15.3498505
0
ARC
8
DEFAULT_255_2_778
10
5.4440228
20
4.0918963
40
2.4377811
50
15.3557833
51
19.4260184
0
ARC
8
DEFAULT_255_2_778
10
4.9514228
20
3.8861488
40
2.9709214
50
20.0084726
51
24.5640333
0
ARC
8
DEFAULT_255_2_778
10
5.1958532
20
3.9976871
40
2.7022451
50
24.5676037
51
29.0864481
0
ARC
8
DEFAULT_255_2_778
10
5.3664512
20
4.0918388
40
2.507392
50
29.1014062
51
32.5319508
0
ARC
8
DEFAULT_255_2_778
10
5.5103093
20
4.1843351
40
2.3363648
50
32.5167377
51
37.3135933
0
ARC
8
DEFAULT_255_2_778
10
5.6389553
20
4.2820449
40
2.1748193
50
37.3207269
51
41.6127002
0
ARC
8
DEFAULT_255_2_778
10
5.7161097
20
4.3499539
40
2.0720369
50
41.6255701
51
44.6208087
0
ARC
8
DEFAULT_255_2_778
10
1.4964073
20
9.7210762
40
6.9108784
50
325.4865684
51
326.7701466
0
ARC
8
DEFAULT_255_2_778
10
3.8537159
20
8.1739384
40
4.0912099
50
326.8029888
51
329.1302952
0
ARC
8
DEFAULT_255_2_778
10
4.3446668
20
7.8769417
40
3.5174249
50
329.1795256
51
330.1412964
0
ARC
8
DEFAULT_255_2_778
10
4.6537484
20
7.7028031
40
3.1626762
50
330.0895292
51
335.1145297
0
ARC
8
DEFAULT_255_2_778
10
4.8065305
20
7.6298496
40
2.993381
50
335.1506716
51
340.915668
0
ARC
8
DEFAULT_255_2_778
10
4.7158972
20
7.6598994
40
3.0888584
50
340.9385804
51
346.7243391
0
ARC
8
DEFAULT_255_2_778
10
4.5479798
20
7.7010312
40
3.2617341
50
346.69847
51
349.0127701
0
ARC
8
DEFAULT_255_2_778
10
5.2662371
20
7.5800601
40
2.5336518
50
348.6025679
51
352.7311634
0
ARC
8
DEFAULT_255_2_778
10
4.5237931
20
7.6752742
40
3.282176
50
352.7222427
51
356.9998347
0
ARC
8
DEFAULT_255_2_778
10
4.0600199
20
7.7028059
40
3.746756
50
356.9505844
51
0.0138087
0
ARC
8
DEFAULT_255_2_778
10
3.9675178
20
7.703772
40
3.8392579
50
359.9990587
51
2.8520181
0
ARC
8
DEFAULT_255_2_778
10
4.4995431
20
7.7430727
40
3.305961
50
2.6305208
51
11.6584115
0
ARC
8
DEFAULT_255_2_778
10
5.6450202
20
7.976796
40
2.1368869
50
11.7273866
51
19.6149251
0
ARC
8
DEFAULT_255_2_778
10
6.3421077
20
8.2228861
40
1.3976415
50
19.705141
51
27.2060599
0
ARC
8
DEFAULT_255_2_778
10
7.2623817
20
8.6969324
40
0.3624501
50
27.0701488
51
75.0270547
0
ARC
8
DEFAULT_255_2_778
10
7.145486
20
8.3003234
40
0.7758654
50
74.2547435
51
75.8512144
0
ARC
8
DEFAULT_255_2_778
10
7.2489308
20
8.709093
40
0.3542103
50
75.9137861
51
85.0503903
0
ARC
8
DEFAULT_255_2_778
10
7.2465305
20
8.677256
40
0.3861359
50
85.1031403
51
90.0586986
0
ARC
8
DEFAULT_255_2_778
10
7.2485692
20
8.5663656
40
0.4970321
50
90.2806174
51
99.4514458
0
ARC
8
DEFAULT_255_2_778
10
7.285592
20
8.3373602
40
0.7290092
50
99.3661576
51
106.1001336
0
ARC
8
DEFAULT_255_2_778
10
0.9967628
20
6.0872162
40
6.7641162
50
25.8621746
51
27.3741039
0
ARC
8
DEFAULT_255_2_778
10
3.6385442
20
7.4606193
40
3.7866675
50
27.299555
51
29.9158312
0
ARC
8
DEFAULT_255_2_778
10
5.3671851
20
8.4598761
40
1.7900003
50
29.7879712
51
34.1915305
0
ARC
8
DEFAULT_255_2_778
10
6.244047
20
9.0603976
40
0.7272332
50
33.8789658
51
42.1973668
0
ARC
8
DEFAULT_255_2_778
10
6.5039649
20
9.2916519
40
0.3793604
50
42.6900398
51
56.2274977
0
ARC
8
DEFAULT_255_2_778
10
11.3778371
20
16.2506891
40
8.1167795
50
234.9205251
51
234.9362623
0
ARC
8
DEFAULT_255_2_778
10
6.4525888
20
9.2104664
40
0.4754789
50
56.788212
51
89.7247949
0
ARC
8
DEFAULT_255_2_778
10
6.4548978
20
9.2259558
40
0.4599839
50
90.0031366
51
95.1487358
0
ARC
8
DEFAULT_255_2_778
10
6.4569581
20
9.2102513
40
0.4758105
50
95.2261246
51
110.3458526
0
ARC
8
DEFAULT_255_2_778
10
6.512427
20
9.0736611
40
0.6231812
50
110.7612187
51
136.8184436
0
ARC
8
DEFAULT_255_2_778
10
6.8940909
20
8.6990316
40
1.1579121
50
136.2247312
51
148.233703
0
ARC
8
DEFAULT_255_2_778
10
7.707402
20
8.1849679
40
2.1200418
50
147.9935529
51
155.0554447
0
ARC
8
DEFAULT_255_2_778
10
5.8482752
20
7.1746814
40
1.7691202
50
94.0533168
51
100.255997
0
ARC
8
DEFAULT_255_2_778
10
5.8406227
20
7.2133268
40
1.7297299
50
100.2344808
51
108.5447357
0
ARC
8
DEFAULT_255_2_778
10
5.8204447
20
7.2736866
40
1.6660867
50
108.5470356
51
118.6090279
0
ARC
8
DEFAULT_255_2_778
10
5.8142168
20
7.2862641
40
1.6520628
50
118.6282746
51
121.6960252
0
ARC
8
DEFAULT_255_2_778
10
5.8240142
20
7.2709967
40
1.6702008
50
121.70681
51
128.3931136
0
ARC
8
DEFAULT_255_2_778
10
5.8666931
20
7.2177482
40
1.7384411
50
128.4056453
51
135.0696151
0
ARC
8
DEFAULT_255_2_778
10
5.9212308
20
7.1620755
40
1.8163709
50
135.0413127
51
137.2780421
0
ARC
8
DEFAULT_255_2_778
10
4.3025532
20
8.6906498
40
0.4105953
50
291.5860689
51
313.8157548
0
ARC
8
DEFAULT_255_2_778
10
3.6734719
20
10.0717984
40
1.9278483
50
290.5033903
51
293.8703285
0
ARC
8
DEFAULT_255_2_778
10
4.5220377
20
7.7943856
40
0.5015984
50
109.8852375
51
153.4906808
0
ARC
8
DEFAULT_255_2_778
10
5.3415144
20
7.3065545
40
1.4543799
50
150.7014362
51
157.4149619
0
ARC
8
DEFAULT_255_2_778
10
6.7492259
20
6.6986397
40
2.9876785
50
157.01882
51
158.6919447
0
ARC
8
DEFAULT_255_2_778
10
8.2735283
20
6.1000224
40
4.6253084
50
158.6449779
51
159.338081
0
ARC
8
DEFAULT_255_2_778
10
4.8649549
20
7.3817308
40
0.9837302
50
159.1366638
51
171.6601259
0
ARC
8
DEFAULT_255_2_778
10
4.9032488
20
7.3767025
40
1.0223487
50
171.6925852
51
180.0505834
0
ARC
8
DEFAULT_255_2_778
10
5.1456813
20
7.3903408
40
1.2648643
50
180.6586859
51
200.6121721
0
ARC
8
DEFAULT_255_2_778
10
5.6233524
20
7.5561022
40
1.7703598
50
200.191133
51
209.4350033
0
ARC
8
DEFAULT_255_2_778
10
5.8348961
20
7.6686907
40
2.0099349
50
209.2666641
51
210.4057844
0
ARC
8
DEFAULT_255_2_778
10
5.8567927
20
7.6814099
40
2.0352573
50
210.4026183
51
210.7965377
0
ARC
8
DEFAULT_255_2_778
10
6.3007174
20
4.1841714
40
3.2914644
50
131.7608773
51
134.3574764
0
ARC
8
DEFAULT_255_2_778
10
6.2202753
20
4.2650492
40
3.1773978
50
134.3399661
51
137.7261243
0
ARC
8
DEFAULT_255_2_778
10
5.8083864
20
4.6276013
40
2.6287607
50
137.5342903
51
146.5833592
0
ARC
8
DEFAULT_255_2_778
10
5.1731966
20
5.046748
40
1.8677415
50
146.5846769
51
156.8751775
0
ARC
8
DEFAULT_255_2_778
10
5.8145277
20
4.8029225
40
2.5534511
50
157.4953695
51
167.0830834
0
ARC
8
DEFAULT_255_2_778
10
6.0858022
20
4.7375268
40
2.8324812
50
167.0203608
51
173.3984629
0
ARC
8
DEFAULT_255_2_778
10
6.1360956
20
4.7298719
40
2.8833217
50
173.3622539
51
178.0546415
0
ARC
8
DEFAULT_255_2_778
10
5.9614145
20
4.736242
40
2.7085252
50
178.0638767
51
179.9879234
0
ARC
8
DEFAULT_255_2_778
10
5.7941643
20
4.7366646
40
2.5412748
50
179.9966574
51
180.8398473
0
ARC
8
DEFAULT_255_2_778
10
5.6557367
20
4.7345921
40
2.4028318
50
180.8388166
51
181.6697647
0
ARC
8
DEFAULT_255_2_778
10
4.7881388
20
3.212276
40
2.1125784
50
136.5710901
51
139.1197247
0
ARC
8
DEFAULT_255_2_778
10
4.7653933
20
3.2312206
40
2.0829823
50
139.1042425
51
142.4158046
0
ARC
8
DEFAULT_255_2_778
10
4.7032957
20
3.2797441
40
2.0041771
50
142.4323232
51
142.9536398
0
ARC
8
DEFAULT_255_2_778
10
4.4617899
20
3.4517766
40
1.7077963
50
142.6788546
51
153.6531695
0
ARC
8
DEFAULT_255_2_778
10
3.9047122
20
3.7171059
40
1.0908726
50
153.1560218
51
174.6310975
0
ARC
8
DEFAULT_255_2_778
10
4.6083644
20
3.6863155
40
1.7946637
50
175.7544421
51
178.9404129
0
ARC
8
DEFAULT_255_2_778
10
4.5716602
20
3.6872442
40
1.7579486
50
178.9485532
51
179.9986708
0
ARC
8
DEFAULT_255_2_778
10
4.5053791
20
3.686001
40
1.6916679
50
179.9565142
51
188.0514036
0
ARC
8
DEFAULT_255_2_778
10
4.4244127
20
3.6748423
40
1.6099367
50
188.0617776
51
195.467853
0
ARC
8
DEFAULT_255_2_778
10
4.3550712
20
3.6556264
40
1.5379818
50
195.4668613
51
201.8430879
0
ARC
8
DEFAULT_255_2_778
10
4.2931511
20
3.6315208
40
1.4715384
50
201.8689158
51
203.8231105
0
ARC
8
DEFAULT_255_2_778
10
4.2267492
20
3.6016809
40
1.3987414
50
203.8035842
51
207.5356662
0
ARC
8
DEFAULT_255_2_778
10
4.1044353
20
3.5377771
40
1.2607402
50
207.5302487
51
210.7191302
0
ARC
8
DEFAULT_255_2_778
10
3.9569483
20
3.4503017
40
1.0892633
50
210.7264798
51
213.0106464
0
ARC
8
DEFAULT_255_2_778
10
3.5817024
20
3.2020262
40
0.6393456
50
212.673314
51
223.6674108
0
ARC
8
DEFAULT_255_2_778
10
3.750054
20
2.6633898
40
0.6382711
50
171.2417518
51
179.7947592
0
ARC
8
DEFAULT_255_2_778
10
3.6227664
20
2.6642735
40
0.5109814
50
179.8427236
51
191.3768668
0
ARC
8
DEFAULT_255_2_778
10
3.6331964
20
2.6616104
40
0.520702
50
190.8631847
51
244.1333343
0
ARC
8
DEFAULT_255_2_778
10
4.0589879
20
3.4331416
40
1.4014711
50
242.2307243
51
258.5883909
0
ARC
8
DEFAULT_255_2_778
10
4.0398185
20
3.3291197
40
1.2957139
50
258.509197
51
267.4010285
0
ARC
8
DEFAULT_255_2_778
10
4.0326594
20
3.2145673
40
1.1809563
50
267.4959944
51
269.9911815
0
ARC
8
DEFAULT_255_2_778
10
4.0465665
20
2.9749215
40
0.941416
50
269.1425012
51
295.7341352
0
ARC
8
DEFAULT_255_2_778
10
4.9287613
20
2.5789191
40
0.6545868
50
223.675784
51
241.6170982
0
ARC
8
DEFAULT_255_2_778
10
5.0343806
20
2.7753888
40
0.8776465
50
241.6478666
51
256.0016493
0
ARC
8
DEFAULT_255_2_778
10
5.1322872
20
3.1581538
40
1.2727298
50
255.8931329
51
266.2092395
0
ARC
8
DEFAULT_255_2_778
10
5.1678378
20
3.5783459
40
1.6943703
50
265.9491098
51
270.0638304
0
ARC
8
DEFAULT_255_2_778
10
5.181385
20
3.0130086
40
1.1290889
50
270.5754792
51
272.3087725
0
ARC
8
DEFAULT_255_2_778
10
5.0098304
20
7.8309412
40
5.9500648
50
272.0904338
51
272.636846
0
ARC
8
DEFAULT_255_2_778
10
4.7083664
20
14.5080706
40
12.6339949
50
272.6094582
51
272.9125371
0
ARC
8
DEFAULT_255_2_778
10
4.3315561
20
21.9016602
40
20.0371802
50
272.9143796
51
273.2823779
0
ARC
8
DEFAULT_255_2_778
10
4.0344702
20
27.1332289
40
25.277177
50
273.2757019
51
273.5856566
0
ARC
8
DEFAULT_255_2_778
10
3.9781454
20
28.0586559
40
26.204315
50
273.582022
51
274.0898622
0
ARC
8
DEFAULT_255_2_778
10
4.2537818
20
24.2470369
40
22.3827443
50
274.081962
51
274.7209623
0
ARC
8
DEFAULT_255_2_778
10
4.896658
20
16.6069156
40
14.7156374
50
274.6746716
51
276.0188558
0
ARC
8
DEFAULT_255_2_778
10
5.6035945
20
9.8759603
40
7.9476609
50
276.0386079
51
277.4217716
0
ARC
8
DEFAULT_255_2_778
10
6.0784512
20
6.2416167
40
4.2824272
50
277.4027524
51
279.2678983
0
ARC
8
DEFAULT_255_2_778
10
6.4339748
20
4.0747355
40
2.0865756
50
279.2156016
51
282.0232955
0
ARC
8
DEFAULT_255_2_778
10
6.6369968
20
3.10911
40
1.0998448
50
282.1577278
51
284.1800383
0
ARC
8
DEFAULT_255_2_778
10
6.7257987
20
2.8558538
40
0.8328989
50
282.5249702
51
309.4142733
0
ARC
8
DEFAULT_255_2_778
10
5.511635
20
7.7661292
40
5.8208404
50
287.42395
51
288.4191386
0
ARC
8
DEFAULT_255_2_778
10
5.289925
20
8.4306573
40
6.521378
50
288.422509
51
289.9947335
0
ARC
8
DEFAULT_255_2_778
10
5.1642106
20
8.7785281
40
6.8912666
50
289.9879828
51
292.0178598
0
ARC
8
DEFAULT_255_2_778
10
5.2176659
20
8.6502378
40
6.7522928
50
292.0054616
51
294.7596873
0
ARC
8
DEFAULT_255_2_778
10
5.5106152
20
8.0243001
40
6.0612062
50
294.7231217
51
299.0653986
0
ARC
8
DEFAULT_255_2_778
10
5.8439743
20
7.4140638
40
5.3658737
50
299.1196388
51
300.8524665
0
ARC
8
DEFAULT_255_2_778
10
6.0485032
20
7.0721672
40
4.9674702
50
300.8495645
51
302.8659271
0
ARC
8
DEFAULT_255_2_778
10
13.64806
20
-4.6464829
40
8.9996459
50
121.9541245
51
123.0172803
0
ARC
8
DEFAULT_255_2_778
10
11.4438442
20
-1.1051704
40
4.8283832
50
119.9704484
51
122.0014575
0
ARC
8
DEFAULT_255_2_778
10
10.3454329
20
0.8061253
40
2.6239469
50
116.2099682
51
120.0416071
0
ARC
8
DEFAULT_255_2_778
10
9.9669717
20
1.5702773
40
1.7712131
50
110.9317057
51
116.1436047
0
ARC
8
DEFAULT_255_2_778
10
10.0645058
20
1.2842853
40
2.0732057
50
104.8128158
51
110.6256454
0
ARC
8
DEFAULT_255_2_778
10
10.4923828
20
-0.2515715
40
3.6674724
50
104.4863718
51
105.1408438
0
ARC
8
DEFAULT_255_2_778
10
10.8777208
20
-1.748029
40
5.2127455
50
103.7850526
51
104.4726172
0
ARC
8
DEFAULT_255_2_778
10
11.3693673
20
-3.7391212
40
7.2636374
50
103.7360147
51
103.8090929
0
ARC
8
DEFAULT_255_2_778
10
9.5097182
20
3.9089424
40
0.6073387
50
282.834078
51
0.1984876
0
ARC
8
DEFAULT_255_2_778
10
9.4723457
20
3.9108168
40
0.6447075
50
0.0204
51
7.0886229
0
ARC
8
DEFAULT_255_2_778
10
10.8488085
20
-1.7698785
40
5.568323
50
103.3855714
51
103.7653303
0
ARC
8
DEFAULT_255_2_778
10
10.3412027
20
0.2652924
40
3.4708339
50
103.6206196
51
106.3776719
0
ARC
8
DEFAULT_255_2_778
10
9.9599281
20
1.5617484
40
2.119476
50
106.371039
51
111.7322771
0
ARC
8
DEFAULT_255_2_778
10
9.9840921
20
1.5237351
40
2.1637508
50
111.9539474
51
117.8607071
0
ARC
8
DEFAULT_255_2_778
10
10.5992153
20
0.3539843
40
3.4853744
50
117.8141819
51
120.9233027
0
ARC
8
DEFAULT_255_2_778
10
12.0114093
20
-2.0162748
40
6.2444313
50
120.8628013
51
122.5020524
0
ARC
8
DEFAULT_255_2_778
10
14.2263586
20
-5.5110789
40
10.3820149
50
122.4477709
51
123.119729
0
ARC
8
DEFAULT_255_2_778
10
6.0240205
20
7.0964065
40
4.6588571
50
300.451348
51
302.8872975
0
ARC
8
DEFAULT_255_2_778
10
5.6057873
20
7.8219473
40
5.4962847
50
295.3722748
51
300.3766379
0
ARC
8
DEFAULT_255_2_778
10
5.2435146
20
8.5715554
40
6.3288238
50
292.4086178
51
295.4277106
0
ARC
8
DEFAULT_255_2_778
10
5.1667497
20
8.7525103
40
6.5253783
50
290.2279484
51
292.4260607
0
ARC
8
DEFAULT_255_2_778
10
5.2957449
20
8.4009141
40
6.1508661
50
288.8007896
51
290.2328593
0
ARC
8
DEFAULT_255_2_778
10
5.5296753
20
7.7142185
40
5.4254185
50
287.8351499
51
288.7992935
0
ARC
8
DEFAULT_255_2_778
10
5.9068357
20
6.535607
40
4.1879331
50
286.6488403
51
287.8618229
0
ARC
8
DEFAULT_255_2_778
10
6.4789289
20
4.6199523
40
2.1886777
50
285.7660804
51
286.6680726
0
ARC
8
DEFAULT_255_2_778
10
6.9374123
20
2.9979987
40
0.5031691
50
285.4346661
51
285.7054072
0
ARC
8
DEFAULT_255_2_778
10
6.9594754
20
2.592113
40
0.1370146
50
317.3566873
51
324.7197435
0
ARC
8
DEFAULT_255_2_778
10
6.8379535
20
2.7015781
40
0.3005651
50
307.5725661
51
317.7001793
0
ARC
8
DEFAULT_255_2_778
10
6.7715344
20
2.7851563
40
0.4073111
50
300.0914858
51
307.8088084
0
ARC
8
DEFAULT_255_2_778
10
6.725058
20
2.865825
40
0.5004102
50
291.1387822
51
300.0647722
0
ARC
8
DEFAULT_255_2_778
10
6.6823448
20
2.9757758
40
0.6183661
50
283.007463
51
291.1561721
0
ARC
8
DEFAULT_255_2_778
10
6.5281262
20
3.6160721
40
1.2769588
50
279.6435977
51
283.2831788
0
ARC
8
DEFAULT_255_2_778
10
6.2333192
20
5.3094114
40
2.9957631
50
277.788107
51
279.7769919
0
ARC
8
DEFAULT_255_2_778
10
5.8548061
20
8.0489183
40
5.7612945
50
276.5049541
51
277.8258118
0
ARC
8
DEFAULT_255_2_778
10
5.3367811
20
12.589524
40
10.3313547
50
275.4110315
51
276.5065552
0
ARC
8
DEFAULT_255_2_778
10
4.6400042
20
19.9267221
40
17.7015632
50
274.5273024
51
275.4167743
0
ARC
8
DEFAULT_255_2_778
10
3.9586581
20
28.4424914
40
26.2445444
50
273.9030407
51
274.5426616
0
ARC
8
DEFAULT_255_2_778
10
3.6772245
20
32.4766708
40
30.2885245
50
273.5352068
51
273.9147337
0
ARC
8
DEFAULT_255_2_778
10
3.8226838
20
30.099984
40
27.907391
50
273.2695109
51
273.5380163
0
ARC
8
DEFAULT_255_2_778
10
4.1615014
20
24.1655985
40
21.9633411
50
273.0528648
51
273.2700022
0
ARC
8
DEFAULT_255_2_778
10
4.624594
20
15.4153733
40
13.2008717
50
272.6969795
51
273.0683954
0
ARC
8
DEFAULT_255_2_778
10
4.9986413
20
7.4730198
40
5.2497151
50
272.2770441
51
272.6979061
0
ARC
8
DEFAULT_255_2_778
10
5.1530171
20
3.5368362
40
1.3105079
50
271.3208333
51
272.3704475
0
ARC
8
DEFAULT_255_2_778
10
5.1685021
20
3.8300182
40
1.6034093
50
270.0001672
51
270.5261274
0
ARC
8
DEFAULT_255_2_778
10
5.1586619
20
3.4276521
40
1.2010834
50
260.1525764
51
270.4696357
0
ARC
8
DEFAULT_255_2_778
10
5.0534867
20
2.8496003
40
0.6135792
50
243.7908015
51
260.5974736
0
ARC
8
DEFAULT_255_2_778
10
4.8912758
20
2.5362323
40
0.2608866
50
206.6664503
51
245.3578995
0
ARC
8
DEFAULT_255_2_778
10
4.8330485
20
2.49797
40
0.1918501
50
202.7509314
51
204.2585203
0
ARC
8
DEFAULT_255_2_778
10
5.133276
20
2.6248981
40
0.5178055
50
194.9172426
51
202.8556811
0
ARC
8
DEFAULT_255_2_778
10
5.0346725
20
2.5987991
40
0.4158067
50
184.9130166
51
194.9397655
0
ARC
8
DEFAULT_255_2_778
10
4.9859777
20
2.5937454
40
0.3668588
50
180.0242864
51
184.7779546
0
ARC
8
DEFAULT_255_2_778
10
4.9534481
20
2.5946269
40
0.3343308
50
156.8205003
51
180.1777145
0
ARC
8
DEFAULT_255_2_778
10
5.006395
20
2.5678851
40
0.3935473
50
134.7062784
51
156.2756257
0
ARC
8
DEFAULT_255_2_778
10
5.0715972
20
2.5086228
40
0.4815568
50
132.3050428
51
135.2597018
0
ARC
8
DEFAULT_255_2_778
10
5.1060576
20
2.4694199
40
0.5337454
50
123.2146774
51
132.2083533
0
ARC
8
DEFAULT_255_2_778
10
5.103241
20
2.4756093
40
0.5270252
50
118.2452912
51
123.3270887
0
ARC
8
DEFAULT_255_2_778
10
5.0265034
20
2.6196846
40
0.3637895
50
114.8755869
51
118.3370838
0
ARC
8
DEFAULT_255_2_778
10
4.9235903
20
2.8410921
40
0.1196333
50
113.5319413
51
114.7653201
0
ARC
8
DEFAULT_255_2_778
10
5.5073166
20
3.9285719
40
1.1639866
50
236.2508264
51
237.1443453
0
ARC
8
DEFAULT_255_2_778
10
5.7357341
20
4.2758465
40
1.5796397
50
233.6043259
51
236.359902
0
ARC
8
DEFAULT_255_2_778
10
5.4902496
20
3.9383942
40
1.162354
50
233.1788351
51
233.4746796
0
ARC
8
DEFAULT_255_2_778
10
5.3479227
20
3.7498396
40
0.9261155
50
231.3309446
51
233.2363538
0
ARC
8
DEFAULT_255_2_778
10
5.1138672
20
3.4586663
40
0.5525344
50
228.1360285
51
231.415127
0
ARC
8
DEFAULT_255_2_778
10
4.9146264
20
3.2164135
40
0.2395239
50
221.9074606
51
224.9553283
0
ARC
8
DEFAULT_255_2_778
10
5.1495996
20
3.4213482
40
0.5512966
50
217.1642865
51
221.4472495
0
ARC
8
DEFAULT_255_2_778
10
4.2996769
20
2.7969904
40
0.5034392
50
35.35607
51
43.5358927
0
ARC
8
DEFAULT_255_2_778
10
4.6442078
20
3.1256233
40
0.0273243
50
41.5975392
51
80.8775747
0
ARC
8
DEFAULT_255_2_778
10
4.6491714
20
3.1420773
40
0.0105437
50
93.4335654
51
160.6165049
0
ARC
8
DEFAULT_255_2_778
10
5.1209448
20
2.9525378
40
0.5189582
50
158.1626095
51
163.1892576
0
ARC
8
DEFAULT_255_2_778
10
5.788258
20
2.7480613
40
1.2168938
50
163.0600708
51
165.566116
0
ARC
8
DEFAULT_255_2_778
10
6.5162486
20
2.5546193
40
1.9701327
50
165.3952495
51
165.4903649
0
ARC
8
DEFAULT_255_2_778
10
6.9064709
20
2.4537118
40
2.3731908
50
165.4922555
51
165.5704694
0
ARC
8
DEFAULT_255_2_778
10
7.1034151
20
2.4034715
40
2.5764417
50
165.5798275
51
165.6511737
0
ARC
8
DEFAULT_255_2_778
10
6.6680828
20
2.5149106
40
2.1270722
50
165.6532382
51
165.7388026
0
ARC
8
DEFAULT_255_2_778
10
7.3051582
20
2.352889
40
2.7844276
50
165.7369574
51
165.801662
0
ARC
8
DEFAULT_255_2_778
10
7.4214119
20
2.3237619
40
2.9042744
50
165.8071336
51
165.8685305
0
ARC
8
DEFAULT_255_2_778
10
7.5510768
20
2.2912813
40
3.0379455
50
165.8715425
51
165.9296236
0
ARC
8
DEFAULT_255_2_778
10
7.0460081
20
2.4176372
40
2.5173112
50
165.9245223
51
165.9938701
0
ARC
8
DEFAULT_255_2_778
10
7.6445409
20
2.2677387
40
3.1343289
50
165.983237
51
166.038331
0
ARC
8
DEFAULT_255_2_778
10
8.0537415
20
2.1661989
40
3.5559393
50
166.0413753
51
166.0894042
0
ARC
8
DEFAULT_255_2_778
10
7.9926526
20
2.1813351
40
3.4930031
50
166.0895033
51
166.1378533
0
ARC
8
DEFAULT_255_2_778
10
8.2078802
20
2.1278327
40
3.7147807
50
166.1320154
51
166.1769659
0
ARC
8
DEFAULT_255_2_778
10
8.4640023
20
2.0647091
40
3.9785669
50
166.1755002
51
166.2169908
0
ARC
8
DEFAULT_255_2_778
10
8.7702832
20
1.9892028
40
4.2940175
50
166.2121604
51
166.2501583
0
ARC
8
DEFAULT_255_2_778
10
-5.2865937
20
5.3588438
40
10.1611624
50
345.8173485
51
346.6336343
0
ARC
8
DEFAULT_255_2_778
10
2.2314217
20
3.472387
40
2.4101266
50
344.2942317
51
345.5068489
0
ARC
8
DEFAULT_255_2_778
10
3.6163834
20
3.0578768
40
0.9649679
50
330.4860641
51
345.7270514
0
ARC
8
DEFAULT_255_2_778
10
4.1110898
20
2.789397
40
0.4023201
50
316.129454
51
329.0519395
0
ARC
8
DEFAULT_255_2_778
10
4.0594469
20
2.8746293
40
0.499278
50
270.4343447
51
313.1841284
0
ARC
8
DEFAULT_255_2_778
10
4.0234478
20
3.1540532
40
0.7797033
50
269.9807129
51
272.9247608
0
ARC
8
DEFAULT_255_2_778
10
4.0239231
20
3.2391532
40
0.8648036
50
265.3783412
51
269.9511211
0
ARC
8
DEFAULT_255_2_778
10
4.0479348
20
3.4526856
40
1.0795974
50
247.6875318
51
265.0212657
0
ARC
8
DEFAULT_255_2_778
10
4.004985
20
3.3535787
40
0.971607
50
242.4586805
51
247.8118066
0
ARC
8
DEFAULT_255_2_778
10
3.6659073
20
2.706218
40
0.2408248
50
224.9122165
51
242.7728787
0
ARC
8
DEFAULT_255_2_778
10
3.6177448
20
2.6573177
40
0.1721932
50
186.1448249
51
224.7036474
0
ARC
8
DEFAULT_255_2_778
10
3.6546988
20
2.6629257
40
0.2095416
50
179.9256753
51
186.5878313
0
ARC
8
DEFAULT_255_2_778
10
3.6902444
20
2.6627648
40
0.2450873
50
173.195818
51
179.8988457
0
ARC
8
DEFAULT_255_2_778
10
3.8902527
20
2.6216894
40
0.448879
50
148.2773932
51
171.0139036
0
ARC
8
DEFAULT_255_2_778
10
4.1039244
20
2.5104995
40
0.6893225
50
149.5397564
51
149.7547141
0
ARC
8
DEFAULT_255_2_778
10
4.1489703
20
2.4831875
40
0.7419971
50
144.5707905
51
149.4851731
0
ARC
8
DEFAULT_255_2_778
10
4.1111884
20
2.5111038
40
0.6950287
50
141.7533835
51
144.6404598
0
ARC
8
DEFAULT_255_2_778
10
3.8973014
20
2.6801165
40
0.4224251
50
139.9981864
51
141.7979317
0
ARC
8
DEFAULT_255_2_778
10
3.6673272
20
2.8727528
40
0.1224308
50
139.4314244
51
139.8736822
0
ARC
8
DEFAULT_255_2_778
10
3.5315073
20
3.0277005
40
0.0866434
50
295.110383
51
299.6162059
0
ARC
8
DEFAULT_255_2_778
10
3.4982418
20
3.0969079
40
0.1634284
50
288.9724568
51
295.3742211
0
ARC
8
DEFAULT_255_2_778
10
3.491355
20
3.1158478
40
0.1835788
50
277.041124
51
289.0832579
0
ARC
8
DEFAULT_255_2_778
10
3.4924347
20
3.1075367
40
0.175198
50
270.0250228
51
277.0238851
0
ARC
8
DEFAULT_255_2_778
10
3.4924142
20
3.1003813
40
0.1680426
50
245.441475
51
270.0330743
0
ARC
8
DEFAULT_255_2_778
10
3.5048048
20
3.1265571
40
0.1970007
50
230.150949
51
245.3278976
0
ARC
8
DEFAULT_255_2_778
10
3.5454776
20
3.1757377
40
0.2608204
50
219.3881055
51
230.2140778
0
ARC
8
DEFAULT_255_2_778
10
3.6075565
20
3.2279462
40
0.3419303
50
213.4087433
51
219.5484284
0
ARC
8
DEFAULT_255_2_778
10
4.2037852
20
3.5911254
40
1.0399133
50
200.7816607
51
212.0246052
0
ARC
8
DEFAULT_255_2_778
10
4.3912329
20
3.6648218
40
1.2413159
50
188.7478034
51
200.8921522
0
ARC
8
DEFAULT_255_2_778
10
4.4823802
20
3.6802363
40
1.333748
50
179.9583935
51
188.8067858
0
ARC
8
DEFAULT_255_2_778
10
4.5433967
20
3.6809098
40
1.3947641
50
175.5562484
51
179.9878775
0
ARC
8
DEFAULT_255_2_778
10
4.0495155
20
3.672608
40
0.9042094
50
143.2193809
51
172.6057261
0
ARC
8
DEFAULT_255_2_778
10
4.6649104
20
3.2915458
40
1.6264931
50
142.5094124
51
145.4485064
0
ARC
8
DEFAULT_255_2_778
10
4.8654674
20
3.1364615
40
1.8800149
50
138.1093467
51
142.4793352
0
ARC
8
DEFAULT_255_2_778
10
4.940129
20
3.0715672
40
1.9789258
50
135.481223
51
138.1540427
0
ARC
8
DEFAULT_255_2_778
10
4.7841599
20
3.2255941
40
1.7597218
50
133.6860016
51
135.4964513
0
ARC
8
DEFAULT_255_2_778
10
4.451691
20
3.5740076
40
1.2781333
50
132.4049557
51
133.6963578
0
ARC
8
DEFAULT_255_2_778
10
3.9726795
20
4.0993717
40
0.5671771
50
131.4367912
51
132.4642681
0
ARC
8
DEFAULT_255_2_778
10
3.900384
20
4.563873
40
0.3055956
50
186.6975459
51
187.3880938
0
ARC
8
DEFAULT_255_2_778
10
4.3796956
20
4.6205695
40
0.788249
50
185.8087413
51
186.7272308
0
ARC
8
DEFAULT_255_2_778
10
4.7919414
20
4.6629848
40
1.2026707
50
185.0196465
51
185.8313651
0
ARC
8
DEFAULT_255_2_778
10
5.1058599
20
4.690671
40
1.5178079
50
184.1693431
51
185.0239104
0
ARC
8
DEFAULT_255_2_778
10
5.3763545
20
4.7104143
40
1.789022
50
183.2096807
51
184.1701392
0
ARC
8
DEFAULT_255_2_778
10
5.6345107
20
4.724753
40
2.0475762
50
181.8643457
51
183.2058186
0
ARC
8
DEFAULT_255_2_778
10
5.8447423
20
4.7317395
40
2.2579238
50
180.4777476
51
181.8679828
0
ARC
8
DEFAULT_255_2_778
10
5.9535445
20
4.7329236
40
2.366732
50
180.000011
51
180.4844495
0
ARC
8
DEFAULT_255_2_778
10
6.0627139
20
4.7320876
40
2.4759016
50
176.4886162
51
179.9806644
0
ARC
8
DEFAULT_255_2_778
10
6.0982183
20
4.7307337
40
2.5114224
50
171.9039614
51
176.5073957
0
ARC
8
DEFAULT_255_2_778
10
5.9591116
20
4.7518167
40
2.3707332
50
165.503523
51
171.9349466
0
ARC
8
DEFAULT_255_2_778
10
5.7222245
20
4.814285
40
2.1257512
50
157.0645666
51
165.5353767
0
ARC
8
DEFAULT_255_2_778
10
5.4423413
20
4.8880306
40
1.8397165
50
138.0272677
51
155.7827976
0
ARC
8
DEFAULT_255_2_778
10
6.1272481
20
4.3331181
40
2.7204126
50
137.3428417
51
138.9854549
0
ARC
8
DEFAULT_255_2_778
10
6.3919946
20
4.0852107
40
3.0830988
50
133.0088351
51
137.2885479
0
ARC
8
DEFAULT_255_2_778
10
6.5775308
20
3.8899114
40
3.3524684
50
130.5445843
51
133.0508304
0
ARC
8
DEFAULT_255_2_778
10
6.4880353
20
3.9958387
40
3.2137986
50
128.6137351
51
130.5597259
0
ARC
8
DEFAULT_255_2_778
10
6.1585072
20
4.4089082
40
2.6853906
50
127.2462541
51
128.6201214
0
ARC
8
DEFAULT_255_2_778
10
5.6613458
20
5.0631183
40
1.8637093
50
126.2419416
51
127.2522265
0
ARC
8
DEFAULT_255_2_778
10
5.0320773
20
5.9227022
40
0.7984102
50
125.4658617
51
126.2893217
0
ARC
8
DEFAULT_255_2_778
10
4.8543954
20
6.8291823
40
0.3836556
50
221.0101264
51
221.8976047
0
ARC
8
DEFAULT_255_2_778
10
5.3028314
20
7.2195007
40
0.9781664
50
219.5859511
51
221.026028
0
ARC
8
DEFAULT_255_2_778
10
5.6687644
20
7.5228038
40
1.4534553
50
217.8113651
51
219.6080701
0
ARC
8
DEFAULT_255_2_778
10
5.8849061
20
7.690995
40
1.7273265
50
215.4614969
51
217.8235714
0
ARC
8
DEFAULT_255_2_778
10
5.939478
20
7.7305627
40
1.7947312
50
211.923681
51
215.4796283
0
ARC
8
DEFAULT_255_2_778
10
5.8836676
20
7.6954982
40
1.7288201
50
210.4746449
51
211.915422
0
ARC
8
DEFAULT_255_2_778
10
5.7186728
20
7.6017843
40
1.5390938
50
203.6404188
51
210.5829981
0
ARC
8
DEFAULT_255_2_778
10
5.2342318
20
7.4056412
40
1.0167589
50
183.1160796
51
204.4618178
0
ARC
8
DEFAULT_255_2_778
10
4.9709131
20
7.3762852
40
0.7523832
50
180.005737
51
181.9738056
0
ARC
8
DEFAULT_255_2_778
10
4.9172035
20
7.3771013
40
0.6986741
50
172.0193976
51
180.073098
0
ARC
8
DEFAULT_255_2_778
10
4.860772
20
7.3849136
40
0.6417044
50
161.1861809
51
172.0106301
0
ARC
8
DEFAULT_255_2_778
10
4.849681
20
7.3882402
40
0.6301333
50
159.5330881
51
161.1472732
0
ARC
8
DEFAULT_255_2_778
10
6.7260297
20
6.7022145
40
2.6279502
50
156.7012501
51
159.8247241
0
ARC
8
DEFAULT_255_2_778
10
5.3087763
20
7.317312
40
1.0829889
50
151.1041315
51
156.9329573
0
ARC
8
DEFAULT_255_2_778
10
4.6555044
20
7.6836092
40
0.3340857
50
138.2721328
51
151.9649834
0
ARC
8
DEFAULT_255_2_778
10
4.4878924
20
7.8331233
40
0.1094789
50
104.7328411
51
138.2842543
0
ARC
8
DEFAULT_255_2_778
10
4.3865419
20
8.1669063
40
0.2394653
50
287.8767353
51
289.2839639
0
ARC
8
DEFAULT_255_2_778
10
4.1927971
20
8.8246004
40
0.92488
50
287.1568026
51
313.9356758
0
ARC
8
DEFAULT_255_2_778
10
5.8916946
20
7.1754875
40
1.4436311
50
131.5490464
51
137.0794497
0
ARC
8
DEFAULT_255_2_778
10
5.8472462
20
7.225402
40
1.3767948
50
125.8779601
51
131.5424591
0
ARC
8
DEFAULT_255_2_778
10
5.8289315
20
7.2502247
40
1.3459483
50
122.5584849
51
125.8655208
0
ARC
8
DEFAULT_255_2_778
10
5.8219966
20
7.2611058
40
1.333045
50
112.2897948
51
122.5589468
0
ARC
8
DEFAULT_255_2_778
10
5.8317524
20
7.2364565
40
1.3595527
50
103.5513594
51
112.2762081
0
ARC
8
DEFAULT_255_2_778
10
5.838466
20
7.2101681
40
1.3866825
50
96.9696076
51
103.5665167
0
ARC
8
DEFAULT_255_2_778
10
5.8347981
20
7.2445723
40
1.3520874
50
91.6424689
51
96.9922302
0
ARC
8
DEFAULT_255_2_778
10
5.8317181
20
7.3313136
40
1.2652935
50
90.0069355
51
91.6156391
0
ARC
8
DEFAULT_255_2_778
10
5.8318673
20
7.4171906
40
1.1794166
50
88.0723437
51
90.0146879
0
ARC
8
DEFAULT_255_2_778
10
5.8359543
20
7.5393624
40
1.0571765
50
86.5574211
51
88.0709975
0
ARC
8
DEFAULT_255_2_778
10
5.844737
20
7.6839458
40
0.9123268
50
85.139624
51
86.5627534
0
ARC
8
DEFAULT_255_2_778
10
5.8612892
20
7.8764198
40
0.7191424
50
83.6869702
51
85.1543468
0
ARC
8
DEFAULT_255_2_778
10
5.8885296
20
8.1214118
40
0.4726405
50
82.3964242
51
83.7034273
0
ARC
8
DEFAULT_255_2_778
10
5.925614
20
8.3977852
40
0.1937904
50
81.3603194
51
82.4523192
0
ARC
8
DEFAULT_255_2_778
10
6.9056128
20
8.2739936
40
1.001825
50
161.1415404
51
161.6507499
0
ARC
8
DEFAULT_255_2_778
10
8.0040007
20
7.9001136
40
2.1621015
50
160.6102736
51
161.1739591
0
ARC
8
DEFAULT_255_2_778
10
8.8462011
20
7.603469
40
3.0550179
50
159.6034501
51
160.6062276
0
ARC
8
DEFAULT_255_2_778
10
9.2418184
20
7.457114
40
3.4768381
50
158.2338936
51
159.6149822
0
ARC
8
DEFAULT_255_2_778
10
9.0324726
20
7.5424894
40
3.2507592
50
155.8628296
51
158.2631386
0
ARC
8
DEFAULT_255_2_778
10
8.4729123
20
7.7931009
40
2.6376411
50
153.6199441
51
155.8602985
0
ARC
8
DEFAULT_255_2_778
10
7.4763158
20
8.3055805
40
1.5172046
50
144.4035633
51
154.2355928
0
ARC
8
DEFAULT_255_2_778
10
6.7219566
20
8.8435459
40
0.5906748
50
131.6632614
51
144.2433007
0
ARC
8
DEFAULT_255_2_778
10
6.4860408
20
9.1141955
40
0.2316858
50
106.4076997
51
132.570989
0
ARC
8
DEFAULT_255_2_778
10
6.4545404
20
9.2049643
40
0.1357928
50
90.1867246
51
104.4756864
0
ARC
8
DEFAULT_255_2_778
10
6.4541216
20
9.2155929
40
0.1251635
50
83.6074849
51
90.0108638
0
ARC
8
DEFAULT_255_2_778
10
6.4530204
20
9.2099141
40
0.1309306
50
64.774221
51
83.4052755
0
ARC
8
DEFAULT_255_2_778
10
6.4416918
20
9.1845487
40
0.158706
50
57.2166486
51
64.9771746
0
ARC
8
DEFAULT_255_2_778
10
6.4588927
20
9.2257723
40
0.1150036
50
36.4361041
51
53.2976889
0
ARC
8
DEFAULT_255_2_778
10
6.1124702
20
8.9522195
40
0.5563618
50
31.9339152
51
37.9119503
0
ARC
8
DEFAULT_255_2_778
10
5.2049147
20
8.3776822
40
1.6304804
50
29.1501797
51
32.1989759
0
ARC
8
DEFAULT_255_2_778
10
3.325523
20
7.3248163
40
3.7846931
50
27.2432466
51
29.211699
0
ARC
8
DEFAULT_255_2_778
10
1.3930343
20
6.3176947
40
5.9638518
50
26.9006575
51
27.3467066
0
ARC
8
DEFAULT_255_2_778
10
0.0935166
20
5.6589952
40
7.4207771
50
26.3548533
51
26.8965112
0
ARC
8
DEFAULT_255_2_778
10
-2.3778832
20
4.4382931
40
10.17721
50
25.4899892
51
26.3362629
0
ARC
8
DEFAULT_255_2_778
10
-4.803174
20
3.2778174
40
12.8658393
50
25.0585509
51
25.5068385
0
ARC
8
DEFAULT_255_2_778
10
-5.4333215
20
2.9822508
40
13.5618602
50
24.7942012
51
25.0621469
0
ARC
8
DEFAULT_255_2_778
10
-4.4122369
20
3.4532511
40
12.4373806
50
24.5463428
51
24.7970518
0
ARC
8
DEFAULT_255_2_778
10
-1.5330356
20
4.7679775
40
9.2722098
50
24.372089
51
24.5475497
0
ARC
8
DEFAULT_255_2_778
10
3.0646568
20
6.8503623
40
4.2249233
50
24.2419474
51
24.3785242
0
ARC
8
DEFAULT_255_2_778
10
7.4383401
20
7.6894113
40
1.0363326
50
119.5568835
51
120.2011971
0
ARC
8
DEFAULT_255_2_778
10
7.9305131
20
6.82403
40
2.0318819
50
118.5632208
51
119.5919344
0
ARC
8
DEFAULT_255_2_778
10
7.9950497
20
6.7081084
40
2.1645517
50
116.7614623
51
118.5964817
0
ARC
8
DEFAULT_255_2_778
10
7.8517166
20
6.9907651
40
1.8476312
50
115.912974
51
116.7395453
0
ARC
8
DEFAULT_255_2_778
10
7.6790646
20
7.3496805
40
1.4493527
50
113.5626486
51
115.9744338
0
ARC
8
DEFAULT_255_2_778
10
7.3918939
20
8.0237586
40
0.7167071
50
106.4029532
51
114.061209
0
ARC
8
DEFAULT_255_2_778
10
7.2515265
20
8.5058653
40
0.214589
50
92.9567238
51
106.8002912
0
ARC
8
DEFAULT_255_2_778
10
7.2425746
20
8.616441
40
0.1037493
50
90.0061543
51
91.1691841
0
ARC
8
DEFAULT_255_2_778
10
7.244844
20
8.6650092
40
0.0552283
50
65.5887698
51
92.3665712
0
ARC
8
DEFAULT_255_2_778
10
7.2564845
20
8.6925232
40
0.0253749
50
27.3384317
51
63.8472478
0
ARC
8
DEFAULT_255_2_778
10
6.2080478
20
8.1649423
40
1.1990691
50
16.7152387
51
26.7251322
0
ARC
8
DEFAULT_255_2_778
10
5.3785252
20
7.9120491
40
2.0662802
50
9.180071
51
16.8157292
0
ARC
8
DEFAULT_255_2_778
10
4.3077977
20
7.7355395
40
3.1514553
50
2.2918352
51
9.2423814
0
ARC
8
DEFAULT_255_2_778
10
3.829458
20
7.7069114
40
3.6305697
50
359.996916
51
2.4413919
0
ARC
8
DEFAULT_255_2_778
10
3.9677282
20
7.7042252
40
3.4923003
50
355.4628707
51
0.0408649
0
ARC
8
DEFAULT_255_2_778
10
4.63381
20
7.6509674
40
2.8240929
50
351.7578613
51
355.4709954
0
ARC
8
DEFAULT_255_2_778
10
5.2695253
20
7.5604271
40
2.1819649
50
349.0585225
51
351.717709
0
ARC
8
DEFAULT_255_2_778
10
4.6003122
20
7.7071283
40
2.866908
50
343.3761069
51
348.7185008
0
ARC
8
DEFAULT_255_2_778
10
4.7101249
20
7.6750643
40
2.7525119
50
337.9185268
51
343.3616973
0
ARC
8
DEFAULT_255_2_778
10
4.6732395
20
7.6911084
40
2.7927233
50
333.0322733
51
337.8979872
0
ARC
8
DEFAULT_255_2_778
10
4.4691293
20
7.7951301
40
3.0218117
50
329.8403712
51
333.0294499
0
ARC
8
DEFAULT_255_2_778
10
3.8997072
20
8.129885
40
3.6823366
50
326.6262212
51
329.7881696
0
ARC
8
DEFAULT_255_2_778
10
2.9949487
20
8.7161293
40
4.7603992
50
326.6783718
51
326.7241207
0
ARC
8
DEFAULT_255_2_778
10
2.4333904
20
9.0859364
40
5.4327864
50
326.6331628
51
326.6728307
0
ARC
8
DEFAULT_255_2_778
10
3.443194
20
8.421081
40
4.2237637
50
326.5809838
51
326.6314739
0
ARC
8
DEFAULT_255_2_778
10
2.6460317
20
8.9469532
40
5.1787555
50
326.5415192
51
326.5822692
0
ARC
8
DEFAULT_255_2_778
10
2.7479736
20
8.879946
40
5.0567636
50
326.4968124
51
326.5381108
0
ARC
8
DEFAULT_255_2_778
10
2.016006
20
9.3647384
40
5.934716
50
326.4599363
51
326.4947592
0
ARC
8
DEFAULT_255_2_778
10
2.1344281
20
9.2873873
40
5.7932731
50
326.4151552
51
326.4504575
0
ARC
8
DEFAULT_255_2_778
10
2.2470091
20
9.2129598
40
5.6583145
50
326.3766173
51
326.4123864
0
ARC
8
DEFAULT_255_2_778
10
2.3576118
20
9.1397699
40
5.5256887
50
326.3372662
51
326.373514
0
ARC
8
DEFAULT_255_2_778
10
1.3423712
20
9.8169062
40
6.7460273
50
326.300753
51
326.3301361
0
ARC
8
DEFAULT_255_2_778
10
2.5693739
20
8.9990378
40
5.2714277
50
326.2597652
51
326.2969788
0
ARC
8
DEFAULT_255_2_778
10
1.6032823
20
9.6443755
40
6.433234
50
326.229187
51
326.2593648
0
ARC
8
DEFAULT_255_2_778
10
1.730359
20
9.5604818
40
6.2809651
50
326.1903841
51
326.2209744
0
ARC
8
DEFAULT_255_2_778
10
2.126616
20
9.295225
40
5.8041205
50
326.1403658
51
326.189478
0
ARC
8
DEFAULT_255_2_778
10
1.7517826
20
9.5471533
40
6.2557483
50
326.092203
51
326.1370662
0
ARC
8
DEFAULT_255_2_778
10
2.1993732
20
9.2466864
40
5.7166587
50
326.0406218
51
326.0889591
0
ARC
8
DEFAULT_255_2_778
10
2.3590337
20
9.1385998
40
5.5238531
50
325.9961749
51
326.0454298
0
ARC
8
DEFAULT_255_2_778
10
1.9712642
20
9.4001495
40
5.9915851
50
325.9517939
51
325.9965062
0
ARC
8
DEFAULT_255_2_778
10
1.4705211
20
9.7387317
40
6.5960532
50
325.910267
51
325.9502589
0
ARC
8
DEFAULT_255_2_778
10
2.299864
20
9.1771752
40
5.5944768
50
325.8660923
51
325.9125219
0
ARC
8
DEFAULT_255_2_778
10
1.8322185
20
9.4934028
40
6.1590049
50
325.8306918
51
325.872221
0
ARC
8
DEFAULT_255_2_778
10
1.2113149
20
9.9146646
40
6.9093267
50
325.7957318
51
325.8321862
0
ARC
8
DEFAULT_255_2_778
10
-0.3005597
20
10.9427419
40
8.737634
50
325.7649383
51
325.7933254
0
ARC
8
DEFAULT_255_2_778
10
1.1410971
20
9.962129
40
6.9940813
50
325.7213185
51
325.7620515
0
ARC
8
DEFAULT_255_2_778
10
0.5580129
20
10.3596183
40
7.6997619
50
325.6846416
51
325.7209861
0
ARC
8
DEFAULT_255_2_778
10
-0.2331747
20
10.8995338
40
8.6576172
50
325.6534738
51
325.6852258
0
ARC
8
DEFAULT_255_2_778
10
697.2752429
20
-469.4382908
40
838.2440977
50
145.4446995
51
145.4556232
0
ARC
8
DEFAULT_255_2_778
10
8.5953476
20
4.656941
40
2.1542259
50
145.2997553
51
148.7907755
0
ARC
8
DEFAULT_255_2_778
10
7.6206538
20
5.2573255
40
1.0095261
50
149.2701017
51
149.3762317
0
ARC
8
DEFAULT_255_2_778
10
6.7634076
20
5.764627
40
0.0134216
50
148.8158431
51
180.48522
0
ARC
8
DEFAULT_255_2_778
10
6.7702796
20
5.7648722
40
0.0202963
50
181.0131057
51
200.5246587
0
ARC
8
DEFAULT_255_2_778
10
6.787821
20
5.7711102
40
0.0389126
50
200.0708476
51
210.3413605
0
ARC
8
DEFAULT_255_2_778
10
6.8141459
20
5.7861729
40
0.0692412
50
210.0944202
51
215.8383444
0
ARC
8
DEFAULT_255_2_778
10
6.8487393
20
5.810924
40
0.1117771
50
215.7412523
51
219.3217267
0
ARC
8
DEFAULT_255_2_778
10
6.8910957
20
5.84543
40
0.1664096
50
219.2713553
51
221.5490466
0
ARC
8
DEFAULT_255_2_778
10
6.9393085
20
5.8880087
40
0.2307323
50
221.5211663
51
223.0095046
0
ARC
8
DEFAULT_255_2_778
10
6.9955426
20
5.9404165
40
0.3076014
50
223.0028556
51
224.1718164
0
ARC
8
DEFAULT_255_2_778
10
7.0663736
20
6.0091471
40
0.4062975
50
224.1635435
51
225.0847815
0
ARC
8
DEFAULT_255_2_778
10
7.1605879
20
6.1035514
40
0.539671
50
225.0780917
51
225.7963111
0
ARC
8
DEFAULT_255_2_778
10
7.2835165
20
6.2298749
40
0.7159352
50
225.7923777
51
226.3504422
0
ARC
8
DEFAULT_255_2_778
10
7.4112034
20
6.3634973
40
0.9007564
50
226.3403435
51
226.6414814
0
ARC
8
DEFAULT_255_2_778
10
7.5524344
20
6.5129151
40
1.1063577
50
226.6362709
51
226.8853479
0
ARC
8
DEFAULT_255_2_778
10
-156.6054026
20
-172.2181738
40
241.5716644
50
47.4136801
51
47.4361962
0
ARC
8
DEFAULT_255_2_778
10
5.4162408
20
4.076964
40
2.1327804
50
43.5591324
51
47.168853
0
ARC
8
DEFAULT_255_2_778
10
5.6151334
20
4.2695064
40
1.8559704
50
38.1450587
51
43.4828494
0
ARC
8
DEFAULT_255_2_778
10
5.5577132
20
4.2255319
40
1.9282898
50
32.6656319
51
38.1188485
0
ARC
8
DEFAULT_255_2_778
10
5.4345223
20
4.1459001
40
2.0749764
50
28.9975815
51
32.6807171
0
ARC
8
DEFAULT_255_2_778
10
5.2935084
20
4.0678129
40
2.2361674
50
25.4030396
51
28.9960049
0
ARC
8
DEFAULT_255_2_778
10
5.1096588
20
3.9806713
40
2.4396233
50
21.743891
51
25.3994654
0
ARC
8
DEFAULT_255_2_778
10
4.9195475
20
3.9040441
40
2.6445952
50
19.4367726
51
21.76007
0
ARC
8
DEFAULT_255_2_778
10
5.5521896
20
4.1083732
40
1.9800943
50
13.0415238
51
19.9529322
0
ARC
8
DEFAULT_255_2_778
10
5.5155628
20
4.1003832
40
2.0175795
50
6.7919589
51
13.0278581
0
ARC
8
DEFAULT_255_2_778
10
5.4137814
20
4.0884839
40
2.120054
50
1.5371568
51
6.7859759
0
ARC
8
DEFAULT_255_2_778
10
5.3094217
20
4.0847252
40
2.2244772
50
359.9964144
51
1.5618292
0
ARC
8
DEFAULT_255_2_778
10
5.1819356
20
4.085676
40
2.3519635
50
356.4038861
51
359.9734466
0
ARC
8
DEFAULT_255_2_778
10
4.8971244
20
4.1037256
40
2.6373461
50
353.6903586
51
356.4006296
0
ARC
8
DEFAULT_255_2_778
10
4.3210167
20
4.167625
40
3.2169867
50
351.9393456
51
353.6868473
0
ARC
8
DEFAULT_255_2_778
10
3.5796577
20
4.26966
40
3.9653299
50
351.7944209
51
351.9816449
0
ARC
8
DEFAULT_255_2_778
10
3.2868088
20
4.3115431
40
4.2611583
50
351.7665154
51
351.7990276
0
ARC
8
DEFAULT_255_2_778
10
3.407323
20
4.2947588
40
4.1394826
50
351.7244862
51
351.757557
0
ARC
8
DEFAULT_255_2_778
10
3.5180561
20
4.2784422
40
4.0275541
50
351.693866
51
351.7274527
0
ARC
8
DEFAULT_255_2_778
10
3.6266073
20
4.2624038
40
3.9178248
50
351.6625064
51
351.6966244
0
ARC
8
DEFAULT_255_2_778
10
3.7317032
20
4.2467343
40
3.8115676
50
351.6318304
51
351.6664839
0
ARC
8
DEFAULT_255_2_778
10
3.8334396
20
4.231426
40
3.7086866
50
351.601879
51
351.6370718
0
ARC
8
DEFAULT_255_2_778
10
3.9319099
20
4.2164713
40
3.6090882
50
351.5726946
51
351.6084303
0
ARC
8
DEFAULT_255_2_778
10
-2.3013967
20
5.1398676
40
9.9104193
50
351.5603723
51
351.5732322
0
ARC
8
DEFAULT_255_2_778
10
-1.9916033
20
5.0963077
40
9.5975877
50
351.5330459
51
351.5461677
0
ARC
8
DEFAULT_255_2_778
10
-1.6891608
20
5.0536784
40
9.2921651
50
351.5050606
51
351.5184535
0
ARC
8
DEFAULT_255_2_778
10
4.0024082
20
4.203431
40
3.5374386
50
351.4727087
51
351.5074731
0
LINE
8
DEFAULT_255_2_778
10
7.5007416
20
3.6788979
11
7.4827724
21
3.5627739
0
ARC
8
DEFAULT_255_2_778
10
8.5125913
20
3.405068
40
1.0418244
50
171.2933965
51
173.9614559
0
ARC
8
DEFAULT_255_2_778
10
7.7672519
20
3.483371
40
0.2923838
50
173.8557849
51
179.390271
0
ARC
8
DEFAULT_255_2_778
10
7.574932
20
3.4853642
40
0.1000537
50
179.3596235
51
188.0071534
0
ARC
8
DEFAULT_255_2_778
10
7.5084772
20
3.4753875
40
0.0328629
50
186.9217
51
207.4952868
0
ARC
8
DEFAULT_255_2_778
10
7.4942169
20
3.4687426
40
0.0171595
50
209.7975
51
211.1100533
0
ARC
8
DEFAULT_255_2_778
10
7.4917994
20
3.4831292
40
0.0392654
50
265.6561337
51
266.6877695
0
ARC
8
DEFAULT_255_2_778
10
7.4957842
20
3.5498031
40
0.1060583
50
266.6197649
51
267.7645295
0
ARC
8
DEFAULT_255_2_778
10
7.4991443
20
3.6375221
40
0.1938417
50
267.7834812
51
269.4592396
0
ARC
8
DEFAULT_255_2_778
10
7.5000723
20
3.7040189
40
0.2603445
50
269.3931341
51
270.0093615
0
ARC
8
DEFAULT_255_2_778
10
7.4956581
20
3.9376798
40
0.4940255
50
270.5168838
51
276.9800811
0
ARC
8
DEFAULT_255_2_778
10
7.4458029
20
4.3654202
40
0.9246579
50
276.8254696
51
282.9359735
0
ARC
8
DEFAULT_255_2_778
10
7.335551
20
4.8514456
40
1.4230301
50
282.8816653
51
288.5830817
0
ARC
8
DEFAULT_255_2_778
10
7.1455035
20
5.4207475
40
2.0232147
50
288.5466643
51
293.6585768
0
ARC
8
DEFAULT_255_2_778
10
6.8564885
20
6.083597
40
2.7463315
50
293.6321273
51
298.1300727
0
ARC
8
DEFAULT_255_2_778
10
6.4658905
20
6.8182662
40
3.5783788
50
298.0993683
51
301.7771584
0
ARC
8
DEFAULT_255_2_778
10
13.5775567
20
-4.6308272
40
9.8996637
50
121.2569772
51
121.8718456
0
ARC
8
DEFAULT_255_2_778
10
9.8778282
20
1.596132
40
2.6577286
50
107.8146515
51
122.7299966
0
ARC
8
DEFAULT_255_2_778
10
9.4582775
20
2.8089534
40
1.3749968
50
90.9106108
51
106.6317853
0
ARC
8
DEFAULT_255_2_778
10
9.4451543
20
3.6772201
40
0.5066317
50
90.0034621
51
90.9872129
0
ARC
8
DEFAULT_255_2_778
10
9.4497795
20
3.7845861
40
0.3992928
50
71.7472675
51
90.6680954
0
ARC
8
DEFAULT_255_2_778
10
9.4879684
20
3.8981328
40
0.2794992
50
39.8553031
51
71.8914876
0
ARC
8
DEFAULT_255_2_778
10
9.4960793
20
3.9092321
40
0.2661807
50
0.3968763
51
39.1400759
0
ARC
8
DEFAULT_255_2_778
10
9.4880296
20
3.9079513
40
0.2742417
50
359.9963633
51
0.6528166
0
ARC
8
DEFAULT_255_2_778
10
9.4991085
20
3.90526
40
0.2631765
50
299.9286577
51
0.582135
0
ARC
8
DEFAULT_255_2_778
10
9.4893696
20
3.9265706
40
0.2865126
50
283.3295265
51
299.4902886
0
LINE
8
DEFAULT_255_2_778
10
5.7851254
20
9.0790766
11
5.7232254
21
8.9393766
0
LINE
8
DEFAULT_255_2_778
10
4.3487254
20
8.2660766
11
4.3514254
21
8.2660766
0
LINE
8
DEFAULT_255_2_778
10
5.1697254
20
1.8839766
11
5.1927254
21
1.8839766
0
LINE
8
DEFAULT_255_2_778
10
10.1121254
20
3.9903766
11
10.1047254
21
3.9839766
0
LINE
8
DEFAULT_255_2_778
10
7.4795254
20
3.4598766
11
7.4888254
21
3.4439766
0
LINE
8
DEFAULT_255_2_778
10
9.5554254
20
3.6477766
11
9.5597254
21
3.6471766
0
ENDSEC
0
EOF