0
SECTION
2
HEADER
9
$MEASUREMENT
70
1
0
ENDSEC
0
SECTION
2
TABLES
0
TABLE
2
LTYPE
0
LTYPE
72
65
70
64
2
CONTINUOUS
3
______
73
0
40
0
0
ENDTAB
0
TABLE
2
LAYER
0
LAYER
2
DEFAULT_255_2_778
70
0
62
255
6
CONTINUOUS
0
ENDTAB
0
ENDSEC
0
SECTION
2
ENTITIES
0
LINE
8
DEFAULT_255_2_778
10
3.3594185
20
11.1034664
11
7.6739185
21
13.5952664
0
LINE
8
DEFAULT_255_2_778
10
7.6739185
20
13.5952664
11
11.9946185
21
11.1034664
0
LINE
8
DEFAULT_255_2_778
10
11.9946185
20
11.1034664
11
14.7669185
21
12.7094664
0
LINE
8
DEFAULT_255_2_778
10
14.7669185
20
12.7094664
11
7.6739185
21
16.8009664
0
LINE
8
DEFAULT_255_2_778
10
7.6739185
20
16.8009664
11
0.5831185
21
12.7094664
0
LINE
8
DEFAULT_255_2_778
10
0.5831185
20
12.7094664
11
3.3594185
21
11.1034664
0
LINE
8
DEFAULT_255_2_778
10
12.3137185
20
10.5551664
11
12.3137185
21
5.5715664
0
LINE
8
DEFAULT_255_2_778
10
12.3137185
20
5.5715664
11
7.9930185
21
3.0733664
0
LINE
8
DEFAULT_255_2_778
10
7.9930185
20
3.0733664
11
7.9930185
21
-0.1323336
0
LINE
8
DEFAULT_255_2_778
10
7.9930185
20
-0.1323336
11
15.0839185
21
3.9654664
0
LINE
8
DEFAULT_255_2_778
10
15.0839185
20
3.9654664
11
15.0839185
21
12.1548664
0
LINE
8
DEFAULT_255_2_778
10
15.0839185
20
12.1548664
11
12.3137185
21
10.5551664
0
LINE
8
DEFAULT_255_2_778
10
7.3554185
20
3.0733664
11
3.0437185
21
5.5715664
0
LINE
8
DEFAULT_255_2_778
10
3.0437185
20
5.5715664
11
3.0437185
21
10.5551664
0
LINE
8
DEFAULT_255_2_778
10
3.0437185
20
10.5551664
11
0.2619185
21
12.1548664
0
LINE
8
DEFAULT_255_2_778
10
0.2619185
20
12.1548664
11
0.2619185
21
3.9654664
0
LINE
8
DEFAULT_255_2_778
10
0.2619185
20
3.9654664
11
7.3554185
21
-0.1323336
0
LINE
8
DEFAULT_255_2_778
10
7.3554185
20
-0.1323336
11
7.3554185
21
3.0733664
0
LINE
8
DEFAULT_255_2_778
10
7.355384
20
8.0634296
11
3.678184
21
10.1853296
0
LINE
8
DEFAULT_255_2_778
10
3.678184
20
10.1853296
11
3.678184
21
5.9345296
0
LINE
8
DEFAULT_255_2_778
10
3.678184
20
5.9345296
11
7.355384
21
3.8126296
0
LINE
8
DEFAULT_255_2_778
10
7.355384
20
3.8126296
11
7.355384
21
8.0634296
0
LINE
8
DEFAULT_255_2_778
10
7.673884
20
8.6116296
11
11.357484
21
10.7336296
0
LINE
8
DEFAULT_255_2_778
10
11.357484
20
10.7336296
11
7.673884
21
12.8624296
0
LINE
8
DEFAULT_255_2_778
10
7.673884
20
12.8624296
11
3.996784
21
10.7341296
0
LINE
8
DEFAULT_255_2_778
10
3.996784
20
10.7341296
11
7.673884
21
8.6116296
0
LINE
8
DEFAULT_255_2_778
10
7.992484
20
3.8099296
11
11.675984
21
5.9319296
0
LINE
8
DEFAULT_255_2_778
10
11.675984
20
5.9319296
11
11.675984
21
10.1856296
0
LINE
8
DEFAULT_255_2_778
10
11.675984
20
10.1856296
11
7.992484
21
8.0636296
0
LINE
8
DEFAULT_255_2_778
10
7.992484
20
8.0636296
11
7.992484
21
3.8099296
0
ENDSEC
0
EOF