0
SECTION
2
HEADER
9
$MEASUREMENT
70
1
0
ENDSEC
0
SECTION
2
TABLES
0
TABLE
2
LTYPE
0
LTYPE
72
65
70
64
2
CONTINUOUS
3
______
73
0
40
0
0
ENDTAB
0
TABLE
2
LAYER
0
LAYER
2
DEFAULT_255_2_778
70
0
62
255
6
CONTINUOUS
0
ENDTAB
0
ENDSEC
0
SECTION
2
ENTITIES
0
ARC
8
DEFAULT_255_2_778
10
20.8572485
20
114.8863835
40
20.7249804
50
173.886013
51
180.011755
0
ARC
8
DEFAULT_255_2_778
10
20.501686
20
114.9237827
40
20.3674571
50
166.8527399
51
173.8840907
0
ARC
8
DEFAULT_255_2_778
10
20.3358695
20
114.9613545
40
20.1974409
50
158.3761194
51
166.8495381
0
ARC
8
DEFAULT_255_2_778
10
20.3476891
20
114.9546487
40
20.2109
50
147.2481015
51
158.3707948
0
ARC
8
DEFAULT_255_2_778
10
20.4344182
20
114.8989904
40
20.3139522
50
117.5455429
51
147.2484141
0
ARC
8
DEFAULT_255_2_778
10
20.368849
20
115.0105666
40
20.1847022
50
108.1855724
51
117.5269853
0
ARC
8
DEFAULT_255_2_778
10
20.3846018
20
114.9577633
40
20.2397843
50
100.3371356
51
108.1812872
0
ARC
8
DEFAULT_255_2_778
10
20.4264294
20
114.7242745
40
20.4769889
50
93.8756307
51
100.3350412
0
ARC
8
DEFAULT_255_2_778
10
20.4504369
20
114.3942384
40
20.8078931
50
89.9949565
51
93.8801608
0
ARC
8
DEFAULT_255_2_778
10
115.2832206
20
114.4771515
40
20.7249804
50
83.886013
51
90.011755
0
ARC
8
DEFAULT_255_2_778
10
115.3206198
20
114.832714
40
20.3674571
50
76.8527399
51
83.8840907
0
ARC
8
DEFAULT_255_2_778
10
115.3581916
20
114.9985305
40
20.1974409
50
68.3761194
51
76.8495381
0
ARC
8
DEFAULT_255_2_778
10
115.3514858
20
114.9867109
40
20.2109
50
57.2481015
51
68.3707948
0
ARC
8
DEFAULT_255_2_778
10
115.2958275
20
114.8999818
40
20.3139522
50
27.5455429
51
57.2484141
0
ARC
8
DEFAULT_255_2_778
10
115.4074037
20
114.965551
40
20.1847022
50
18.1855724
51
27.5269853
0
ARC
8
DEFAULT_255_2_778
10
115.3546004
20
114.9497982
40
20.2397843
50
10.3371356
51
18.1812872
0
ARC
8
DEFAULT_255_2_778
10
115.1211116
20
114.9079706
40
20.4769889
50
3.8756307
51
10.3350412
0
ARC
8
DEFAULT_255_2_778
10
114.7910755
20
114.8839631
40
20.8078931
50
359.9949565
51
3.8801608
0
ARC
8
DEFAULT_255_2_778
10
114.8739886
20
20.0511794
40
20.7249804
50
353.886013
51
0.011755
0
ARC
8
DEFAULT_255_2_778
10
115.2295511
20
20.0137802
40
20.3674571
50
346.8527399
51
353.8840907
0
ARC
8
DEFAULT_255_2_778
10
115.3953676
20
19.9762084
40
20.1974409
50
338.3761194
51
346.8495381
0
ARC
8
DEFAULT_255_2_778
10
115.383548
20
19.9829142
40
20.2109
50
327.2481015
51
338.3707948
0
ARC
8
DEFAULT_255_2_778
10
115.2968189
20
20.0385725
40
20.3139522
50
297.5455429
51
327.2484141
0
ARC
8
DEFAULT_255_2_778
10
115.3623881
20
19.9269963
40
20.1847022
50
288.1855724
51
297.5269853
0
ARC
8
DEFAULT_255_2_778
10
115.3466353
20
19.9797996
40
20.2397843
50
280.3371356
51
288.1812872
0
ARC
8
DEFAULT_255_2_778
10
115.3048077
20
20.2132884
40
20.4769889
50
273.8756307
51
280.3350412
0
ARC
8
DEFAULT_255_2_778
10
115.2808002
20
20.5433245
40
20.8078931
50
269.9949565
51
273.8801608
0
ARC
8
DEFAULT_255_2_778
10
20.4480165
20
20.4604114
40
20.7249804
50
263.886013
51
270.011755
0
ARC
8
DEFAULT_255_2_778
10
20.4106173
20
20.1048489
40
20.3674571
50
256.8527399
51
263.8840907
0
ARC
8
DEFAULT_255_2_778
10
20.3730455
20
19.9390324
40
20.1974409
50
248.3761194
51
256.8495381
0
ARC
8
DEFAULT_255_2_778
10
20.3797513
20
19.950852
40
20.2109
50
237.2481015
51
248.3707948
0
ARC
8
DEFAULT_255_2_778
10
20.4354096
20
20.0375811
40
20.3139522
50
207.5455429
51
237.2484141
0
ARC
8
DEFAULT_255_2_778
10
20.3238334
20
19.9720119
40
20.1847022
50
198.1855724
51
207.5269853
0
ARC
8
DEFAULT_255_2_778
10
20.3766367
20
19.9877647
40
20.2397843
50
190.3371356
51
198.1812872
0
ARC
8
DEFAULT_255_2_778
10
20.6101255
20
20.0295923
40
20.4769889
50
183.8756307
51
190.3350412
0
ARC
8
DEFAULT_255_2_778
10
20.9401616
20
20.0535998
40
20.8078931
50
179.9949565
51
183.8801608
0
LINE
8
DEFAULT_255_2_778
10
20.4522686
20
135.2021314
11
115.2789686
21
135.2021314
0
LINE
8
DEFAULT_255_2_778
10
135.5989686
20
114.8821314
11
135.5989686
21
20.0554314
0
LINE
8
DEFAULT_255_2_778
10
115.2789686
20
-0.2645686
11
20.4522686
21
-0.2645686
0
LINE
8
DEFAULT_255_2_778
10
0.1322686
20
20.0554314
11
0.1322686
21
114.8821314
0
ARC
8
DEFAULT_255_2_778
10
102.3859818
20
87.5303135
40
11.1237616
50
15.4173826
51
43.5928762
0
ARC
8
DEFAULT_255_2_778
10
101.383589
20
86.7072231
40
12.4176611
50
43.1543062
51
74.7838038
0
ARC
8
DEFAULT_255_2_778
10
101.8376469
20
88.0655087
40
10.988124
50
75.2095135
51
76.7182877
0
ARC
8
DEFAULT_255_2_778
10
101.1535887
20
85.1851959
40
13.9485505
50
76.7016897
51
77.7063174
0
ARC
8
DEFAULT_255_2_778
10
100.5196201
20
82.2799088
40
16.9222029
50
77.7035086
51
78.5692658
0
ARC
8
DEFAULT_255_2_778
10
99.8650081
20
79.0459135
40
20.221785
50
78.5672698
51
79.3209898
0
ARC
8
DEFAULT_255_2_778
10
99.1928149
20
75.4844997
40
23.8460797
50
79.3195537
51
79.9816318
0
ARC
8
DEFAULT_255_2_778
10
98.5075434
20
71.6087356
40
27.7819588
50
79.9804366
51
80.5668442
0
ARC
8
DEFAULT_255_2_778
10
97.8085579
20
67.4047558
40
32.0436516
50
80.5659244
51
81.0887795
0
ARC
8
DEFAULT_255_2_778
10
96.9216472
20
61.7256195
40
37.7916243
50
81.0941083
51
81.7825836
0
ARC
8
DEFAULT_255_2_778
10
95.8409287
20
54.2524746
40
45.3425079
50
81.7807038
51
82.3729533
0
ARC
8
DEFAULT_255_2_778
10
94.7536091
20
46.142718
40
53.5248312
50
82.3715206
51
82.8866681
0
ARC
8
DEFAULT_255_2_778
10
93.6638746
20
37.4202097
40
62.3151481
50
82.8855482
51
83.3378412
0
ARC
8
DEFAULT_255_2_778
10
92.5785894
20
28.1378322
40
71.6607553
50
83.3369906
51
83.7374465
0
ARC
8
DEFAULT_255_2_778
10
91.4125718
20
17.5034049
40
82.3589158
50
83.7381378
51
84.1518648
0
ARC
8
DEFAULT_255_2_778
10
90.1305543
20
4.9899329
40
94.9378884
50
84.1516707
51
84.5417414
0
ARC
8
DEFAULT_255_2_778
10
88.7992888
20
-8.9353891
40
108.9267003
50
84.5414023
51
84.9021873
0
ARC
8
DEFAULT_255_2_778
10
87.4628482
20
-23.9025992
40
123.9534582
50
84.9016216
51
85.2257944
0
ARC
8
DEFAULT_255_2_778
10
86.1597017
20
-39.4908306
40
139.5960648
50
85.2252901
51
85.5139181
0
ARC
8
DEFAULT_255_2_778
10
84.9088701
20
-55.4184354
40
155.5727095
50
85.5134794
51
85.7723529
0
ARC
8
DEFAULT_255_2_778
10
83.7055697
20
-71.683435
40
171.882159
50
85.7720263
51
86.0055834
0
ARC
8
DEFAULT_255_2_778
10
82.5627956
20
-88.0364742
40
188.2750789
50
86.0053224
51
86.2173356
0
ARC
8
DEFAULT_255_2_778
10
81.4718237
20
-104.5264493
40
204.8011038
50
86.2171346
51
86.4105098
0
ARC
8
DEFAULT_255_2_778
10
80.4440585
20
-120.8996433
40
221.2065231
50
86.4103375
51
86.5876166
0
ARC
8
DEFAULT_255_2_778
10
79.465847
20
-137.2937943
40
237.6298323
50
86.5874569
51
86.7505775
0
ARC
8
DEFAULT_255_2_778
10
78.3228385
20
-157.4968724
40
257.8652175
50
86.7514651
51
86.9749643
0
ARC
8
DEFAULT_255_2_778
10
77.0602944
20
-181.3610217
40
281.7627412
50
86.9746758
51
87.1745323
0
ARC
8
DEFAULT_255_2_778
10
75.8248442
20
-206.4099064
40
306.8420746
50
87.1746826
51
87.3836594
0
ARC
8
DEFAULT_255_2_778
10
74.5951347
20
-233.3075331
40
333.7677966
50
87.383555
51
87.5827227
0
ARC
8
DEFAULT_255_2_778
10
73.4526135
20
-260.354951
40
360.8393345
50
87.5826072
51
87.7716437
0
ARC
8
DEFAULT_255_2_778
10
72.4338496
20
-286.4913412
40
386.9955722
50
87.7713847
51
87.9398504
0
ARC
8
DEFAULT_255_2_778
10
71.5645178
20
-310.6171768
40
411.137065
50
87.9396443
51
88.0908065
0
ARC
8
DEFAULT_255_2_778
10
70.8242367
20
-332.7912309
40
433.3234728
50
88.0906572
51
88.2270702
0
ARC
8
DEFAULT_255_2_778
10
70.0575094
20
-357.6742641
40
458.2183156
50
88.2275058
51
88.4117221
0
ARC
8
DEFAULT_255_2_778
10
69.2697615
20
-386.0808878
40
486.6358598
50
88.4117109
51
88.598175
0
ARC
8
DEFAULT_255_2_778
10
68.6060698
20
-413.1684246
40
513.7315263
50
88.5980832
51
88.7806022
0
ARC
8
DEFAULT_255_2_778
10
68.1074629
20
-436.4742495
40
537.042684
50
88.7803328
51
88.9350123
0
ARC
8
DEFAULT_255_2_778
10
67.7026796
20
-458.3627196
40
558.9348966
50
88.9352292
51
89.132519
0
ARC
8
DEFAULT_255_2_778
10
67.3809822
20
-479.5719848
40
580.1466014
50
89.132464
51
89.34063
0
ARC
8
DEFAULT_255_2_778
10
67.1750516
20
-497.5495153
40
598.1253113
50
89.3407226
51
89.6082373
0
ARC
8
DEFAULT_255_2_778
10
67.1025274
20
-507.735182
40
608.3112359
50
89.6079663
51
89.9483744
0
ARC
8
DEFAULT_255_2_778
10
67.1028385
20
-506.8812966
40
607.4573504
50
89.9483312
51
89.9999779
0
ARC
8
DEFAULT_255_2_778
10
67.0981837
20
-500.5208934
40
601.0969471
50
89.999534
51
90.2771758
0
ARC
8
DEFAULT_255_2_778
10
67.0053312
20
-481.8393704
40
582.4151935
50
90.276932
51
90.5440048
0
ARC
8
DEFAULT_255_2_778
10
66.75952
20
-455.9839529
40
556.5586076
50
90.5439724
51
90.787269
0
ARC
8
DEFAULT_255_2_778
10
66.3959492
20
-429.2989295
40
529.8711076
50
90.7876059
51
90.9779718
0
ARC
8
DEFAULT_255_2_778
10
65.9566975
20
-403.5791739
40
504.1476014
50
90.9779488
51
91.1664736
0
ARC
8
DEFAULT_255_2_778
10
65.4070175
20
-376.5945742
40
477.1574037
50
91.166446
51
91.3538626
0
ARC
8
DEFAULT_255_2_778
10
64.7601285
20
-349.2362367
40
449.7914194
50
91.3538233
51
91.540658
0
ARC
8
DEFAULT_255_2_778
10
64.0270308
20
-321.9884647
40
422.5337873
50
91.5406254
51
91.7273196
0
ARC
8
DEFAULT_255_2_778
10
63.2202328
20
-295.2355628
40
395.7687226
50
91.7273163
51
91.9142383
0
ARC
8
DEFAULT_255_2_778
10
62.350114
20
-269.1986512
40
369.7172759
50
91.9142525
51
92.1017447
0
ARC
8
DEFAULT_255_2_778
10
61.432288
20
-244.189891
40
344.6916793
50
92.101739
51
92.2900449
0
ARC
8
DEFAULT_255_2_778
10
60.4802048
20
-220.3841123
40
320.8668695
50
92.2900293
51
92.4793279
0
ARC
8
DEFAULT_255_2_778
10
59.4231841
20
-196.0233744
40
296.4832102
50
92.4789005
51
92.7020895
0
ARC
8
DEFAULT_255_2_778
10
58.2637006
20
-171.4534269
40
271.8859193
50
92.7021114
51
92.9270218
0
ARC
8
DEFAULT_255_2_778
10
57.1015855
20
-148.723485
40
249.126289
50
92.9270406
51
93.1537662
0
ARC
8
DEFAULT_255_2_778
10
55.9056956
20
-127.0359756
40
227.4058329
50
93.1535337
51
93.3990524
0
ARC
8
DEFAULT_255_2_778
10
54.6540317
20
-105.9758229
40
206.308518
50
93.3988278
51
93.6624901
0
ARC
8
DEFAULT_255_2_778
10
53.3932748
20
-86.2778491
40
186.5702384
50
93.6625223
51
93.9295825
0
ARC
8
DEFAULT_255_2_778
10
52.1748246
20
-68.5375546
40
168.7881499
50
93.9296381
51
94.1988702
0
ARC
8
DEFAULT_255_2_778
10
51.008783
20
-52.6527592
40
152.8606146
50
94.1989263
51
94.4700741
0
ARC
8
DEFAULT_255_2_778
10
49.8969903
20
-38.4298116
40
138.5942793
50
94.4701166
51
94.7429182
0
ARC
8
DEFAULT_255_2_778
10
48.8460616
20
-25.7618942
40
125.8828442
50
94.7429715
51
95.0170099
0
ARC
8
DEFAULT_255_2_778
10
47.8522911
20
-14.4392598
40
114.5166824
50
95.017119
51
95.2920499
0
ARC
8
DEFAULT_255_2_778
10
46.913766
20
-4.3049921
40
104.3390494
50
95.2921507
51
95.5676488
0
ARC
8
DEFAULT_255_2_778
10
46.0358754
20
4.701657
40
95.2897169
50
95.5676996
51
95.8432352
0
ARC
8
DEFAULT_255_2_778
10
45.0172289
20
14.6193833
40
85.3198162
50
95.8407774
51
96.2599166
0
ARC
8
DEFAULT_255_2_778
10
43.8842009
20
24.953429
40
74.9238432
50
96.2603303
51
96.6768546
0
ARC
8
DEFAULT_255_2_778
10
42.7872373
20
34.313307
40
65.4999031
50
96.6757566
51
97.1600643
0
ARC
8
DEFAULT_255_2_778
10
41.6639779
20
43.2472799
40
56.4955939
50
97.1590963
51
97.7062452
0
ARC
8
DEFAULT_255_2_778
10
40.6193447
20
50.9733689
40
48.6992032
50
97.7072158
51
98.2386736
0
ARC
8
DEFAULT_255_2_778
10
39.7242992
20
57.1599403
40
42.4482214
50
98.2396301
51
98.7516727
0
ARC
8
DEFAULT_255_2_778
10
38.9561602
20
62.1533048
40
37.3961202
50
98.7525245
51
99.2421142
0
ARC
8
DEFAULT_255_2_778
10
38.1481319
20
67.1025786
40
32.3813206
50
99.2374213
51
99.947965
0
ARC
8
DEFAULT_255_2_778
10
37.221145
20
72.3780876
40
27.0249882
50
99.9443908
51
100.8174385
0
ARC
8
DEFAULT_255_2_778
10
36.4067533
20
76.6511368
40
22.6750252
50
100.8226108
51
101.5622627
0
ARC
8
DEFAULT_255_2_778
10
35.6323392
20
80.4205353
40
18.8268997
50
101.5525589
51
102.6569241
0
ARC
8
DEFAULT_255_2_778
10
34.8088337
20
84.0849955
40
15.071047
50
102.6547798
51
103.8967512
0
ARC
8
DEFAULT_255_2_778
10
34.2942768
20
86.1846546
40
12.9092631
50
103.9179911
51
104.3785606
0
ARC
8
DEFAULT_255_2_778
10
34.3306627
20
86.7482452
40
12.3736024
50
105.1898538
51
146.719883
0
ARC
8
DEFAULT_255_2_778
10
32.9529308
20
87.6971588
40
10.7011866
50
146.9195035
51
164.8851167
0
ARC
8
DEFAULT_255_2_778
10
52.3017285
20
83.464441
40
30.499396
50
166.6870067
51
167.6250324
0
ARC
8
DEFAULT_255_2_778
10
56.7992524
20
82.4764342
40
35.1041628
50
167.6230845
51
168.4457991
0
ARC
8
DEFAULT_255_2_778
10
61.507309
20
81.5128749
40
39.9098097
50
168.4443146
51
169.1720103
0
ARC
8
DEFAULT_255_2_778
10
66.3780308
20
80.5803672
40
44.8689932
50
169.1708795
51
169.8195523
0
ARC
8
DEFAULT_255_2_778
10
71.376763
20
79.6819352
40
49.9478221
50
169.8186727
51
170.4008961
0
ARC
8
DEFAULT_255_2_778
10
76.4659501
20
78.8205567
40
55.1093914
50
170.4001901
51
170.9260282
0
ARC
8
DEFAULT_255_2_778
10
81.6253215
20
77.9959629
40
60.3342425
50
170.9254654
51
171.4029373
0
ARC
8
DEFAULT_255_2_778
10
88.0951367
20
77.021471
40
66.8770349
50
171.4060178
51
172.0505781
0
ARC
8
DEFAULT_255_2_778
10
95.913887
20
75.9280572
40
74.7718692
50
172.0493656
51
172.6164777
0
ARC
8
DEFAULT_255_2_778
10
104.2716595
20
74.8457173
40
83.1994323
50
172.6169565
51
173.2009938
0
ARC
8
DEFAULT_255_2_778
10
113.5439144
20
73.7400045
40
92.5373823
50
173.2008546
51
173.767049
0
ARC
8
DEFAULT_255_2_778
10
123.0579276
20
72.6995246
40
102.1081213
50
173.7662731
51
174.2777487
0
ARC
8
DEFAULT_255_2_778
10
132.196682
20
71.7821866
40
111.2928008
50
174.2769371
51
174.7275626
0
ARC
8
DEFAULT_255_2_778
10
140.7419529
20
70.9923185
40
119.8744991
50
174.7269471
51
175.1273509
0
ARC
8
DEFAULT_255_2_778
10
148.652569
20
70.3169609
40
127.8138916
50
175.1269121
51
175.4853048
0
ARC
8
DEFAULT_255_2_778
10
157.6165886
20
69.6123365
40
136.8055621
50
175.4866294
51
175.9664861
0
ARC
8
DEFAULT_255_2_778
10
167.9583914
20
68.8828804
40
147.1730589
50
175.9664055
51
176.447719
0
ARC
8
DEFAULT_255_2_778
10
177.9486498
20
68.2619249
40
157.1825967
50
176.4474372
51
176.9147063
0
ARC
8
DEFAULT_255_2_778
10
186.5482017
20
67.7961121
40
165.7947551
50
176.9139155
51
177.3074552
0
ARC
8
DEFAULT_255_2_778
10
194.6536513
20
67.4169211
40
173.9090691
50
177.3081118
51
177.8073813
0
ARC
8
DEFAULT_255_2_778
10
202.5174845
20
67.1153514
40
181.7786827
50
177.8072281
51
178.3315661
0
ARC
8
DEFAULT_255_2_778
10
209.2851844
20
66.9197527
40
188.5492084
50
178.3320308
51
179.0513109
0
ARC
8
DEFAULT_255_2_778
10
212.6692788
20
66.8597241
40
191.9338328
50
179.0501198
51
179.8571546
0
ARC
8
DEFAULT_255_2_778
10
211.9190651
20
66.8618216
40
191.1836163
50
179.8572226
51
179.9999951
0
ARC
8
DEFAULT_255_2_778
10
208.0184328
20
66.8505166
40
187.2829844
50
179.9965364
51
180.9791404
0
ARC
8
DEFAULT_255_2_778
10
197.7073972
20
66.6782356
40
176.9705103
50
180.980417
51
181.6678863
0
ARC
8
DEFAULT_255_2_778
10
188.3678424
20
66.4119711
40
167.6271627
50
181.6698296
51
182.1033406
0
ARC
8
DEFAULT_255_2_778
10
180.4106409
20
66.11964
40
159.6645931
50
182.1033086
51
182.5254164
0
ARC
8
DEFAULT_255_2_778
10
172.2595126
20
65.7601867
40
151.5055428
50
182.5254374
51
182.9375141
0
ARC
8
DEFAULT_255_2_778
10
164.1025923
20
65.341721
40
143.3378955
50
182.9375543
51
183.340655
0
ARC
8
DEFAULT_255_2_778
10
156.0953404
20
64.8744212
40
135.3170194
50
183.3406956
51
183.7355844
0
ARC
8
DEFAULT_255_2_778
10
148.3871553
20
64.3712456
40
127.5924285
50
183.7356282
51
184.1227239
0
ARC
8
DEFAULT_255_2_778
10
141.0319909
20
63.8412154
40
120.2181913
50
184.1227841
51
184.5023791
0
ARC
8
DEFAULT_255_2_778
10
132.3546538
20
63.1534669
40
111.5136432
50
184.5000921
51
185.0649496
0
ARC
8
DEFAULT_255_2_778
10
122.7059896
20
62.2989076
40
101.8272097
50
185.0652925
51
185.6132343
0
ARC
8
DEFAULT_255_2_778
10
114.0480243
20
61.4485449
40
93.1275844
50
185.6135878
51
186.1443294
0
ARC
8
DEFAULT_255_2_778
10
105.738796
20
60.5525968
40
84.7701927
50
186.1433584
51
186.7450335
0
ARC
8
DEFAULT_255_2_778
10
97.3620503
20
59.5607956
40
76.3349371
50
186.7442253
51
187.4059204
0
ARC
8
DEFAULT_255_2_778
10
89.7248662
20
58.5691667
40
68.6336447
50
187.4068068
51
188.0328805
0
ARC
8
DEFAULT_255_2_778
10
83.3100714
20
57.664773
40
62.1554104
50
188.033703
51
188.6227743
0
ARC
8
DEFAULT_255_2_778
10
77.9313504
20
56.8498874
40
56.7153114
50
188.6235299
51
189.1745909
0
ARC
8
DEFAULT_255_2_778
10
72.3817383
20
55.9502357
40
51.0932517
50
189.1708976
51
189.9512106
0
ARC
8
DEFAULT_255_2_778
10
66.3944603
20
54.898733
40
45.0143411
50
189.9499066
51
190.8185974
0
ARC
8
DEFAULT_255_2_778
10
61.2691479
20
53.9210378
40
39.7966105
50
190.8210505
51
191.5964777
0
ARC
8
DEFAULT_255_2_778
10
56.7023013
20
52.9819405
40
35.1342089
50
191.5933612
51
192.5475071
0
ARC
8
DEFAULT_255_2_778
10
52.5881453
20
52.0676606
40
30.9196881
50
192.5500144
51
193.4214109
0
ARC
8
DEFAULT_255_2_778
10
49.1163659
20
51.2387068
40
27.3503163
50
193.420416
51
194.37169
0
ARC
8
DEFAULT_255_2_778
10
33.3451443
20
47.4068516
40
11.1233771
50
195.4156064
51
223.5922605
0
ARC
8
DEFAULT_255_2_778
10
34.3476302
20
48.2300481
40
12.4174179
50
223.1538045
51
254.7839098
0
ARC
8
DEFAULT_255_2_778
10
34.1606885
20
47.3322392
40
11.5021515
50
254.5086864
51
256.0115459
0
ARC
8
DEFAULT_255_2_778
10
34.8489946
20
50.0798948
40
14.334706
50
255.9967039
51
257.0096841
0
ARC
8
DEFAULT_255_2_778
10
35.4817089
20
52.8194645
40
17.1463905
50
257.0073317
51
257.8886025
0
ARC
8
DEFAULT_255_2_778
10
36.1319748
20
55.8466824
40
20.2426614
50
257.886785
51
258.6602454
0
ARC
8
DEFAULT_255_2_778
10
36.7967948
20
59.158927
40
23.620967
50
258.658871
51
259.34306
0
ARC
8
DEFAULT_255_2_778
10
37.4735387
20
62.7525983
40
27.2778039
50
259.3420083
51
259.9514861
0
ARC
8
DEFAULT_255_2_778
10
38.332482
20
67.6202614
40
32.220669
50
259.9578024
51
260.7594003
0
ARC
8
DEFAULT_255_2_778
10
39.3799827
20
74.0495334
40
38.7347149
50
260.7571956
51
261.4456979
0
ARC
8
DEFAULT_255_2_778
10
40.435181
20
81.0558218
40
45.8200178
50
261.4440756
51
262.041943
0
ARC
8
DEFAULT_255_2_778
10
41.4899019
20
88.5921761
40
53.4298188
50
262.0406891
51
262.5649764
0
ARC
8
DEFAULT_255_2_778
10
42.54365
20
96.658611
40
61.5647899
50
262.5639735
51
263.0274183
0
ARC
8
DEFAULT_255_2_778
10
43.6738032
20
105.9078723
40
70.8828411
50
263.0282372
51
263.5063533
0
ARC
8
DEFAULT_255_2_778
10
44.8761616
20
116.459872
40
81.5031219
50
263.5054486
51
263.926808
0
ARC
8
DEFAULT_255_2_778
10
46.1152159
20
128.1077536
40
93.2167208
50
263.9269506
51
264.3395495
0
ARC
8
DEFAULT_255_2_778
10
47.4087832
20
141.1497297
40
106.3226909
50
264.3390687
51
264.7152103
0
ARC
8
DEFAULT_255_2_778
10
48.6779309
20
154.8566798
40
120.0882718
50
264.7146105
51
265.0487316
0
ARC
8
DEFAULT_255_2_778
10
49.9020267
20
168.9744187
40
134.2589796
50
265.0482842
51
265.3471634
0
ARC
8
DEFAULT_255_2_778
10
51.0715719
20
183.3325458
40
148.6646607
50
265.346783
51
265.6159593
0
ARC
8
DEFAULT_255_2_778
10
52.1940054
20
197.9616172
40
163.336729
50
265.6156492
51
265.8593609
0
ARC
8
DEFAULT_255_2_778
10
53.26076
20
212.6861044
40
178.0998076
50
265.8591067
51
266.0809474
0
ARC
8
DEFAULT_255_2_778
10
54.2721493
20
227.4395548
40
192.8878841
50
266.0807486
51
266.2836451
0
ARC
8
DEFAULT_255_2_778
10
55.2298226
20
242.1737229
40
207.6531421
50
266.2834705
51
266.4698228
0
ARC
8
DEFAULT_255_2_778
10
56.1335233
20
256.8124047
40
222.3196918
50
266.4696629
51
266.6414871
0
ARC
8
DEFAULT_255_2_778
10
57.1931254
20
274.9285556
40
240.4668037
50
266.6423273
51
266.8781784
0
ARC
8
DEFAULT_255_2_778
10
58.367044
20
296.4266388
40
261.9969143
50
266.87787
51
267.0890572
0
ARC
8
DEFAULT_255_2_778
10
59.509912
20
318.9177824
40
284.5170761
50
267.0892162
51
267.3103478
0
ARC
8
DEFAULT_255_2_778
10
60.677521
20
343.7743909
40
309.4010931
50
267.3103663
51
267.531532
0
ARC
8
DEFAULT_255_2_778
10
61.7614166
20
368.8819101
40
334.5319972
50
267.5312717
51
267.7303887
0
ARC
8
DEFAULT_255_2_778
10
62.7040151
20
392.6274244
40
358.2962129
50
267.7301499
51
267.9076285
0
ARC
8
DEFAULT_255_2_778
10
63.5070084
20
414.5731068
40
380.2565812
50
267.9074467
51
268.0667004
0
ARC
8
DEFAULT_255_2_778
10
64.1895505
20
434.7618751
40
400.4568839
50
268.0665481
51
268.2102562
0
ARC
8
DEFAULT_255_2_778
10
64.9050034
20
457.7599106
40
423.4660451
50
268.2106847
51
268.4045812
0
ARC
8
DEFAULT_255_2_778
10
65.6668824
20
485.1486959
40
450.865425
50
268.4047041
51
268.6143729
0
ARC
8
DEFAULT_255_2_778
10
66.3094752
20
511.630255
40
477.3547794
50
268.6141276
51
268.8033606
0
ARC
8
DEFAULT_255_2_778
10
66.771158
20
533.6255754
40
499.3549443
50
268.803104
51
268.9632281
0
ARC
8
DEFAULT_255_2_778
10
67.1545274
20
554.9256934
40
520.6585121
50
268.9634591
51
269.1671694
0
ARC
8
DEFAULT_255_2_778
10
67.4664938
20
576.3637412
40
542.0988297
50
269.1671346
51
269.3812636
0
ARC
8
DEFAULT_255_2_778
10
67.6836645
20
596.7677421
40
562.5039859
50
269.3815875
51
269.6842556
0
ARC
8
DEFAULT_255_2_778
10
67.7637998
20
610.6138202
40
576.3502954
50
269.6838747
51
270.0002612
0
ARC
8
DEFAULT_255_2_778
10
67.7664274
20
608.8489579
40
574.585433
50
270
51
270.0141813
0
ARC
8
DEFAULT_255_2_778
10
67.7689546
20
611.0380889
40
576.7745634
50
270.0138765
51
270.3102636
0
ARC
8
DEFAULT_255_2_778
10
67.8365219
20
599.1277026
40
564.8639858
50
270.3099522
51
270.592222
0
ARC
8
DEFAULT_255_2_778
10
68.0476675
20
578.7935335
40
544.5287205
50
270.5921211
51
270.8471394
0
ARC
8
DEFAULT_255_2_778
10
68.4113548
20
554.1888102
40
519.9213094
50
270.8471537
51
271.0791178
0
ARC
8
DEFAULT_255_2_778
10
68.8844489
20
528.9710066
40
494.6990686
50
271.0793399
51
271.2744109
0
ARC
8
DEFAULT_255_2_778
10
69.439645
20
504.0296659
40
469.7515492
50
271.2743691
51
271.4676158
0
ARC
8
DEFAULT_255_2_778
10
70.0982358
20
478.3335422
40
444.0469872
50
271.4675839
51
271.6596417
0
ARC
8
DEFAULT_255_2_778
10
70.8520746
20
452.3226238
40
418.0251473
50
271.6596157
51
271.8510605
0
ARC
8
DEFAULT_255_2_778
10
71.6870886
20
426.4866986
40
392.1757318
50
271.8510548
51
272.0423564
0
ARC
8
DEFAULT_255_2_778
10
72.5897926
20
401.1753415
40
366.8482828
50
272.0423444
51
272.2338982
0
ARC
8
DEFAULT_255_2_778
10
73.5457848
20
376.6714693
40
342.3257691
50
272.2338765
51
272.4260045
0
ARC
8
DEFAULT_255_2_778
10
74.5368983
20
353.2790736
40
318.9123865
50
272.4259963
51
272.6188966
0
ARC
8
DEFAULT_255_2_778
10
75.5567554
20
330.9810369
40
296.5910392
50
272.6189082
51
272.8128104
0
ARC
8
DEFAULT_255_2_778
10
76.6804602
20
308.1532876
40
273.7356494
50
272.8123661
51
273.0410102
0
ARC
8
DEFAULT_255_2_778
10
77.8986289
20
285.2234395
40
250.7734661
50
273.0410083
51
273.2714038
0
ARC
8
DEFAULT_255_2_778
10
79.1539826
20
263.27717
40
228.7913218
50
273.2711715
51
273.5206253
0
ARC
8
DEFAULT_255_2_778
10
80.4526135
20
242.1747832
40
207.6490143
50
273.5205348
51
273.780864
0
ARC
8
DEFAULT_255_2_778
10
81.7632921
20
222.3450469
40
187.7760095
50
273.7807907
51
274.0523015
0
ARC
8
DEFAULT_255_2_778
10
83.0474374
20
204.2153987
40
169.6009394
50
274.0523805
51
274.3263006
0
ARC
8
DEFAULT_255_2_778
10
84.2787741
20
187.9357227
40
153.2747629
50
274.3263952
51
274.602581
0
ARC
8
DEFAULT_255_2_778
10
85.4518779
20
173.3610885
40
138.6529938
50
274.6026652
51
274.8808937
0
ARC
8
DEFAULT_255_2_778
10
86.5632005
20
160.3441261
40
125.5886778
50
274.8810084
51
275.1609826
0
ARC
8
DEFAULT_255_2_778
10
87.6119506
20
148.7306648
40
113.9279592
50
275.1610748
51
275.442453
0
ARC
8
DEFAULT_255_2_778
10
88.5953258
20
138.4069055
40
103.5574709
50
275.4425772
51
275.7248946
0
ARC
8
DEFAULT_255_2_778
10
89.5203972
20
129.1766501
40
94.2809752
50
275.7250647
51
276.0079875
0
ARC
8
DEFAULT_255_2_778
10
90.5967225
20
118.986476
40
84.0341168
50
276.0053712
51
276.43709
0
ARC
8
DEFAULT_255_2_778
10
91.7839644
20
108.4591126
40
73.4400183
50
276.4374716
51
276.8678087
0
ARC
8
DEFAULT_255_2_778
10
92.9321202
20
98.9378315
40
63.8497602
50
276.8665778
51
277.3687387
0
ARC
8
DEFAULT_255_2_778
10
94.1061117
20
89.8681865
40
54.7044491
50
277.3676148
51
277.9374595
0
ARC
8
DEFAULT_255_2_778
10
95.1923111
20
82.0715493
40
46.8325127
50
277.938513
51
278.4944888
0
ARC
8
DEFAULT_255_2_778
10
96.1233626
20
75.8328785
40
40.5247501
50
278.4954825
51
279.0337924
0
ARC
8
DEFAULT_255_2_778
10
96.9173841
20
70.835087
40
35.4642768
50
279.0347062
51
279.5516706
0
ARC
8
DEFAULT_255_2_778
10
97.751364
20
65.8959708
40
30.4552467
50
279.5463357
51
280.3007776
0
ARC
8
DEFAULT_255_2_778
10
98.7037997
20
60.6658193
40
25.1390813
50
280.2965556
51
281.2303866
0
ARC
8
DEFAULT_255_2_778
10
99.536043
20
56.463532
40
20.8551763
50
281.2361755
51
282.0333066
0
ARC
8
DEFAULT_255_2_778
10
100.3240224
20
52.7832614
40
17.0914959
50
282.0219055
51
283.2225732
0
ARC
8
DEFAULT_255_2_778
10
101.1557167
20
49.2465464
40
13.4583062
50
283.2196923
51
284.5848725
0
ARC
8
DEFAULT_255_2_778
10
101.6743617
20
47.233519
40
11.3795463
50
284.6099276
51
285.1206933
0
ARC
8
DEFAULT_255_2_778
10
101.4005956
20
48.1893457
40
12.3737026
50
285.1899528
51
326.7198954
0
ARC
8
DEFAULT_255_2_778
10
102.7778244
20
47.2407953
40
10.7019066
50
326.9193561
51
344.8841922
0
ARC
8
DEFAULT_255_2_778
10
89.540608
20
50.3351652
40
24.2924889
50
345.9799929
51
347.0930699
0
ARC
8
DEFAULT_255_2_778
10
85.4298586
20
51.278564
40
28.510102
50
347.0903505
51
348.0532372
0
ARC
8
DEFAULT_255_2_778
10
81.0583547
20
52.2047171
40
32.978637
50
348.0511877
51
348.8924556
0
ARC
8
DEFAULT_255_2_778
10
76.4654374
20
53.1074914
40
37.6594372
50
348.8908854
51
349.6324538
0
ARC
8
DEFAULT_255_2_778
10
71.6882429
20
53.9824222
40
42.5160914
50
349.6311967
51
350.2900733
0
ARC
8
DEFAULT_255_2_778
10
66.7474675
20
54.8286613
40
47.5288134
50
350.2891038
51
350.8784693
0
ARC
8
DEFAULT_255_2_778
10
61.6949219
20
55.6405995
40
52.646182
50
350.8777128
51
351.4083067
0
ARC
8
DEFAULT_255_2_778
10
56.5570556
20
56.4175228
40
57.8424578
50
351.4076642
51
351.888064
0
ARC
8
DEFAULT_255_2_778
10
50.0521554
20
57.3410729
40
64.4125917
50
351.8912491
51
352.5372455
0
ARC
8
DEFAULT_255_2_778
10
42.1457215
20
58.3783485
40
72.3867772
50
352.5359882
51
353.1019059
0
ARC
8
DEFAULT_255_2_778
10
33.6134689
20
59.4098202
40
80.9811513
50
353.1024371
51
353.6825467
0
ARC
8
DEFAULT_255_2_778
10
24.0750962
20
60.4660145
40
90.5778225
50
353.6824165
51
354.2420703
0
ARC
8
DEFAULT_255_2_778
10
14.1670826
20
61.4665228
40
100.5362235
50
354.2412546
51
354.7442031
0
ARC
8
DEFAULT_255_2_778
10
4.5372608
20
62.3539974
40
110.206853
50
354.7433563
51
355.1842184
0
ARC
8
DEFAULT_255_2_778
10
-4.5526973
20
63.1211607
40
119.3291265
50
355.1835789
51
355.5734685
0
ARC
8
DEFAULT_255_2_778
10
-13.1027162
20
63.7840947
40
127.9048076
50
355.5729937
51
355.9203062
0
ARC
8
DEFAULT_255_2_778
10
-22.9144194
20
64.4804552
40
137.7411904
50
355.9217401
51
356.3841728
0
ARC
8
DEFAULT_255_2_778
10
-34.427316
20
65.2080851
40
149.2770576
50
356.3841319
51
356.8448291
0
ARC
8
DEFAULT_255_2_778
10
-45.815695
20
65.8366561
40
160.6827702
50
356.8445444
51
357.288563
0
ARC
8
DEFAULT_255_2_778
10
-55.9059164
20
66.3169881
40
170.7844176
50
357.2877351
51
357.6590384
0
ARC
8
DEFAULT_255_2_778
10
-65.7487727
20
66.7169722
40
180.6353972
50
357.6597972
51
358.1272028
0
ARC
8
DEFAULT_255_2_778
10
-75.8049737
20
67.046171
40
190.6969849
50
358.1270887
51
358.6133794
0
ARC
8
DEFAULT_255_2_778
10
-85.1366847
20
67.2703109
40
200.0313871
50
358.6138781
51
359.229732
0
ARC
8
DEFAULT_255_2_778
10
-92.1291686
20
67.3656893
40
207.0245213
50
359.2293534
51
0.0010754
0
ARC
8
DEFAULT_255_2_778
10
-93.8047111
20
67.3695734
40
208.7000637
50
4e-7
51
0.0580729
0
ARC
8
DEFAULT_255_2_778
10
-91.7363299
20
67.377657
40
206.6316753
50
0.0564128
51
0.992619
0
ARC
8
DEFAULT_255_2_778
10
-84.6412363
20
67.4942419
40
199.5356268
50
0.994441
51
1.4150856
0
ARC
8
DEFAULT_255_2_778
10
-77.7636197
20
67.6646394
40
192.6558995
50
1.4149368
51
1.8198375
0
ARC
8
DEFAULT_255_2_778
10
-69.7757978
20
67.9186756
40
184.664039
50
1.819763
51
2.2116118
0
ARC
8
DEFAULT_255_2_778
10
-61.061986
20
68.2553273
40
175.9437266
50
2.2115688
51
2.59248
0
ARC
8
DEFAULT_255_2_778
10
-52.0054081
20
68.6654687
40
166.8778665
50
2.592454
51
2.9639475
0
ARC
8
DEFAULT_255_2_778
10
-42.8578845
20
69.1390746
40
157.7180907
50
2.9639563
51
3.3271913
0
ARC
8
DEFAULT_255_2_778
10
-33.8216932
20
69.6642962
40
148.6666482
50
3.3272315
51
3.6830568
0
ARC
8
DEFAULT_255_2_778
10
-25.051009
20
70.2287738
40
139.8778181
50
3.6830947
51
4.0320958
0
ARC
8
DEFAULT_255_2_778
10
-16.6374306
20
70.8216416
40
131.4433771
50
4.0321842
51
4.374777
0
ARC
8
DEFAULT_255_2_778
10
-8.6338862
20
71.4338462
40
123.4164528
50
4.3748188
51
4.7113014
0
ARC
8
DEFAULT_255_2_778
10
0.7004416
20
72.2074147
40
114.0501266
50
4.7091517
51
5.2106125
0
ARC
8
DEFAULT_255_2_778
10
11.0466044
20
73.1503242
40
103.6610861
50
5.2109412
51
5.6983919
0
ARC
8
DEFAULT_255_2_778
10
20.281291
20
74.071269
40
94.3805917
50
5.6987167
51
6.1718491
0
ARC
8
DEFAULT_255_2_778
10
29.4317373
20
75.0631932
40
85.1765395
50
6.1702332
51
6.7478584
0
ARC
8
DEFAULT_255_2_778
10
38.5386347
20
76.1407451
40
76.0061143
50
6.7478399
51
7.3387236
0
ARC
8
DEFAULT_255_2_778
10
46.4763594
20
77.1620463
40
68.0029568
50
7.3395576
51
7.8999784
0
ARC
8
DEFAULT_255_2_778
10
53.123758
20
78.0835828
40
61.2919853
50
7.9007781
51
8.4293775
0
ARC
8
DEFAULT_255_2_778
10
58.6676327
20
78.9044126
40
55.6876738
50
8.4301134
51
8.9256931
0
ARC
8
DEFAULT_255_2_778
10
64.3842622
20
79.8052991
40
49.900495
50
8.9222225
51
9.6260535
0
ARC
8
DEFAULT_255_2_778
10
70.6695112
20
80.8730098
40
43.5252021
50
9.6238467
51
10.4516335
0
ARC
8
DEFAULT_255_2_778
10
75.9883911
20
81.8518186
40
38.1170098
50
10.4550983
51
11.1520752
0
ARC
8
DEFAULT_255_2_778
10
80.5438203
20
82.7516029
40
33.4735688
50
11.1491462
51
12.0092115
0
ARC
8
DEFAULT_255_2_778
10
84.6360202
20
83.6209305
40
29.2900501
50
12.0114768
51
12.7994616
0
ARC
8
DEFAULT_255_2_778
10
88.071264
20
84.4017893
40
25.7671762
50
12.7985411
51
13.6613476
0
LINE
8
DEFAULT_255_2_778
10
58.3405753
20
81.4917163
11
58.3405753
21
53.4459163
0
LINE
8
DEFAULT_255_2_778
10
58.3405753
20
53.4459163
11
82.9467753
21
67.4688163
0
ENDSEC
0
EOF