0
SECTION
2
HEADER
9
$MEASUREMENT
70
1
0
ENDSEC
0
SECTION
2
TABLES
0
TABLE
2
LTYPE
0
LTYPE
72
65
70
64
2
CONTINUOUS
3
______
73
0
40
0
0
ENDTAB
0
TABLE
2
LAYER
0
LAYER
2
DEFAULT_255_2_778
70
0
62
255
6
CONTINUOUS
0
ENDTAB
0
ENDSEC
0
SECTION
2
ENTITIES
0
ARC
8
DEFAULT_255_2_778
10
5.2458824
20
1.1996195
40
0.1094853
50
112.537195
51
172.7597164
0
ARC
8
DEFAULT_255_2_778
10
5.3980424
20
0.9302597
40
0.418261
50
95.2608609
51
117.6533767
0
ARC
8
DEFAULT_255_2_778
10
5.4293517
20
0.7359607
40
0.6147576
50
89.9516868
51
96.5063108
0
ARC
8
DEFAULT_255_2_778
10
5.4374332
20
0.8270389
40
0.5237337
50
69.7281637
51
90.8274235
0
ARC
8
DEFAULT_255_2_778
10
5.562465
20
1.1437489
40
0.1834762
50
35.2055603
51
72.0881938
0
ARC
8
DEFAULT_255_2_778
10
5.6509527
20
1.2127001
40
0.0716208
50
0.5742904
51
30.9415801
0
ARC
8
DEFAULT_255_2_778
10
5.6139585
20
1.2271284
40
0.1094736
50
292.5316905
51
352.805414
0
ARC
8
DEFAULT_255_2_778
10
5.4619791
20
1.4964973
40
0.4181726
50
275.2334662
51
297.629582
0
ARC
8
DEFAULT_255_2_778
10
5.4304053
20
1.6932742
40
0.6171566
50
269.9503104
51
276.4862574
0
ARC
8
DEFAULT_255_2_778
10
5.422125
20
1.6004644
40
0.5244036
50
249.7716886
51
270.8462515
0
ARC
8
DEFAULT_255_2_778
10
5.2964805
20
1.2815862
40
0.1819104
50
214.8401706
51
252.1784606
0
ARC
8
DEFAULT_255_2_778
10
5.209115
20
1.2140761
40
0.071848
50
180.5247915
51
210.451553
0
LINE
8
DEFAULT_255_2_778
10
5.1372701
20
1.213418
11
5.1372701
21
1.213418
0
ARC
8
DEFAULT_255_2_778
10
3.5312057
20
1.1425132
40
0.1633688
50
190.6537925
51
248.5764756
0
ARC
8
DEFAULT_255_2_778
10
3.5821284
20
1.2224995
40
0.2570729
50
244.5192678
51
261.1538846
0
ARC
8
DEFAULT_255_2_778
10
3.5778569
20
1.1950569
40
0.2292998
50
261.154022
51
269.8861471
0
ARC
8
DEFAULT_255_2_778
10
3.5900932
20
1.0902045
40
0.1250922
50
264.1767021
51
344.1624474
0
ARC
8
DEFAULT_255_2_778
10
3.5720027
20
1.0912326
40
0.1428311
50
345.7463376
51
349.7474508
0
ARC
8
DEFAULT_255_2_778
10
5.8593558
20
0.6731794
40
2.1824119
50
168.2012054
51
169.6356571
0
ARC
8
DEFAULT_255_2_778
10
8.7518793
20
0.0687507
40
5.137412
50
167.0847623
51
168.1988854
0
ARC
8
DEFAULT_255_2_778
10
13.7799822
20
-1.0774863
40
10.2945099
50
166.5013167
51
167.1214328
0
ARC
8
DEFAULT_255_2_778
10
17.5969873
20
-1.9874888
40
14.2184881
50
166.3778509
51
166.5259497
0
ARC
8
DEFAULT_255_2_778
10
22.4957755
20
-3.1806061
40
19.2604748
50
165.8688678
51
166.3605883
0
ARC
8
DEFAULT_255_2_778
10
25.7681785
20
-3.9993868
40
22.6337525
50
165.6794432
51
165.88134
0
ARC
8
DEFAULT_255_2_778
10
22.1972417
20
-3.0870043
40
18.9481005
50
165.5506657
51
165.6817798
0
ARC
8
DEFAULT_255_2_778
10
12.7789676
20
-0.6590921
40
9.221917
50
165.4588028
51
165.5570694
0
ARC
8
DEFAULT_255_2_778
10
3.9080877
20
1.1575219
40
1.2855068
50
21.8530313
51
22.4636508
0
ARC
8
DEFAULT_255_2_778
10
2.6687028
20
0.6584974
40
2.6215826
50
21.1758344
51
21.8930905
0
ARC
8
DEFAULT_255_2_778
10
2.0346566
20
0.4125797
40
3.3016487
50
19.9275066
51
21.1806077
0
ARC
8
DEFAULT_255_2_778
10
2.1219018
20
0.4426756
40
3.20937
50
18.0283491
51
19.95325
0
ARC
8
DEFAULT_255_2_778
10
2.9209201
20
0.6985087
40
2.3704069
50
14.3922194
51
18.1253631
0
ARC
8
DEFAULT_255_2_778
10
3.9866474
20
0.967237
40
1.271339
50
7.9580875
51
14.5995557
0
ARC
8
DEFAULT_255_2_778
10
4.6474817
20
1.0609892
40
0.6038905
50
0.4574482
51
7.8292786
0
ARC
8
DEFAULT_255_2_778
10
5.4356061
20
1.0755638
40
0.1845111
50
183.0300517
51
257.4942857
0
ARC
8
DEFAULT_255_2_778
10
5.4964727
20
1.2054835
40
0.3260333
50
251.9870296
51
262.5813191
0
ARC
8
DEFAULT_255_2_778
10
5.4970579
20
1.2062933
40
0.3269122
50
262.4979408
51
269.952608
0
ARC
8
DEFAULT_255_2_778
10
5.5022207
20
1.1144336
40
0.2351151
50
268.6758408
51
294.6672452
0
ARC
8
DEFAULT_255_2_778
10
5.5624427
20
0.9890139
40
0.0960364
50
293.2454264
51
345.3410847
0
ARC
8
DEFAULT_255_2_778
10
4.9593285
20
1.1157576
40
0.7122256
50
347.7558712
51
350.310721
0
ARC
8
DEFAULT_255_2_778
10
3.8654361
20
1.3038233
40
1.8221665
50
350.270617
51
351.9703808
0
ARC
8
DEFAULT_255_2_778
10
1.5862712
20
1.6277929
40
4.1242408
50
351.9366467
51
353.0422914
0
ARC
8
DEFAULT_255_2_778
10
-0.2078894
20
1.8531079
40
5.9324862
50
352.9812812
51
353.0367007
0
ARC
8
DEFAULT_255_2_778
10
-2.0765231
20
2.078121
40
7.8146167
50
353.0600724
51
353.6386075
0
ARC
8
DEFAULT_255_2_778
10
-5.9872933
20
2.515752
40
11.749797
50
353.6306791
51
354.0340553
0
ARC
8
DEFAULT_255_2_778
10
-12.7003073
20
3.2109865
40
18.4987142
50
354.0534556
51
354.6571766
0
ARC
8
DEFAULT_255_2_778
10
-17.371383
20
3.6555091
40
23.1908888
50
354.6382885
51
354.8759692
0
ARC
8
DEFAULT_255_2_778
10
-14.305739
20
3.3817585
40
20.1130468
50
354.8727151
51
355.023348
0
ARC
8
DEFAULT_255_2_778
10
-4.6720482
20
2.5438126
40
10.442982
50
355.0182252
51
355.1230423
0
ARC
8
DEFAULT_255_2_778
10
5.4042854
20
1.6840157
40
0.3300324
50
355.1286481
51
355.1845494
0
LINE
8
DEFAULT_255_2_778
10
3.238653
20
1.7574106
11
3.370653
21
1.1123106
0
LINE
8
DEFAULT_255_2_778
10
3.852453
20
1.6563106
11
3.238653
21
1.7574106
0
LINE
8
DEFAULT_255_2_778
10
5.733153
20
1.6563106
11
5.096053
21
1.6487106
0
ARC
8
DEFAULT_255_2_778
10
3.5749779
20
1.6250515
40
0.3327558
50
280.9349321
51
291.0381474
0
ARC
8
DEFAULT_255_2_778
10
3.4757645
20
2.0897079
40
0.8078489
50
274.5192501
51
281.5923675
0
ARC
8
DEFAULT_255_2_778
10
3.4794646
20
2.0098138
40
0.7279163
50
270.1528429
51
274.7244193
0
ARC
8
DEFAULT_255_2_778
10
3.4763006
20
1.6563467
40
0.3744814
50
260.2400539
51
270.781217
0
ARC
8
DEFAULT_255_2_778
10
3.4380961
20
1.4261983
40
0.1411942
50
249.5800644
51
259.6868239
0
ARC
8
DEFAULT_255_2_778
10
3.3799631
20
1.27231
40
0.0233197
50
67.6422281
51
88.6734963
0
ARC
8
DEFAULT_255_2_778
10
3.3826712
20
1.2767515
40
0.0189961
50
96.5541577
51
177.3116957
0
ARC
8
DEFAULT_255_2_778
10
3.4790971
20
1.2519374
40
0.1182291
50
167.4426441
51
181.3075918
0
ARC
8
DEFAULT_255_2_778
10
3.7924428
20
1.2566505
40
0.4316077
50
180.9838567
51
188.7785457
0
ARC
8
DEFAULT_255_2_778
10
4.528394
20
1.3619396
40
1.1750356
50
188.3756785
51
191.9044234
0
ARC
8
DEFAULT_255_2_778
10
5.5043757
20
1.5619209
40
2.1712863
50
191.7554644
51
193.1998252
0
ARC
8
DEFAULT_255_2_778
10
6.915624
20
1.8928722
40
3.6208209
50
193.1990644
51
194.111344
0
ARC
8
DEFAULT_255_2_778
10
9.1877337
20
2.458562
40
5.9622883
50
194.0600576
51
194.0833909
0
ARC
8
DEFAULT_255_2_778
10
8.3282185
20
2.2426834
40
5.0760772
50
194.0806746
51
194.1107438
0
ARC
8
DEFAULT_255_2_778
10
8.9981495
20
2.4108869
40
5.7668015
50
194.1087674
51
194.1351796
0
ARC
8
DEFAULT_255_2_778
10
-18.5825199
20
-4.56371
40
22.6820741
50
14.1140465
51
14.2057413
0
ARC
8
DEFAULT_255_2_778
10
3.4899008
20
0.9954965
40
0.0801611
50
200.5357094
51
257.2846027
0
ARC
8
DEFAULT_255_2_778
10
3.5689796
20
1.2063264
40
0.3047798
50
251.4970654
51
263.2684581
0
ARC
8
DEFAULT_255_2_778
10
3.6081394
20
1.503421
40
0.6044302
50
262.8831086
51
269.528451
0
ARC
8
DEFAULT_255_2_778
10
3.6119611
20
1.6372844
40
0.7383254
50
269.3173778
51
270.0016704
0
ARC
8
DEFAULT_255_2_778
10
3.6120774
20
1.631786
40
0.7328272
50
269.9925927
51
271.7930111
0
ARC
8
DEFAULT_255_2_778
10
3.614367
20
1.5543808
40
0.6553882
50
271.8046738
51
272.4008215
0
ARC
8
DEFAULT_255_2_778
10
3.6204468
20
1.4145403
40
0.5154159
50
272.3767516
51
273.3141309
0
ARC
8
DEFAULT_255_2_778
10
3.6370628
20
1.1305902
40
0.2309801
50
273.2712216
51
274.0145562
0
LINE
8
DEFAULT_255_2_778
10
3.6532337
20
0.9001767
11
3.6944337
21
1.3144767
0
ARC
8
DEFAULT_255_2_778
10
3.8255192
20
1.1082459
40
0.6295195
50
162.9419848
51
180.6857288
0
ARC
8
DEFAULT_255_2_778
10
3.4419399
20
1.2335085
40
0.2261856
50
135.1102269
51
164.7745072
0
ARC
8
DEFAULT_255_2_778
10
3.3283815
20
1.3435079
40
0.0681375
50
91.7969626
51
133.2494293
0
ARC
8
DEFAULT_255_2_778
10
3.3126719
20
1.3144753
40
0.0980802
50
21.9479878
51
82.0455631
0
ARC
8
DEFAULT_255_2_778
10
3.0266874
20
1.1544156
40
0.425199
50
7.5524082
51
27.5582825
0
ARC
8
DEFAULT_255_2_778
10
2.7448187
20
1.102264
40
0.7116278
50
359.8750332
51
8.7322119
0
ARC
8
DEFAULT_255_2_778
10
2.8274835
20
1.0932417
40
0.6290057
50
342.9255691
51
0.6804663
0
ARC
8
DEFAULT_255_2_778
10
3.2101824
20
0.9681172
40
0.2265522
50
315.1344566
51
344.7578824
0
ARC
8
DEFAULT_255_2_778
10
3.3240889
20
0.8578329
40
0.068055
50
271.8154132
51
313.2910025
0
ARC
8
DEFAULT_255_2_778
10
3.3399808
20
0.8873413
40
0.098492
50
201.7316112
51
261.9832504
0
ARC
8
DEFAULT_255_2_778
10
3.6319134
20
1.0491279
40
0.431647
50
187.1026598
51
207.3417508
0
ARC
8
DEFAULT_255_2_778
10
3.9115378
20
1.0993233
40
0.7154943
50
179.8888074
51
188.3227752
0
ARC
8
DEFAULT_255_2_778
10
4.1846831
20
1.0753519
40
0.5846895
50
161.537146
51
180.7584974
0
ARC
8
DEFAULT_255_2_778
10
3.8279705
20
1.2021629
40
0.2063072
50
130.9409205
51
163.5695757
0
ARC
8
DEFAULT_255_2_778
10
3.7356386
20
1.3029811
40
0.0697447
50
91.1450854
51
127.9147377
0
ARC
8
DEFAULT_255_2_778
10
3.7207681
20
1.2706586
40
0.1029392
50
22.5086218
51
82.4772657
0
ARC
8
DEFAULT_255_2_778
10
3.4438932
20
1.1135501
40
0.4206922
50
7.0139035
51
27.847842
0
ARC
8
DEFAULT_255_2_778
10
3.1958226
20
1.0687705
40
0.6725232
50
359.90129
51
8.2197283
0
ARC
8
DEFAULT_255_2_778
10
3.2838695
20
1.0599019
40
0.5845262
50
341.5371459
51
0.7557558
0
ARC
8
DEFAULT_255_2_778
10
3.6403471
20
0.9331603
40
0.2063891
50
310.9669344
51
343.5711602
0
ARC
8
DEFAULT_255_2_778
10
3.7328443
20
0.8322253
40
0.0696275
50
271.1525493
51
307.9470102
0
ARC
8
DEFAULT_255_2_778
10
3.7476821
20
0.8647394
40
0.1030078
50
202.541863
51
262.5044397
0
ARC
8
DEFAULT_255_2_778
10
4.0281288
20
1.0232484
40
0.4245786
50
186.5893319
51
207.7969641
0
ARC
8
DEFAULT_255_2_778
10
4.2745021
20
1.0665755
40
0.6744579
50
179.9119608
51
187.8440701
0
LINE
8
DEFAULT_255_2_778
10
3.1960448
20
1.1007118
11
3.1960448
21
1.1007118
0
LINE
8
DEFAULT_255_2_778
10
3.6000448
20
1.0676118
11
3.6000448
21
1.0676118
0
ARC
8
DEFAULT_255_2_778
10
3.1007521
20
0.5699768
40
0.281721
50
179.9986677
51
181.1342528
0
ARC
8
DEFAULT_255_2_778
10
3.1370694
20
0.5681565
40
0.3180434
50
162.3191367
51
179.670891
0
ARC
8
DEFAULT_255_2_778
10
3.1740621
20
0.558375
40
0.3562647
50
161.8293909
51
162.627242
0
ARC
8
DEFAULT_255_2_778
10
3.2403451
20
0.5298287
40
0.428193
50
131.7528421
51
160.9659462
0
ARC
8
DEFAULT_255_2_778
10
3.340703
20
0.4214924
40
0.575851
50
110.3185489
51
132.0241048
0
ARC
8
DEFAULT_255_2_778
10
3.4129645
20
0.2308778
40
0.7796985
50
94.4191259
51
110.4343813
0
ARC
8
DEFAULT_255_2_778
10
3.434692
20
0.033995
40
0.9776917
50
89.9503724
51
94.7996224
0
ARC
8
DEFAULT_255_2_778
10
3.4354333
20
-0.050864
40
1.0625505
50
88.4547569
51
89.9943086
0
ARC
8
DEFAULT_255_2_778
10
3.4465266
20
0.0355768
40
0.9758813
50
74.6235072
51
88.9689824
0
ARC
8
DEFAULT_255_2_778
10
3.5372362
20
0.3561833
40
0.6427031
50
53.5217948
51
74.8419534
0
ARC
8
DEFAULT_255_2_778
10
3.6512425
20
0.5074272
40
0.4533152
50
17.4124402
51
53.7434218
0
ARC
8
DEFAULT_255_2_778
10
3.6931104
20
0.5251342
40
0.4080904
50
3.3630084
51
16.7993423
0
ARC
8
DEFAULT_255_2_778
10
3.6969601
20
0.5254994
40
0.4042261
50
0.0000879
51
3.3433403
0
ARC
8
DEFAULT_255_2_778
10
0.505744
20
0.5188621
40
3.5954485
50
356.3246687
51
0.1057795
0
ARC
8
DEFAULT_255_2_778
10
2.3031896
20
0.3984155
40
1.7939856
50
351.8796598
51
356.4836523
0
ARC
8
DEFAULT_255_2_778
10
3.6640604
20
0.1969302
40
0.4183617
50
341.96497
51
352.8710344
0
ARC
8
DEFAULT_255_2_778
10
3.9795981
20
0.0979308
40
0.0877492
50
333.8807451
51
339.6432801
0
ARC
8
DEFAULT_255_2_778
10
4.0376509
20
0.0797393
40
0.0291156
50
277.594158
51
315.4122077
0
ARC
8
DEFAULT_255_2_778
10
3.9529917
20
0.4009307
40
0.3610674
50
277.0088134
51
284.1892741
0
ARC
8
DEFAULT_255_2_778
10
3.8107227
20
1.4420967
40
1.411884
50
274.7902818
51
277.5834816
0
ARC
8
DEFAULT_255_2_778
10
3.6378064
20
3.4335233
40
3.4108
50
273.2810583
51
274.891249
0
ARC
8
DEFAULT_255_2_778
10
3.4423217
20
6.8359347
40
6.8188226
50
271.8759887
51
273.2846776
0
ARC
8
DEFAULT_255_2_778
10
3.3201508
20
10.3599345
40
10.3449352
50
270.8160999
51
271.9133331
0
ARC
8
DEFAULT_255_2_778
10
3.3113656
20
10.7033921
40
10.688484
50
270.0103862
51
270.836965
0
ARC
8
DEFAULT_255_2_778
10
3.3081151
20
8.1674097
40
8.152503
50
268.9067404
51
270.0364612
0
ARC
8
DEFAULT_255_2_778
10
3.2432045
20
4.8007261
40
4.7851936
50
267.6624462
51
268.9146799
0
ARC
8
DEFAULT_255_2_778
10
3.1403138
20
2.3358698
40
2.318193
50
265.7405144
51
267.7185932
0
ARC
8
DEFAULT_255_2_778
10
3.0258207
20
0.8338266
40
0.811799
50
262.0711698
51
265.9250567
0
ARC
8
DEFAULT_255_2_778
10
2.9319903
20
0.1826914
40
0.1539768
50
251.6953495
51
263.2299823
0
ARC
8
DEFAULT_255_2_778
10
2.8893614
20
0.0537324
40
0.0181546
50
229.148255
51
251.5997748
0
ARC
8
DEFAULT_255_2_778
10
3.0144948
20
0.1554286
40
0.179151
50
194.0837177
51
220.1138676
0
ARC
8
DEFAULT_255_2_778
10
3.3340509
20
0.2572764
40
0.5143152
50
188.428866
51
196.4266889
0
ARC
8
DEFAULT_255_2_778
10
3.2259573
20
0.24378
40
0.4054185
50
186.2988129
51
188.7813168
0
LINE
8
DEFAULT_255_2_778
10
2.8229863
20
0.1993
11
2.8190863
21
0.5644
0
LINE
8
DEFAULT_255_2_778
10
2.8229863
20
0.1993
11
2.8229863
21
0.1993
0
ARC
8
DEFAULT_255_2_778
10
2.8805681
20
0.0352485
40
0.1614747
50
177.6753433
51
249.1052734
0
ARC
8
DEFAULT_255_2_778
10
3.0619686
20
0.0725394
40
0.3441181
50
182.8560817
51
185.1252433
0
ARC
8
DEFAULT_255_2_778
10
2.8445783
20
0.0617204
40
0.1264589
50
180.0001371
51
182.8680518
0
ARC
8
DEFAULT_255_2_778
10
2.8706604
20
0.0565152
40
0.1526298
50
119.568902
51
178.0457588
0
ARC
8
DEFAULT_255_2_778
10
2.8391401
20
0.1116428
40
0.0891277
50
100.4477554
51
119.433028
0
ARC
8
DEFAULT_255_2_778
10
2.9905267
20
0.354771
40
0.228574
50
222.859979
51
261.3227857
0
ARC
8
DEFAULT_255_2_778
10
3.1159234
20
0.8161256
40
0.7056631
50
256.9048628
51
259.7188578
0
ARC
8
DEFAULT_255_2_778
10
3.6544306
20
15.5299894
40
15.4225166
50
267.5307451
51
270.0045881
0
ARC
8
DEFAULT_255_2_778
10
3.6556322
20
15.7370623
40
15.6295894
50
270.0001222
51
270.3515488
0
ARC
8
DEFAULT_255_2_778
10
3.6551467
20
15.800694
40
15.6932227
50
270.3518961
51
271.0472757
0
ARC
8
DEFAULT_255_2_778
10
3.9319567
20
0.2833691
40
0.1735658
50
273.3099258
51
298.2361856
0
ARC
8
DEFAULT_255_2_778
10
3.950665
20
0.2431668
40
0.1293213
50
299.3606416
51
318.6022648
0
ARC
8
DEFAULT_255_2_778
10
3.8546007
20
0.3187294
40
0.2514441
50
320.1618264
51
330.2052303
0
ARC
8
DEFAULT_255_2_778
10
4.1887496
20
0.1198309
40
0.1375225
50
146.5708058
51
147.4671784
0
ARC
8
DEFAULT_255_2_778
10
4.008702
20
0.0481315
40
0.161263
50
0.877311
51
66.1227679
0
ARC
8
DEFAULT_255_2_778
10
3.8979489
20
0.0218898
40
0.2735083
50
3.0186133
51
6.02559
0
ARC
8
DEFAULT_255_2_778
10
3.9796991
20
0.0264256
40
0.1916329
50
0.0071943
51
2.9514902
0
ARC
8
DEFAULT_255_2_778
10
4.0285174
20
0.0189871
40
0.1430093
50
290.1059009
51
2.991186
0
ARC
8
DEFAULT_255_2_778
10
3.9760628
20
0.1925997
40
0.324241
50
282.5532712
51
288.2638562
0
ARC
8
DEFAULT_255_2_778
10
3.7703323
20
1.0740949
40
1.2294131
50
280.4192848
51
282.9830499
0
ARC
8
DEFAULT_255_2_778
10
3.5309147
20
2.3507298
40
2.5283
50
278.9022779
51
280.5233042
0
ARC
8
DEFAULT_255_2_778
10
3.3511424
20
3.4919042
40
3.6835473
50
277.0888761
51
278.9179934
0
ARC
8
DEFAULT_255_2_778
10
3.3330296
20
3.609164
40
3.8021476
50
274.5981818
51
277.1416718
0
ARC
8
DEFAULT_255_2_778
10
3.4248364
20
2.40797
40
2.5974642
50
270.9509333
51
274.7037347
0
ARC
8
DEFAULT_255_2_778
10
3.4448055
20
1.5835048
40
1.7727922
50
270.0066187
51
270.7478555
0
ARC
8
DEFAULT_255_2_778
10
3.4447324
20
1.3762869
40
1.5655744
50
269.1306144
51
270.0101715
0
ARC
8
DEFAULT_255_2_778
10
3.4568848
20
1.6972366
40
1.8866854
50
265.3388081
51
268.9094949
0
ARC
8
DEFAULT_255_2_778
10
3.5356803
20
2.7473018
40
2.9396888
50
264.0217558
51
265.4712832
0
ARC
8
DEFAULT_255_2_778
10
3.678803
20
4.0703105
40
4.270411
50
261.7150076
51
263.9606847
0
ARC
8
DEFAULT_255_2_778
10
3.8144156
20
5.0450929
40
5.2545653
50
261.5390059
51
261.7833308
0
ARC
8
DEFAULT_255_2_778
10
3.8728533
20
5.4333287
40
5.6471739
50
260.6429696
51
261.5321256
0
ARC
8
DEFAULT_255_2_778
10
3.8805918
20
5.4857257
40
5.700132
50
259.8723779
51
260.6518497
0
ARC
8
DEFAULT_255_2_778
10
3.6785546
20
4.3578335
40
4.5542875
50
259.3576298
51
259.8794113
0
ARC
8
DEFAULT_255_2_778
10
3.2413584
20
2.0355554
40
2.1912142
50
258.9876906
51
259.3785983
0
LINE
8
DEFAULT_255_2_778
10
2.8227778
20
-0.1153071
11
2.8229778
21
-0.1156071
0
ARC
8
DEFAULT_255_2_778
10
5.6289066
20
1.3037423
40
0.1850091
50
297.2451923
51
300.0334248
0
ARC
8
DEFAULT_255_2_778
10
5.5231623
20
1.507044
40
0.4141661
50
293.4135119
51
297.3753966
0
ARC
8
DEFAULT_255_2_778
10
5.4681473
20
1.6325266
40
0.5511781
50
288.7805044
51
293.478257
0
ARC
8
DEFAULT_255_2_778
10
5.448207
20
1.6904637
40
0.6124503
50
281.7311378
51
288.8016648
0
ARC
8
DEFAULT_255_2_778
10
5.4464884
20
1.6970567
40
0.6192551
50
272.4289526
51
281.7627958
0
ARC
8
DEFAULT_255_2_778
10
5.4469407
20
1.6897368
40
0.6119229
50
270.0002537
51
272.4156926
0
ARC
8
DEFAULT_255_2_778
10
5.4469459
20
1.6877655
40
0.6099516
50
259.5924195
51
269.9997639
0
ARC
8
DEFAULT_255_2_778
10
5.4505895
20
1.706245
40
0.6287854
50
250.7615554
51
259.5700598
0
ARC
8
DEFAULT_255_2_778
10
4.8507703
20
-1.7716657
40
2.9108416
50
82.2479225
51
83.6430979
0
ARC
8
DEFAULT_255_2_778
10
5.0884458
20
0.3898698
40
0.7362872
50
83.4007716
51
87.9719199
0
ARC
8
DEFAULT_255_2_778
10
5.1053545
20
0.7771877
40
0.3486282
50
88.4963816
51
89.9710315
0
ARC
8
DEFAULT_255_2_778
10
5.0976324
20
1.0112208
40
0.1148669
50
86.0572104
51
114.6917571
0
ARC
8
DEFAULT_255_2_778
10
5.0815355
20
1.0686375
40
0.0567527
50
124.1845624
51
188.94356
0
ARC
8
DEFAULT_255_2_778
10
5.2276937
20
1.0600522
40
0.202221
50
180.0672837
51
182.743246
0
ARC
8
DEFAULT_255_2_778
10
6.9483991
20
1.1420646
40
1.9248796
50
182.730293
51
183.4020797
0
ARC
8
DEFAULT_255_2_778
10
-6.5412934
20
0.3483202
40
11.5881454
50
3.2273932
51
3.3616943
0
ARC
8
DEFAULT_255_2_778
10
2.8024921
20
0.8728617
40
2.2296496
50
1.7196497
51
3.2873931
0
ARC
8
DEFAULT_255_2_778
10
3.5906933
20
0.8980704
40
1.4410479
50
0.0367167
51
1.6582556
0
ARC
8
DEFAULT_255_2_778
10
3.9788572
20
0.8971892
40
1.0528852
50
356.7187027
51
0.0982058
0
ARC
8
DEFAULT_255_2_778
10
4.553419
20
0.8509188
40
0.4768028
50
339.0928806
51
358.3180526
0
ARC
8
DEFAULT_255_2_778
10
4.8277193
20
0.7522427
40
0.1854372
50
320.693418
51
337.3296113
0
ARC
8
DEFAULT_255_2_778
10
5.1705193
20
0.4669286
40
0.2605732
50
139.898885
51
141.3734602
0
ARC
8
DEFAULT_255_2_778
10
5.310149
20
0.3651088
40
0.4332832
50
142.3808737
51
156.0902292
0
ARC
8
DEFAULT_255_2_778
10
5.4152647
20
0.310448
40
0.5515813
50
155.3249595
51
171.5734299
0
ARC
8
DEFAULT_255_2_778
10
5.2698659
20
0.3342031
40
0.404277
50
171.8840431
51
179.8251545
0
ARC
8
DEFAULT_255_2_778
10
5.0858814
20
0.3230142
40
0.2206405
50
176.7723847
51
224.4240821
0
ARC
8
DEFAULT_255_2_778
10
4.9930256
20
0.2509513
40
0.104761
50
231.8445782
51
254.4715056
0
ARC
8
DEFAULT_255_2_778
10
5.1193364
20
0.6324593
40
0.5065365
50
252.2580425
51
259.5086829
0
ARC
8
DEFAULT_255_2_778
10
5.2983057
20
1.5562446
40
1.4474873
50
259.2011803
51
262.9763791
0
ARC
8
DEFAULT_255_2_778
10
5.5147548
20
3.2587299
40
3.1636709
50
262.8559901
51
265.0243776
0
ARC
8
DEFAULT_255_2_778
10
5.747781
20
5.8933806
40
5.8086053
50
264.9884747
51
266.4790527
0
ARC
8
DEFAULT_255_2_778
10
6.0135701
20
10.2341148
40
10.1574691
50
266.4863409
51
267.8387013
0
ARC
8
DEFAULT_255_2_778
10
6.2546044
20
16.4805815
40
16.4085831
50
267.8202264
51
268.8408989
0
ARC
8
DEFAULT_255_2_778
10
6.3654187
20
21.569213
40
21.4984164
50
268.8199645
51
269.4481471
0
ARC
8
DEFAULT_255_2_778
10
6.3835506
20
23.1885343
40
23.1178373
50
269.4418654
51
269.7247065
0
ARC
8
DEFAULT_255_2_778
10
6.3825165
20
22.9007789
40
22.8300802
50
269.7238318
51
269.9990267
0
ARC
8
DEFAULT_255_2_778
10
6.3841743
20
20.8160799
40
20.7453812
50
269.9943502
51
270.4245461
0
ARC
8
DEFAULT_255_2_778
10
6.4168561
20
16.4600811
40
16.3892598
50
270.4231324
51
270.8168405
0
ARC
8
DEFAULT_255_2_778
10
6.4917923
20
11.3115702
40
11.2402039
50
270.8090362
51
271.3107436
0
ARC
8
DEFAULT_255_2_778
10
6.5994472
20
6.625492
40
6.5528893
50
271.3069521
51
271.8873694
0
ARC
8
DEFAULT_255_2_778
10
6.6988149
20
3.6084275
40
3.5341888
50
271.8882242
51
272.5443091
0
ARC
8
DEFAULT_255_2_778
10
6.794179
20
1.5195841
40
1.4431734
50
272.4433817
51
274.0209926
0
ARC
8
DEFAULT_255_2_778
10
6.8794022
20
0.3444705
40
0.2649891
50
273.4561959
51
278.4770137
0
ARC
8
DEFAULT_255_2_778
10
6.9128087
20
0.116524
40
0.0346128
50
279.4049916
51
284.8926981
0
ARC
8
DEFAULT_255_2_778
10
6.8644799
20
0.2235585
40
0.1516925
50
292.1629118
51
332.6132642
0
ARC
8
DEFAULT_255_2_778
10
6.652281
20
0.3656656
40
0.4064821
50
328.582891
51
337.3454971
0
ARC
8
DEFAULT_255_2_778
10
6.7240086
20
0.337722
40
0.3295307
50
337.0255788
51
340.3207382
0
ARC
8
DEFAULT_255_2_778
10
6.9968319
20
0.2399525
40
0.0397186
50
340.586948
51
341.0799355
0
ARC
8
DEFAULT_255_2_778
10
6.8173816
20
0.6140289
40
0.2332466
50
4.1907113
51
20.7857061
0
ARC
8
DEFAULT_255_2_778
10
6.6661821
20
0.5591203
40
0.3940978
50
20.4481488
51
33.6497288
0
ARC
8
DEFAULT_255_2_778
10
6.6094603
20
0.524996
40
0.460234
50
33.273268
51
33.6696042
0
ARC
8
DEFAULT_255_2_778
10
6.5566038
20
0.4861245
40
0.5257831
50
34.0016418
51
54.8545141
0
ARC
8
DEFAULT_255_2_778
10
6.5466866
20
0.4746957
40
0.5408393
50
54.6924028
51
79.1129877
0
ARC
8
DEFAULT_255_2_778
10
6.5401346
20
0.4403554
40
0.575799
50
79.118155
51
90.0887332
0
ARC
8
DEFAULT_255_2_778
10
6.5392813
20
0.4030675
40
0.6130861
50
90.0035906
51
92.0168635
0
ARC
8
DEFAULT_255_2_778
10
6.5386502
20
0.3615683
40
0.6545408
50
91.8338017
51
105.9447914
0
ARC
8
DEFAULT_255_2_778
10
6.5546826
20
0.3242042
40
0.6948906
50
106.3695379
51
121.2916113
0
ARC
8
DEFAULT_255_2_778
10
6.7584874
20
-0.0223934
40
1.096941
50
120.9854039
51
124.9896917
0
ARC
8
DEFAULT_255_2_778
10
7.0081492
20
-0.3874161
40
1.5391584
50
124.8118314
51
124.9648771
0
ARC
8
DEFAULT_255_2_778
10
-194.8049644
20
279.2838619
40
343.3444072
50
305.7969423
51
305.8183375
0
ARC
8
DEFAULT_255_2_778
10
5.7748257
20
1.1330031
40
0.4156533
50
291.7848892
51
306.5093191
0
ARC
8
DEFAULT_255_2_778
10
5.8636986
20
0.9270502
40
0.1915228
50
282.0875405
51
289.9620876
0
ARC
8
DEFAULT_255_2_778
10
6.3543634
20
1.2194651
40
0.6581087
50
220.4017383
51
226.7937324
0
ARC
8
DEFAULT_255_2_778
10
6.3521536
20
1.2185735
40
0.6558486
50
207.5006242
51
220.4675495
0
ARC
8
DEFAULT_255_2_778
10
6.1711782
20
1.1280473
40
0.4535329
50
197.2590668
51
207.9136924
0
ARC
8
DEFAULT_255_2_778
10
5.8400257
20
1.0271883
40
0.1073844
50
184.0127014
51
198.2904119
0
ARC
8
DEFAULT_255_2_778
10
5.3733402
20
1.0132012
40
0.3596226
50
1.0312764
51
4.9845852
0
ARC
8
DEFAULT_255_2_778
10
4.1429122
20
0.9173923
40
1.5937631
50
4.5725033
51
5.7923836
0
ARC
8
DEFAULT_255_2_778
10
2.8793807
20
0.7932666
40
2.8633733
50
5.7117691
51
5.993022
0
ARC
8
DEFAULT_255_2_778
10
1.791275
20
0.6781818
40
3.9575479
50
6.0053221
51
6.533932
0
ARC
8
DEFAULT_255_2_778
10
2.4313976
20
0.7529056
40
3.3130803
50
6.5097584
51
6.7793816
0
LINE
8
DEFAULT_255_2_778
10
7.0344046
20
0.2270738
11
7.0500046
21
0.6310738
0
LINE
8
DEFAULT_255_2_778
10
5.7213046
20
1.1440738
11
5.7215046
21
1.1435738
0
ARC
8
DEFAULT_255_2_778
10
5.3363425
20
0.9271301
40
0.2096846
50
265.337739
51
317.6868407
0
ARC
8
DEFAULT_255_2_778
10
5.3396682
20
0.8998786
40
0.1897274
50
323.1044583
51
357.3901278
0
ARC
8
DEFAULT_255_2_778
10
5.0046731
20
0.9339415
40
0.5262611
50
355.3457543
51
359.8361714
0
ARC
8
DEFAULT_255_2_778
10
5.328191
20
0.9440626
40
0.2030741
50
356.7180511
51
27.0583067
0
ARC
8
DEFAULT_255_2_778
10
5.4245927
20
0.9842913
40
0.0992492
50
31.6975294
51
90.2850879
0
ARC
8
DEFAULT_255_2_778
10
5.4963767
20
2.1534095
40
1.0723089
50
262.4186828
51
266.1351126
0
ARC
8
DEFAULT_255_2_778
10
5.4160069
20
1.6535583
40
0.5663899
50
248.3907951
51
263.8067512
0
ARC
8
DEFAULT_255_2_778
10
5.2769602
20
1.28457
40
0.1722549
50
237.1012431
51
246.1900817
0
ARC
8
DEFAULT_255_2_778
10
5.2387565
20
1.2262613
40
0.1025473
50
198.572574
51
237.3282916
0
ARC
8
DEFAULT_255_2_778
10
5.2266598
20
1.221912
40
0.0896959
50
180.3073195
51
198.4001114
0
ARC
8
DEFAULT_255_2_778
10
5.1937907
20
1.2237786
40
0.0568739
50
142.4516067
51
182.3657733
0
ARC
8
DEFAULT_255_2_778
10
5.2994233
20
1.1256557
40
0.2008715
50
129.9946854
51
138.620935
0
ARC
8
DEFAULT_255_2_778
10
5.4135771
20
0.9918948
40
0.3767178
50
123.8467355
51
130.2202905
0
ARC
8
DEFAULT_255_2_778
10
5.3127978
20
1.1425159
40
0.1954911
50
122.79993
51
123.9029045
0
ARC
8
DEFAULT_255_2_778
10
5.2569233
20
1.1854337
40
0.1704827
50
111.8769697
51
116.1266042
0
ARC
8
DEFAULT_255_2_778
10
5.3199793
20
1.054235
40
0.3160452
50
115.9161339
51
123.7171574
0
ARC
8
DEFAULT_255_2_778
10
5.3245671
20
1.0458197
40
0.3255927
50
123.5666637
51
132.3111683
0
ARC
8
DEFAULT_255_2_778
10
5.2870971
20
1.0842044
40
0.2719905
50
131.9172104
51
155.8210355
0
ARC
8
DEFAULT_255_2_778
10
5.2769144
20
1.09197
40
0.2595368
50
156.4642585
51
180.4486177
0
ARC
8
DEFAULT_255_2_778
10
5.3259589
20
1.0901295
40
0.3085734
50
180.0355809
51
184.8688383
0
ARC
8
DEFAULT_255_2_778
10
5.505698
20
1.0921254
40
0.4880138
50
183.3110641
51
209.6541367
0
ARC
8
DEFAULT_255_2_778
10
5.3115811
20
0.9837008
40
0.2656825
50
210.0461815
51
271.729336
0
ARC
8
DEFAULT_255_2_778
10
5.5030602
20
0.9885844
40
0.0986921
50
4.0640416
51
73.5553345
0
ARC
8
DEFAULT_255_2_778
10
5.4763002
20
0.9861913
40
0.1255554
50
359.9598482
51
4.287864
0
ARC
8
DEFAULT_255_2_778
10
5.4433783
20
0.9870081
40
0.1584799
50
349.0996503
51
359.6729022
0
ARC
8
DEFAULT_255_2_778
10
6.1627712
20
0.8512407
40
0.5736136
50
169.3713849
51
170.8365004
0
ARC
8
DEFAULT_255_2_778
10
6.047144
20
0.8684667
40
0.4567209
50
170.6598936
51
177.3711516
0
ARC
8
DEFAULT_255_2_778
10
5.9270929
20
0.8754516
40
0.3364789
50
177.6216862
51
179.9709255
0
ARC
8
DEFAULT_255_2_778
10
5.8869384
20
0.8755509
40
0.2963244
50
179.9861908
51
181.7257883
0
ARC
8
DEFAULT_255_2_778
10
5.6936832
20
0.8539157
40
0.1037168
50
172.9603701
51
239.9835169
0
ARC
8
DEFAULT_255_2_778
10
5.6712816
20
0.8427903
40
0.0840234
50
249.4584808
51
270.907312
0
ARC
8
DEFAULT_255_2_778
10
5.6725601
20
0.8753066
40
0.1165293
50
270.0255945
51
273.019766
0
ARC
8
DEFAULT_255_2_778
10
5.6619135
20
0.8723783
40
0.1146742
50
278.416868
51
341.2273217
0
ARC
8
DEFAULT_255_2_778
10
5.3959534
20
1.0049757
40
0.4111038
50
335.6501409
51
351.3654698
0
ARC
8
DEFAULT_255_2_778
10
5.2092999
20
1.0421953
40
0.6012937
50
350.5292612
51
359.258398
0
ARC
8
DEFAULT_255_2_778
10
5.2960624
20
1.0399503
40
0.5145105
50
359.3833266
51
359.9992131
0
ARC
8
DEFAULT_255_2_778
10
5.3923333
20
1.0411033
40
0.4182412
50
359.8410826
51
4.6330217
0
ARC
8
DEFAULT_255_2_778
10
5.5051628
20
1.0492067
40
0.3051276
50
4.8276854
51
5.6674217
0
ARC
8
DEFAULT_255_2_778
10
5.416006
20
1.0288974
40
0.3960185
50
7.3177974
51
32.2844081
0
ARC
8
DEFAULT_255_2_778
10
5.4757422
20
1.0739836
40
0.3214955
50
31.1776475
51
40.7396106
0
ARC
8
DEFAULT_255_2_778
10
5.6306374
20
1.2072339
40
0.1171721
50
40.801511
51
50.0352912
0
ARC
8
DEFAULT_255_2_778
10
5.6714275
20
1.2318202
40
0.045959
50
33.2395443
51
51.4024589
0
ARC
8
DEFAULT_255_2_778
10
5.657771
20
1.2211177
40
0.0632647
50
31.9356761
51
34.5670328
0
ARC
8
DEFAULT_255_2_778
10
5.6427975
20
1.2135248
40
0.0800019
50
359.7955403
51
30.8779755
0
ARC
8
DEFAULT_255_2_778
10
5.6887766
20
1.2125394
40
0.0340295
50
359.9970009
51
1.178537
0
ARC
8
DEFAULT_255_2_778
10
5.653214
20
1.2177827
40
0.0697895
50
322.0467205
51
355.6897841
0
ARC
8
DEFAULT_255_2_778
10
5.5904093
20
1.2576611
40
0.1440167
50
316.4073808
51
324.9049867
0
ARC
8
DEFAULT_255_2_778
10
5.5294201
20
1.3212991
40
0.2321039
50
292.470329
51
315.4108155
0
ARC
8
DEFAULT_255_2_778
10
5.4875053
20
1.4139539
40
0.3337608
50
277.4877154
51
293.0401696
0
LINE
8
DEFAULT_255_2_778
10
5.2068989
20
1.3068393
11
5.1933989
21
1.3436393
0
LINE
8
DEFAULT_255_2_778
10
5.3195989
20
0.7181393
11
5.3192989
21
0.7181393
0
LINE
8
DEFAULT_255_2_778
10
5.7058989
20
1.2970393
11
5.7000989
21
1.2677393
0
LINE
8
DEFAULT_255_2_778
10
5.5309989
20
1.0830393
11
5.5309989
21
1.0832393
0
ARC
8
DEFAULT_255_2_778
10
6.3647958
20
0.53777
40
0.5028932
50
156.3743294
51
164.5700393
0
ARC
8
DEFAULT_255_2_778
10
7.1621117
20
0.3099828
40
1.332097
50
164.2499033
51
169.4086731
0
ARC
8
DEFAULT_255_2_778
10
7.8377631
20
0.1766123
40
2.0207633
50
169.2126979
51
173.2188578
0
ARC
8
DEFAULT_255_2_778
10
7.5620851
20
0.2048523
40
1.7436851
50
173.0707024
51
177.7075995
0
ARC
8
DEFAULT_255_2_778
10
7.0079502
20
0.230206
40
1.1889837
50
177.8602828
51
179.9520528
0
ARC
8
DEFAULT_255_2_778
10
6.5581766
20
0.226957
40
0.7392219
50
179.671056
51
185.6750856
0
ARC
8
DEFAULT_255_2_778
10
6.1366107
20
0.18351
40
0.3154297
50
185.3941528
51
195.2663745
0
ARC
8
DEFAULT_255_2_778
10
5.9686607
20
0.1390573
40
0.1417079
50
195.8075069
51
204.0488313
0
ARC
8
DEFAULT_255_2_778
10
5.0068898
20
0.0444772
40
0.1462198
50
122.2954075
51
127.0882588
0
ARC
8
DEFAULT_255_2_778
10
5.0525638
20
-0.0181741
40
0.2237448
50
126.7432956
51
137.4364184
0
ARC
8
DEFAULT_255_2_778
10
4.9886146
20
0.0332705
40
0.1419483
50
135.2702112
51
177.7825671
0
ARC
8
DEFAULT_255_2_778
10
4.9628124
20
0.0387777
40
0.1160399
50
180.0073913
51
185.2908338
0
ARC
8
DEFAULT_255_2_778
10
4.979708
20
0.0450391
40
0.1335229
50
187.2980739
51
266.2932614
0
ARC
8
DEFAULT_255_2_778
10
5.244995
20
0.8956255
40
1.0212509
50
254.4416695
51
256.2886989
0
ARC
8
DEFAULT_255_2_778
10
5.6046266
20
2.3482667
40
2.5177438
50
256.173463
51
256.5303255
0
ARC
8
DEFAULT_255_2_778
10
5.061054
20
0.0910626
40
0.196034
50
257.3629653
51
262.4336824
0
ARC
8
DEFAULT_255_2_778
10
5.133287
20
0.6024095
40
0.7124526
50
262.0900329
51
264.2338837
0
ARC
8
DEFAULT_255_2_778
10
5.2359713
20
1.5925715
40
1.7079232
50
264.1438007
51
265.2520244
0
ARC
8
DEFAULT_255_2_778
10
5.3654722
20
3.1344618
40
3.255242
50
265.2268617
51
265.9260351
0
ARC
8
DEFAULT_255_2_778
10
5.5926708
20
6.3638747
40
6.4926367
50
265.9508021
51
266.7085612
0
ARC
8
DEFAULT_255_2_778
10
5.936991
20
12.2595072
40
12.3983139
50
266.6842749
51
267.0979537
0
ARC
8
DEFAULT_255_2_778
10
6.4303437
20
22.0312829
40
22.1825356
50
267.103149
51
267.4911455
0
ARC
8
DEFAULT_255_2_778
10
7.1514282
20
38.3713143
40
38.5384696
50
267.4835211
51
267.7218951
0
ARC
8
DEFAULT_255_2_778
10
8.1724509
20
64.0083346
40
64.1958135
50
267.7208729
51
267.8872596
0
ARC
8
DEFAULT_255_2_778
10
7.2073276
20
37.7041324
40
37.8739124
50
267.8793001
51
267.885712
0
ARC
8
DEFAULT_255_2_778
10
7.1832022
20
36.9487611
40
37.1181657
50
267.8799098
51
267.8863873
0
ARC
8
DEFAULT_255_2_778
10
3.854901
20
-53.2996532
40
53.1916006
50
87.8845266
51
87.8890017
0
ARC
8
DEFAULT_255_2_778
10
7.1299471
20
35.4058126
40
35.5743026
50
267.8871406
51
267.8937649
0
ARC
8
DEFAULT_255_2_778
10
7.106713
20
34.6830244
40
34.8511491
50
267.8882644
51
267.8949583
0
ARC
8
DEFAULT_255_2_778
10
7.1664596
20
36.2180127
40
36.3872962
50
267.8897248
51
267.8960716
0
ARC
8
DEFAULT_255_2_778
10
4.1743135
20
-45.3080667
40
45.1936733
50
87.8946579
51
87.8997163
0
ARC
8
DEFAULT_255_2_778
10
4.2117207
20
-44.4331096
40
44.3179328
50
87.8963246
51
87.9014307
0
ARC
8
DEFAULT_255_2_778
10
4.2484678
20
-43.5788196
40
43.46287
50
87.8982412
51
87.9033948
0
ARC
8
DEFAULT_255_2_778
10
4.2847239
20
-42.7360782
40
42.6193663
50
87.9001975
51
87.9053995
0
ARC
8
DEFAULT_255_2_778
10
4.1813465
20
-45.7154098
40
45.6004855
50
87.9027425
51
87.9075547
0
ARC
8
DEFAULT_255_2_778
10
4.3553019
20
-41.1109071
40
40.9927015
50
87.9048983
51
87.9101966
0
ARC
8
DEFAULT_255_2_778
10
4.3896399
20
-40.3278635
40
40.2089264
50
87.907658
51
87.913004
0
ARC
8
DEFAULT_255_2_778
10
4.4235094
20
-39.5556208
40
39.4359624
50
87.9104755
51
87.91587
0
ARC
8
DEFAULT_255_2_778
10
6.956046
20
29.8455104
40
30.0113613
50
267.9096773
51
267.9166925
0
ARC
8
DEFAULT_255_2_778
10
6.9340859
20
29.1901603
40
29.355646
50
267.9130271
51
267.9201247
0
ARC
8
DEFAULT_255_2_778
10
4.5214358
20
-37.2389677
40
37.1172802
50
87.91431
51
87.9198651
0
ARC
8
DEFAULT_255_2_778
10
6.8966527
20
27.9771639
40
28.1420905
50
267.9139849
51
267.9212354
0
ARC
8
DEFAULT_255_2_778
10
6.8755058
20
27.3512075
40
27.515779
50
267.9179608
51
267.9252988
0
ARC
8
DEFAULT_255_2_778
10
4.6144551
20
-35.0677784
40
34.9441454
50
87.9198303
51
87.9255479
0
ARC
8
DEFAULT_255_2_778
10
6.8394139
20
26.1945798
40
26.3586032
50
267.9202615
51
267.9277619
0
ARC
8
DEFAULT_255_2_778
10
4.6737336
20
-33.6670561
40
33.542195
50
87.9224464
51
87.9282785
0
ARC
8
DEFAULT_255_2_778
10
6.8042888
20
25.0732577
40
25.2367444
50
267.9231531
51
267.9308228
0
ARC
8
DEFAULT_255_2_778
10
4.7309218
20
-32.3298722
40
32.2038178
50
87.9259226
51
87.9318696
0
ARC
8
DEFAULT_255_2_778
10
6.7177286
20
22.5406857
40
22.7026985
50
267.9267973
51
267.9351438
0
ARC
8
DEFAULT_255_2_778
10
4.7860754
20
-31.0541858
40
30.9269718
50
87.9303116
51
87.9363736
0
ARC
8
DEFAULT_255_2_778
10
4.8129211
20
-30.3860472
40
30.2582996
50
87.9292909
51
87.935421
0
ARC
8
DEFAULT_255_2_778
10
6.7226991
20
22.4538526
40
22.6161012
50
267.9311247
51
267.9392389
0
ARC
8
DEFAULT_255_2_778
10
0.6128854
20
-147.2690222
40
147.2167108
50
87.936015
51
87.9381708
0
ARC
8
DEFAULT_255_2_778
10
15.7627259
20
273.1417533
40
273.4669446
50
267.9362897
51
267.9372662
0
ARC
8
DEFAULT_255_2_778
10
0.1475037
20
-160.7368534
40
160.6925662
50
87.9395671
51
87.941474
0
ARC
8
DEFAULT_255_2_778
10
6.7807157
20
23.6015592
40
23.7651522
50
267.9364423
51
267.9472906
0
ARC
8
DEFAULT_255_2_778
10
0.5322929
20
-150.4214099
40
150.3699579
50
87.9410915
51
87.9430587
0
ARC
8
DEFAULT_255_2_778
10
14.1815745
20
229.5513239
40
229.8478498
50
267.9437862
51
267.9448689
0
ARC
8
DEFAULT_255_2_778
10
-0.1233958
20
-169.2517506
40
169.2117003
50
87.9451297
51
87.946817
0
ARC
8
DEFAULT_255_2_778
10
1.0373213
20
-137.1878999
40
137.1268494
50
87.9473789
51
87.9494213
0
ARC
8
DEFAULT_255_2_778
10
11.2962193
20
149.2727261
40
149.5174168
50
267.9504218
51
267.9519974
0
ARC
8
DEFAULT_255_2_778
10
0.4389671
20
-154.3777194
40
154.3270712
50
87.9506811
51
87.9524323
0
ARC
8
DEFAULT_255_2_778
10
-1.0678469
20
-196.6416673
40
196.6178709
50
87.9499763
51
87.952283
0
ARC
8
DEFAULT_255_2_778
10
-3.139318
20
-255.0605838
40
255.0734995
50
87.9526632
51
87.954383
0
ARC
8
DEFAULT_255_2_778
10
-9.2476962
20
-427.4889649
40
427.6100377
50
87.9455399
51
87.9601068
0
ARC
8
DEFAULT_255_2_778
10
4.6584111
20
-39.8986934
40
39.7703823
50
87.8457472
51
87.9488329
0
ARC
8
DEFAULT_255_2_778
10
5.8454648
20
-8.4455321
40
8.2948302
50
87.5277478
51
87.8726313
0
ARC
8
DEFAULT_255_2_778
10
6.2388659
20
0.667985
40
0.8271739
50
267.5334015
51
269.0103326
0
ARC
8
DEFAULT_255_2_778
10
6.2484272
20
1.1920239
40
1.3512998
50
268.9887652
51
270.0355811
0
ARC
8
DEFAULT_255_2_778
10
6.2439549
20
2.3776223
40
2.5369034
50
270.1199598
51
271.765409
0
ARC
8
DEFAULT_255_2_778
10
6.1717153
20
4.779852
40
4.9402188
50
271.7445219
51
273.0891698
0
ARC
8
DEFAULT_255_2_778
10
6.0524226
20
7.0524343
40
7.2159282
50
273.0625684
51
274.3924752
0
ARC
8
DEFAULT_255_2_778
10
6.1409907
20
6.0164721
40
6.1762321
50
274.3093026
51
276.3156881
0
ARC
8
DEFAULT_255_2_778
10
6.4996206
20
2.7841891
40
2.9241148
50
276.2984202
51
278.5153296
0
ARC
8
DEFAULT_255_2_778
10
6.7754869
20
0.9565176
40
1.0757446
50
278.3984416
51
282.0649285
0
ARC
8
DEFAULT_255_2_778
10
6.9070086
20
0.3294494
40
0.4350437
50
282.3880312
51
284.7048331
0
ARC
8
DEFAULT_255_2_778
10
6.9575889
20
0.1377036
40
0.2367391
50
284.6440857
51
288.0772685
0
ARC
8
DEFAULT_255_2_778
10
6.9916516
20
0.0329814
40
0.1266165
50
288.1288002
51
291.7483239
0
ARC
8
DEFAULT_255_2_778
10
6.966305
20
0.0789637
40
0.1788358
50
293.8327651
51
357.8893
0
ARC
8
DEFAULT_255_2_778
10
7.004407
20
0.0724816
40
0.1406125
50
359.9574568
51
13.2532778
0
ARC
8
DEFAULT_255_2_778
10
6.98922
20
0.0669518
40
0.1566742
50
13.9484151
51
43.7730355
0
ARC
8
DEFAULT_255_2_778
10
6.9207511
20
0.0031518
40
0.2502551
50
43.4758554
51
60.2213949
0
ARC
8
DEFAULT_255_2_778
10
6.8726375
20
-0.0726034
40
0.3399278
50
59.5241804
51
61.55181
0
ARC
8
DEFAULT_255_2_778
10
6.7323089
20
0.4953651
40
0.4046826
50
310.3338263
51
318.322659
0
ARC
8
DEFAULT_255_2_778
10
6.7960231
20
0.4234263
40
0.3086129
50
309.322972
51
309.9612608
0
ARC
8
DEFAULT_255_2_778
10
6.7958792
20
0.4381997
40
0.3202663
50
274.2459119
51
307.6678344
0
ARC
8
DEFAULT_255_2_778
10
6.5637705
20
1.8246674
40
1.7249307
50
277.3181219
51
278.5288632
0
ARC
8
DEFAULT_255_2_778
10
6.4481356
20
2.6982618
40
2.6061406
50
277.3572547
51
277.3932214
0
ARC
8
DEFAULT_255_2_778
10
6.6799302
20
0.9798986
40
0.8722978
50
273.2017851
51
276.7109154
0
ARC
8
DEFAULT_255_2_778
10
6.5262231
20
3.4592941
40
3.3564414
50
271.9953543
51
273.4576108
0
ARC
8
DEFAULT_255_2_778
10
6.3407401
20
8.6333236
40
8.5337934
50
271.0605643
51
272.0303929
0
ARC
8
DEFAULT_255_2_778
10
6.1996527
20
15.9090849
40
15.8109209
50
270.3062353
51
271.0837353
0
ARC
8
DEFAULT_255_2_778
10
6.1811069
20
18.1709221
40
18.0728262
50
270.0013276
51
270.3267043
0
ARC
8
DEFAULT_255_2_778
10
6.1776166
20
15.3565165
40
15.2584211
50
269.433619
51
270.0146787
0
ARC
8
DEFAULT_255_2_778
10
6.1246847
20
9.960259
40
9.8619041
50
268.9209299
51
269.4312194
0
ARC
8
DEFAULT_255_2_778
10
6.0396377
20
5.5476406
40
5.448467
50
268.1618044
51
268.9412532
0
ARC
8
DEFAULT_255_2_778
10
5.0157873
20
0.2278637
40
0.106745
50
235.0054183
51
266.8742814
0
ARC
8
DEFAULT_255_2_778
10
5.0136587
20
0.2239341
40
0.1023063
50
231.0376209
51
234.7199039
0
ARC
8
DEFAULT_255_2_778
10
5.0080749
20
0.2180388
40
0.0942133
50
213.7012248
51
231.4236491
0
ARC
8
DEFAULT_255_2_778
10
4.9600739
20
0.1856679
40
0.036319
50
209.5110363
51
213.2329909
0
LINE
8
DEFAULT_255_2_778
10
5.8648669
20
0.1019775
11
5.0099669
21
0.1212775
0
LINE
8
DEFAULT_255_2_778
10
4.9284669
20
0.1677775
11
4.9287669
21
0.1680775
0
ARC
8
DEFAULT_255_2_778
10
5.0105334
20
6.7725548
40
0.6584275
50
138.534307
51
141.0050712
0
ARC
8
DEFAULT_255_2_778
10
4.9481384
20
6.8228154
40
0.5783074
50
140.9853062
51
146.6383945
0
ARC
8
DEFAULT_255_2_778
10
4.8768414
20
6.8707321
40
0.4924092
50
146.733004
51
146.8538533
0
ARC
8
DEFAULT_255_2_778
10
4.7179054
20
6.9587804
40
0.3114718
50
144.428363
51
176.4308327
0
ARC
8
DEFAULT_255_2_778
10
4.5863862
20
6.9781521
40
0.1793486
50
179.9940972
51
182.270492
0
ARC
8
DEFAULT_255_2_778
10
4.5658909
20
6.9764391
40
0.1588041
50
181.9458782
51
206.4735678
0
ARC
8
DEFAULT_255_2_778
10
5.2164452
20
7.3090428
40
0.8894444
50
206.970855
51
209.7730829
0
ARC
8
DEFAULT_255_2_778
10
6.9951127
20
8.3170554
40
2.9338825
50
209.6115286
51
210.895979
0
ARC
8
DEFAULT_255_2_778
10
10.9921085
20
10.7064883
40
7.590637
50
210.8808305
51
211.7587718
0
ARC
8
DEFAULT_255_2_778
10
18.5344687
20
15.3669288
40
16.4566891
50
211.7335779
51
212.2562318
0
ARC
8
DEFAULT_255_2_778
10
24.7678709
20
19.289147
40
23.8214043
50
212.2324058
51
212.2750073
0
ARC
8
DEFAULT_255_2_778
10
28.9314618
20
21.924789
40
28.7490891
50
212.2852363
51
212.5751339
0
ARC
8
DEFAULT_255_2_778
10
35.1807871
20
25.9130154
40
36.1625907
50
212.5690408
51
212.7232781
0
ARC
8
DEFAULT_255_2_778
10
36.5062681
20
26.763151
40
37.7372744
50
212.7212745
51
212.8534756
0
ARC
8
DEFAULT_255_2_778
10
30.5602287
20
22.9221171
40
30.6585085
50
212.8515699
51
212.9393178
0
ARC
8
DEFAULT_255_2_778
10
17.8421988
20
14.6810259
40
15.5038436
50
212.9360823
51
212.998774
0
ARC
8
DEFAULT_255_2_778
10
4.096646
20
7.6956683
40
1.6366842
50
296.9903382
51
297.3253622
0
ARC
8
DEFAULT_255_2_778
10
3.2237401
20
9.3879568
40
3.5408388
50
297.3038247
51
297.6737829
0
ARC
8
DEFAULT_255_2_778
10
2.5506777
20
10.6707264
40
4.9894624
50
297.6772591
51
298.3371314
0
ARC
8
DEFAULT_255_2_778
10
2.2338743
20
11.2599707
40
5.6584711
50
298.3285338
51
299.0393409
0
ARC
8
DEFAULT_255_2_778
10
2.3325616
20
11.0846812
40
5.4573143
50
299.0268083
51
300.3876399
0
ARC
8
DEFAULT_255_2_778
10
2.8599851
20
10.1889071
40
4.4178036
50
300.3637467
51
302.2677212
0
ARC
8
DEFAULT_255_2_778
10
3.711624
20
8.8514871
40
2.832268
50
302.1443695
51
306.011811
0
ARC
8
DEFAULT_255_2_778
10
4.2444343
20
8.1058331
40
1.915859
50
306.2337367
51
307.0185901
0
ARC
8
DEFAULT_255_2_778
10
4.6274563
20
7.6086069
40
1.288262
50
306.7315841
51
312.2507153
0
ARC
8
DEFAULT_255_2_778
10
5.0933798
20
7.097937
40
0.5969852
50
312.1049338
51
320.5256432
0
ARC
8
DEFAULT_255_2_778
10
5.3693863
20
6.873301
40
0.2411335
50
320.0343176
51
335.5128664
0
ARC
8
DEFAULT_255_2_778
10
5.498836
20
6.8142332
40
0.0988444
50
335.5705083
51
358.5832512
0
ARC
8
DEFAULT_255_2_778
10
5.5302774
20
6.8118626
40
0.067373
50
359.9376847
51
7.0628677
0
ARC
8
DEFAULT_255_2_778
10
5.0877799
20
6.7534469
40
0.5137078
50
7.4603465
51
16.3194643
0
ARC
8
DEFAULT_255_2_778
10
4.6497875
20
6.6158239
40
0.9727662
50
16.8498908
51
28.1748277
0
ARC
8
DEFAULT_255_2_778
10
4.2096999
20
6.3950456
40
1.4650109
50
27.6595603
51
31.5904032
0
ARC
8
DEFAULT_255_2_778
10
4.2583495
20
6.4267266
40
1.4069752
50
31.5292547
51
33.8001375
0
ARC
8
DEFAULT_255_2_778
10
4.7078053
20
6.7282586
40
0.8657438
50
33.7646108
51
35.1685845
0
ARC
8
DEFAULT_255_2_778
10
5.2117844
20
7.0828477
40
0.2495233
50
35.2653248
51
35.6129333
0
ARC
8
DEFAULT_255_2_778
10
6.3822466
20
4.4398471
40
0.0771604
50
316.30867
51
328.4432435
0
ARC
8
DEFAULT_255_2_778
10
6.3467558
20
4.4637034
40
0.1199009
50
327.604726
51
328.5837179
0
ARC
8
DEFAULT_255_2_778
10
6.3210097
20
4.4782563
40
0.1494618
50
328.9673574
51
352.505678
0
ARC
8
DEFAULT_255_2_778
10
6.3466757
20
4.4741273
40
0.1234788
50
352.8519121
51
359.9294543
0
ARC
8
DEFAULT_255_2_778
10
6.3611204
20
4.4741746
40
0.1090342
50
359.8952255
51
9.7105164
0
ARC
8
DEFAULT_255_2_778
10
6.3691539
20
4.4748882
40
0.1009975
50
10.0802151
51
54.046467
0
ARC
8
DEFAULT_255_2_778
10
6.3174559
20
4.4054265
40
0.1875826
50
53.7207874
51
74.1340091
0
ARC
8
DEFAULT_255_2_778
10
6.2750128
20
4.281176
40
0.3187769
50
72.9013695
51
73.0140899
0
ARC
8
DEFAULT_255_2_778
10
6.3268257
20
4.2651667
40
0.3235287
50
82.6634994
51
89.9733929
0
ARC
8
DEFAULT_255_2_778
10
6.326453
20
4.281317
40
0.3073786
50
89.902529
51
111.9083155
0
ARC
8
DEFAULT_255_2_778
10
6.3163857
20
4.3061161
40
0.2806142
50
111.8905111
51
121.7597425
0
ARC
8
DEFAULT_255_2_778
10
6.2715422
20
4.3763003
40
0.197339
50
121.4151931
51
132.5184831
0
ARC
8
DEFAULT_255_2_778
10
6.2100257
20
4.4450055
40
0.1051301
50
133.1134338
51
137.5618093
0
ARC
8
DEFAULT_255_2_778
10
6.1518849
20
4.5010907
40
0.0244712
50
142.6212252
51
182.7028407
0
ARC
8
DEFAULT_255_2_778
10
6.1802187
20
4.4985429
40
0.0527961
50
178.4872082
51
180.0099686
0
ARC
8
DEFAULT_255_2_778
10
6.2564928
20
4.5051709
40
0.1292408
50
182.9437328
51
201.4436097
0
ARC
8
DEFAULT_255_2_778
10
6.421206
20
4.5609756
40
0.3030663
50
199.878993
51
206.6852915
0
ARC
8
DEFAULT_255_2_778
10
6.4240125
20
4.5575245
40
0.3040552
50
205.8667184
51
222.3869462
0
ARC
8
DEFAULT_255_2_778
10
6.2667757
20
4.4132575
40
0.0906652
50
222.0341702
51
243.537394
0
ARC
8
DEFAULT_255_2_778
10
6.240213
20
4.3625782
40
0.0334803
50
245.584919
51
263.010949
0
ARC
8
DEFAULT_255_2_778
10
6.2424061
20
4.390365
40
0.0613393
50
264.1359591
51
270.2489349
0
ARC
8
DEFAULT_255_2_778
10
6.2341152
20
4.5380903
40
0.2092391
50
272.3439058
51
284.7116581
0
ARC
8
DEFAULT_255_2_778
10
6.1298618
20
4.987718
40
0.6707347
50
283.5712399
51
287.3304615
0
ARC
8
DEFAULT_255_2_778
10
5.99335
20
5.4352556
40
1.1386236
50
287.1795469
51
288.840237
0
ARC
8
DEFAULT_255_2_778
10
5.8436234
20
5.8724784
40
1.6007724
50
288.8585642
51
290.9277183
0
ARC
8
DEFAULT_255_2_778
10
5.9232837
20
5.6684361
40
1.3817375
50
290.8645516
51
291.8102498
0
ARC
8
DEFAULT_255_2_778
10
6.2861598
20
4.7609544
40
0.4043933
50
291.8469511
51
292.0903348
0
LINE
8
DEFAULT_255_2_778
10
5.4146392
20
7.2281467
11
4.5171392
21
7.2085467
0
LINE
8
DEFAULT_255_2_778
10
6.4382392
20
4.3862467
11
6.4380392
21
4.3865467
0
ARC
8
DEFAULT_255_2_778
10
6.3457168
20
4.3848196
40
0.2418415
50
325.1264786
51
329.7683518
0
ARC
8
DEFAULT_255_2_778
10
6.4407274
20
4.3341115
40
0.1342814
50
328.0503211
51
357.6053447
0
ARC
8
DEFAULT_255_2_778
10
6.4909697
20
4.3288032
40
0.0839222
50
359.7935927
51
18.2276989
0
ARC
8
DEFAULT_255_2_778
10
6.4776501
20
4.322019
40
0.0987219
50
19.5496103
51
51.8261522
0
ARC
8
DEFAULT_255_2_778
10
6.4212427
20
4.2558563
40
0.1856296
50
50.7605317
51
64.0308436
0
ARC
8
DEFAULT_255_2_778
10
6.4033358
20
4.2201557
40
0.225567
50
63.9124797
51
88.1155268
0
ARC
8
DEFAULT_255_2_778
10
6.3991324
20
4.1764956
40
0.2693561
50
87.5272877
51
90.0086363
0
ARC
8
DEFAULT_255_2_778
10
6.4004473
20
4.1410032
40
0.3048516
50
90.254755
51
122.365875
0
ARC
8
DEFAULT_255_2_778
10
6.3123427
20
4.2782555
40
0.1417605
50
121.984798
51
144.365017
0
ARC
8
DEFAULT_255_2_778
10
6.2525241
20
4.3242916
40
0.0663712
50
146.5791019
51
146.894113
0
ARC
8
DEFAULT_255_2_778
10
6.2462274
20
4.3301068
40
0.0579382
50
148.3104191
51
181.7440763
0
ARC
8
DEFAULT_255_2_778
10
6.3261619
20
4.3331715
40
0.1379305
50
182.0059542
51
203.1975016
0
ARC
8
DEFAULT_255_2_778
10
6.4861164
20
4.3975817
40
0.3103476
50
202.4952916
51
216.6460903
0
ARC
8
DEFAULT_255_2_778
10
6.4280203
20
4.3489631
40
0.2347558
50
215.5885557
51
226.6723051
0
ARC
8
DEFAULT_255_2_778
10
6.29023
20
4.1989534
40
0.0312019
50
221.7121335
51
255.5185759
0
ARC
8
DEFAULT_255_2_778
10
6.2729923
20
4.2619126
40
0.0936464
50
275.7825324
51
285.7778588
0
ARC
8
DEFAULT_255_2_778
10
5.986837
20
5.3969974
40
1.2642104
50
284.2700568
51
286.5786915
0
ARC
8
DEFAULT_255_2_778
10
4.9140509
20
9.0687248
40
5.089437
50
286.3594787
51
287.1238769
0
ARC
8
DEFAULT_255_2_778
10
4.0905916
20
11.7662967
40
7.9098883
50
287.0709001
51
287.1347488
0
ARC
8
DEFAULT_255_2_778
10
2.9968165
20
15.2989116
40
11.6079551
50
287.1567063
51
287.5970016
0
ARC
8
DEFAULT_255_2_778
10
2.7164442
20
16.1932163
40
12.5451748
50
287.5827822
51
287.715032
0
ARC
8
DEFAULT_255_2_778
10
4.4870518
20
10.6524529
40
6.7283792
50
287.7091703
51
287.8021612
0
LINE
8
DEFAULT_255_2_778
10
6.5441274
20
4.2462427
11
6.5441274
21
4.2465427
0
ARC
8
DEFAULT_255_2_778
10
5.8490023
20
4.3993283
40
0.369693
50
34.1995978
51
36.791154
0
ARC
8
DEFAULT_255_2_778
10
5.5641631
20
4.2038073
40
0.7151788
50
29.871747
51
34.3286315
0
ARC
8
DEFAULT_255_2_778
10
5.5178483
20
4.175907
40
0.7692371
50
26.3899606
51
29.9556156
0
ARC
8
DEFAULT_255_2_778
10
5.6145162
20
4.2214095
40
0.6624217
50
16.6682251
51
26.580776
0
ARC
8
DEFAULT_255_2_778
10
5.7326099
20
4.25929
40
0.5384303
50
13.3636029
51
16.4111252
0
ARC
8
DEFAULT_255_2_778
10
5.8688284
20
4.2910185
40
0.3985674
50
5.3692571
51
13.4519802
0
ARC
8
DEFAULT_255_2_778
10
5.9251007
20
4.2969414
40
0.3419885
50
0.0288882
51
5.2634831
0
ARC
8
DEFAULT_255_2_778
10
5.9242277
20
4.29743
40
0.3428615
50
353.9571282
51
359.9471646
0
ARC
8
DEFAULT_255_2_778
10
5.7907214
20
4.3108561
40
0.4770399
50
352.8762932
51
354.0415813
0
ARC
8
DEFAULT_255_2_778
10
6.8667412
20
4.1666897
40
0.6086283
50
171.9712003
51
174.162816
0
ARC
8
DEFAULT_255_2_778
10
6.3223455
20
4.2236285
40
0.0612778
50
175.3573361
51
179.6961498
0
ARC
8
DEFAULT_255_2_778
10
6.270305
20
4.2213536
40
0.0095955
50
164.2794999
51
277.3641743
0
ARC
8
DEFAULT_255_2_778
10
6.2706328
20
4.2571103
40
0.0452821
50
271.1415181
51
281.5007439
0
ARC
8
DEFAULT_255_2_778
10
6.1820995
20
4.7095801
40
0.5063309
50
281.1094359
51
283.1754734
0
ARC
8
DEFAULT_255_2_778
10
5.8414756
20
6.2135165
40
2.0483486
50
282.8638448
51
282.9586615
0
ARC
8
DEFAULT_255_2_778
10
5.6407484
20
7.083338
40
2.9410302
50
282.9695587
51
283.0358334
0
ARC
8
DEFAULT_255_2_778
10
42.7412179
20
-151.7956571
40
160.2122157
50
103.1305136
51
103.1458215
0
ARC
8
DEFAULT_255_2_778
10
7.2132544
20
0.5001192
40
3.8273075
50
102.2948565
51
103.0996612
0
ARC
8
DEFAULT_255_2_778
10
6.8762303
20
2.0488171
40
2.2423628
50
100.8110045
51
102.3073655
0
ARC
8
DEFAULT_255_2_778
10
6.652289
20
3.2585409
40
1.0121293
50
95.6281733
51
101.2039423
0
ARC
8
DEFAULT_255_2_778
10
6.5870814
20
3.8921787
40
0.3751612
50
90.3238931
51
95.2080411
0
ARC
8
DEFAULT_255_2_778
10
6.5875324
20
4.1189875
40
0.1483687
50
79.3433771
51
90.9931993
0
ARC
8
DEFAULT_255_2_778
10
6.6067329
20
4.2197149
40
0.0458284
50
59.8351586
51
79.646633
0
ARC
8
DEFAULT_255_2_778
10
6.5686082
20
4.1661789
40
0.1114369
50
42.8230943
51
56.7174803
0
ARC
8
DEFAULT_255_2_778
10
6.4591258
20
4.069636
40
0.2573866
50
16.8925945
51
42.0196248
0
ARC
8
DEFAULT_255_2_778
10
6.4896992
20
4.0768554
40
0.2260433
50
6.1111835
51
17.3934825
0
ARC
8
DEFAULT_255_2_778
10
6.5315359
20
4.0819834
40
0.1838996
50
0.0664464
51
5.9102284
0
ARC
8
DEFAULT_255_2_778
10
6.5791249
20
4.0798224
40
0.1363312
50
332.0564322
51
0.9978889
0
ARC
8
DEFAULT_255_2_778
10
6.1743149
20
4.3071706
40
0.6005834
50
324.9423186
51
330.9929539
0
ARC
8
DEFAULT_255_2_778
10
6.026477
20
4.4084464
40
0.7797754
50
317.3617069
51
325.0904835
0
ARC
8
DEFAULT_255_2_778
10
6.0857583
20
4.3538793
40
0.6992033
50
317.286306
51
317.3606163
0
ARC
8
DEFAULT_255_2_778
10
6.1433854
20
4.2873532
40
0.6118131
50
294.3656127
51
318.2031438
0
ARC
8
DEFAULT_255_2_778
10
6.2247497
20
4.1285995
40
0.4337174
50
283.9300006
51
293.2265173
0
ARC
8
DEFAULT_255_2_778
10
6.2205781
20
4.1582414
40
0.4635022
50
269.7577201
51
283.5483941
0
ARC
8
DEFAULT_255_2_778
10
6.2186431
20
4.2161253
40
0.5213818
50
268.4281019
51
269.9972632
0
ARC
8
DEFAULT_255_2_778
10
6.220562
20
4.2611211
40
0.5664136
50
236.4634429
51
268.3589205
0
ARC
8
DEFAULT_255_2_778
10
6.0893336
20
4.0610386
40
0.3271405
50
216.6768163
51
236.260972
0
ARC
8
DEFAULT_255_2_778
10
6.2258108
20
4.144348
40
0.4865805
50
208.6830818
51
214.9453241
0
ARC
8
DEFAULT_255_2_778
10
6.828583
20
4.4779545
40
1.1755094
50
204.953122
51
208.8468404
0
ARC
8
DEFAULT_255_2_778
10
7.4658844
20
4.7818325
40
1.8815314
50
204.0974974
51
205.1556065
0
ARC
8
DEFAULT_255_2_778
10
8.2820807
20
5.1409311
40
2.7732198
50
201.2002004
51
203.9850757
0
ARC
8
DEFAULT_255_2_778
10
8.7677403
20
5.3365375
40
3.2967547
50
198.3020836
51
201.3173423
0
ARC
8
DEFAULT_255_2_778
10
7.2406966
20
4.834502
40
1.6893077
50
195.454631
51
198.4002188
0
ARC
8
DEFAULT_255_2_778
10
6.0028633
20
4.4962786
40
0.4061224
50
189.3718244
51
195.9989318
0
ARC
8
DEFAULT_255_2_778
10
5.6936981
20
4.4430707
40
0.0924444
50
184.6742752
51
188.0373606
0
ARC
8
DEFAULT_255_2_778
10
5.6794085
20
4.4414392
40
0.0780707
50
179.8684401
51
184.3355093
0
ARC
8
DEFAULT_255_2_778
10
5.8270984
20
4.4331834
40
0.2259181
50
165.2328621
51
177.8602381
0
ARC
8
DEFAULT_255_2_778
10
6.3836422
20
4.2984971
40
0.7984941
50
160.8234649
51
166.0667216
0
ARC
8
DEFAULT_255_2_778
10
7.0495641
20
4.0755888
40
1.5007081
50
159.4665485
51
161.1366346
0
ARC
8
DEFAULT_255_2_778
10
7.6203396
20
3.8610566
40
2.1104691
50
157.3861265
51
159.4475295
0
ARC
8
DEFAULT_255_2_778
10
7.5797338
20
3.8796209
40
2.0658475
50
156.6605635
51
157.4283777
0
ARC
8
DEFAULT_255_2_778
10
6.6911069
20
4.263717
40
1.0977633
50
156.1530384
51
156.6925566
0
LINE
8
DEFAULT_255_2_778
10
6.2886612
20
4.8734374
11
6.1450612
21
4.6207374
0
LINE
8
DEFAULT_255_2_778
10
5.6870612
20
4.7075374
11
6.0394612
21
4.8655374
0
LINE
8
DEFAULT_255_2_778
10
6.0394612
20
4.8655374
11
6.2886612
21
4.8734374
0
ARC
8
DEFAULT_255_2_778
10
5.8878894
20
4.2505907
40
0.4466321
50
52.4491406
51
60.7451499
0
ARC
8
DEFAULT_255_2_778
10
5.8926825
20
4.2565809
40
0.4389618
50
49.2161815
51
52.4686208
0
ARC
8
DEFAULT_255_2_778
10
5.9403977
20
4.3058897
40
0.3704789
50
23.588812
51
49.8224561
0
ARC
8
DEFAULT_255_2_778
10
5.9764817
20
4.3255103
40
0.3295775
50
10.6743541
51
22.9731391
0
ARC
8
DEFAULT_255_2_778
10
5.9168255
20
4.3157992
40
0.3900033
50
359.7882269
51
10.4529863
0
ARC
8
DEFAULT_255_2_778
10
5.8445243
20
4.3147155
40
0.4623019
50
354.6964372
51
359.9556541
0
ARC
8
DEFAULT_255_2_778
10
5.8460079
20
4.3090167
40
0.4603311
50
324.659512
51
355.3856493
0
ARC
8
DEFAULT_255_2_778
10
6.0287547
20
4.188004
40
0.2413626
50
310.0175498
51
322.9991663
0
ARC
8
DEFAULT_255_2_778
10
6.4743207
20
4.0862658
40
0.0960384
50
315.804309
51
323.2559526
0
ARC
8
DEFAULT_255_2_778
10
6.4148437
20
4.142597
40
0.1779537
50
303.1509091
51
316.150342
0
ARC
8
DEFAULT_255_2_778
10
6.3981273
20
4.1677638
40
0.2081656
50
284.4778514
51
303.2150788
0
ARC
8
DEFAULT_255_2_778
10
6.3886558
20
4.2046563
40
0.2462544
50
269.7161197
51
284.4656148
0
ARC
8
DEFAULT_255_2_778
10
6.3880595
20
4.2612308
40
0.3028265
50
261.9240218
51
269.8819803
0
ARC
8
DEFAULT_255_2_778
10
6.3915886
20
4.2911574
40
0.3329529
50
261.7961729
51
262.0462343
0
ARC
8
DEFAULT_255_2_778
10
6.3578637
20
4.0890681
40
0.1281998
50
219.9656784
51
263.8268176
0
ARC
8
DEFAULT_255_2_778
10
6.3724713
20
4.0939174
40
0.1426231
50
180.602286
51
217.6887971
0
ARC
8
DEFAULT_255_2_778
10
6.4041565
20
4.0979323
40
0.1743876
50
180.0005524
51
181.8119828
0
ARC
8
DEFAULT_255_2_778
10
6.3842215
20
4.1017008
40
0.1544984
50
139.447236
51
181.3982889
0
ARC
8
DEFAULT_255_2_778
10
6.3287938
20
4.1430842
40
0.0856021
50
125.3411881
51
136.3717044
0
ARC
8
DEFAULT_255_2_778
10
6.5426376
20
3.8287075
40
0.4658018
50
105.8992867
51
124.4294015
0
ARC
8
DEFAULT_255_2_778
10
6.5103315
20
3.9588101
40
0.3318575
50
91.0467674
51
106.6885022
0
ARC
8
DEFAULT_255_2_778
10
6.5052407
20
4.1043112
40
0.1863037
50
80.5972279
51
90.2988577
0
ARC
8
DEFAULT_255_2_778
10
6.4872312
20
4.0016204
40
0.2905586
50
68.3978088
51
80.4019035
0
ARC
8
DEFAULT_255_2_778
10
6.5009466
20
4.0387095
40
0.2510267
50
65.6120736
51
68.1917745
0
ARC
8
DEFAULT_255_2_778
10
6.5241777
20
4.0858863
40
0.1984741
50
54.004405
51
66.0965785
0
ARC
8
DEFAULT_255_2_778
10
6.5930247
20
4.1807832
40
0.0812337
50
48.3811143
51
53.9539223
0
ARC
8
DEFAULT_255_2_778
10
6.3770121
20
4.1084989
40
0.0775235
50
300.5116196
51
307.9548787
0
ARC
8
DEFAULT_255_2_778
10
6.3597394
20
4.1357848
40
0.1098052
50
295.9049081
51
301.0478049
0
ARC
8
DEFAULT_255_2_778
10
6.3635663
20
4.1258261
40
0.0991796
50
270.6747157
51
296.4296419
0
ARC
8
DEFAULT_255_2_778
10
6.3647907
20
4.1129751
40
0.0863217
50
245.4259774
51
269.9625059
0
ARC
8
DEFAULT_255_2_778
10
6.3517147
20
4.1005421
40
0.0699007
50
195.7246532
51
250.9436527
0
ARC
8
DEFAULT_255_2_778
10
6.3460619
20
4.0955218
40
0.063185
50
179.7815285
51
192.7305493
0
ARC
8
DEFAULT_255_2_778
10
6.3586032
20
4.095661
40
0.0757261
50
173.6344968
51
179.923041
0
ARC
8
DEFAULT_255_2_778
10
6.3883638
20
4.0912255
40
0.1058007
50
158.4008038
51
173.0341407
0
ARC
8
DEFAULT_255_2_778
10
6.3527738
20
4.1012198
40
0.0691358
50
117.3793106
51
155.2428191
0
ARC
8
DEFAULT_255_2_778
10
6.3945078
20
4.0344426
40
0.1477618
50
106.4618315
51
119.8421748
0
ARC
8
DEFAULT_255_2_778
10
6.3718596
20
4.1110554
40
0.0678715
50
104.4770638
51
106.4538046
0
LINE
8
DEFAULT_255_2_778
10
6.3548922
20
4.176772
11
6.4246922
21
4.047372
0
LINE
8
DEFAULT_255_2_778
10
6.3548922
20
4.176772
11
6.3548922
21
4.176772
0
ARC
8
DEFAULT_255_2_778
10
5.5757741
20
6.5154468
40
0.5258942
50
60.2487854
51
61.8573218
0
ARC
8
DEFAULT_255_2_778
10
5.319064
20
6.0633006
40
1.0458319
50
57.7908013
51
60.3308605
0
ARC
8
DEFAULT_255_2_778
10
5.2631474
20
5.9718584
40
1.153007
50
53.2994641
51
57.8617749
0
ARC
8
DEFAULT_255_2_778
10
5.356952
20
6.0982255
40
0.9956289
50
50.2272017
51
53.2815461
0
ARC
8
DEFAULT_255_2_778
10
5.6930162
20
6.4659352
40
0.4985499
50
23.0171563
51
52.8776572
0
ARC
8
DEFAULT_255_2_778
10
5.9244732
20
6.5829722
40
0.2403749
50
13.986123
51
18.9095157
0
ARC
8
DEFAULT_255_2_778
10
6.0655705
20
6.3709556
40
0.2853987
50
59.989478
51
71.1624155
0
ARC
8
DEFAULT_255_2_778
10
5.9262316
20
6.1574394
40
0.5401591
50
22.2766082
51
58.5184938
0
ARC
8
DEFAULT_255_2_778
10
6.1479529
20
6.250778
40
0.2996126
50
3.7645746
51
21.8324803
0
ARC
8
DEFAULT_255_2_778
10
6.2296285
20
6.2595458
40
0.217564
50
0.0151545
51
2.8727389
0
ARC
8
DEFAULT_255_2_778
10
6.250109
20
6.2593815
40
0.1970836
50
354.025433
51
0.0645075
0
ARC
8
DEFAULT_255_2_778
10
6.2743548
20
5.7957276
40
0.4752652
50
49.185634
51
68.8129804
0
ARC
8
DEFAULT_255_2_778
10
6.4462951
20
5.9887403
40
0.2168416
50
0.6677996
51
50.2359251
0
ARC
8
DEFAULT_255_2_778
10
6.4337867
20
5.7302938
40
0.347422
50
42.3502655
51
48.6920489
0
ARC
8
DEFAULT_255_2_778
10
6.4138087
20
5.7113976
40
0.3749164
50
40.9371413
51
42.4276996
0
ARC
8
DEFAULT_255_2_778
10
6.4051257
20
5.7039562
40
0.3863516
50
23.0147967
51
40.9270605
0
ARC
8
DEFAULT_255_2_778
10
6.4170233
20
5.709487
40
0.3732389
50
0.6860849
51
22.947407
0
ARC
8
DEFAULT_255_2_778
10
6.3983747
20
5.7084275
40
0.3918999
50
0.0004771
51
0.8083323
0
ARC
8
DEFAULT_255_2_778
10
6.3613995
20
5.7101139
40
0.4288783
50
345.2940186
51
359.7751427
0
ARC
8
DEFAULT_255_2_778
10
6.2426443
20
5.7412151
40
0.5516387
50
334.0043929
51
345.3007352
0
ARC
8
DEFAULT_255_2_778
10
6.1280249
20
5.7939156
40
0.6777665
50
330.8103532
51
334.2469493
0
ARC
8
DEFAULT_255_2_778
10
5.8030947
20
5.5685059
40
0.3597875
50
32.0569964
51
34.1751593
0
ARC
8
DEFAULT_255_2_778
10
5.5372804
20
5.389567
40
0.6802174
50
34.0678479
51
37.8144664
0
ARC
8
DEFAULT_255_2_778
10
5.5405964
20
5.3941491
40
0.6747905
50
37.6797327
51
44.0196978
0
ARC
8
DEFAULT_255_2_778
10
5.7976801
20
5.6714404
40
0.2979535
50
40.0259978
51
82.1019916
0
ARC
8
DEFAULT_255_2_778
10
5.9195048
20
1.9798144
40
0.2741069
50
309.2022216
51
311.8605963
0
ARC
8
DEFAULT_255_2_778
10
5.7017628
20
2.2443264
40
0.6167105
50
305.9115516
51
309.3457937
0
ARC
8
DEFAULT_255_2_778
10
5.562639
20
2.4357189
40
0.8533248
50
301.2653285
51
305.9398267
0
ARC
8
DEFAULT_255_2_778
10
5.4985684
20
2.5397999
40
0.9755435
50
296.5155918
51
301.3092334
0
ARC
8
DEFAULT_255_2_778
10
5.4762301
20
2.5842799
40
1.0253175
50
289.0721678
51
296.5229077
0
ARC
8
DEFAULT_255_2_778
10
5.4723649
20
2.5949595
40
1.0366737
50
279.8228581
51
289.0811947
0
ARC
8
DEFAULT_255_2_778
10
5.4695608
20
2.6131703
40
1.0550958
50
269.9647627
51
279.8041881
0
ARC
8
DEFAULT_255_2_778
10
5.4689152
20
2.6388635
40
1.0807889
50
269.2475519
51
269.999825
0
ARC
8
DEFAULT_255_2_778
10
5.4714389
20
2.7826429
40
1.2245894
50
259.3231775
51
269.2178279
0
ARC
8
DEFAULT_255_2_778
10
5.4813396
20
2.8361763
40
1.2790304
50
251.5544549
51
259.3316334
0
ARC
8
DEFAULT_255_2_778
10
5.4877647
20
2.8570074
40
1.3008245
50
246.4732134
51
251.5763017
0
ARC
8
DEFAULT_255_2_778
10
5.4670986
20
2.8107371
40
1.250151
50
241.8986593
51
246.4951273
0
ARC
8
DEFAULT_255_2_778
10
5.3863526
20
2.6606432
40
1.0797172
50
238.193361
51
241.9266899
0
ARC
8
DEFAULT_255_2_778
10
5.2243233
20
2.3998665
40
0.7727025
50
235.4970685
51
238.2122067
0
ARC
8
DEFAULT_255_2_778
10
4.9794598
20
2.0449056
40
0.3414786
50
233.4543627
51
235.6186012
0
ARC
8
DEFAULT_255_2_778
10
2.7738512
20
2.1486851
40
1.9528163
50
350.2259146
51
350.532395
0
ARC
8
DEFAULT_255_2_778
10
0.3120183
20
2.5603729
40
4.4488346
50
350.5177985
51
350.9402071
0
ARC
8
DEFAULT_255_2_778
10
-1.2793116
20
2.8147098
40
6.0603611
50
350.9346765
51
351.4970418
0
ARC
8
DEFAULT_255_2_778
10
-1.8542731
20
2.9013727
40
6.6418169
50
351.4910355
51
352.0473837
0
ARC
8
DEFAULT_255_2_778
10
-1.7420739
20
2.886012
40
6.5285715
50
352.0446617
51
352.7036463
0
ARC
8
DEFAULT_255_2_778
10
-1.0317883
20
2.7963964
40
5.8126563
50
352.6906607
51
353.894576
0
ARC
8
DEFAULT_255_2_778
10
0.2234042
20
2.663491
40
4.5504481
50
353.8775969
51
355.5164628
0
ARC
8
DEFAULT_255_2_778
10
1.8378347
20
2.5420927
40
2.9314727
50
355.4152684
51
358.7249188
0
ARC
8
DEFAULT_255_2_778
10
2.8174062
20
2.5144512
40
1.9515374
50
358.8962808
51
359.9834696
0
ARC
8
DEFAULT_255_2_778
10
3.2931682
20
2.5159502
40
1.4757768
50
359.9199401
51
2.5345015
0
ARC
8
DEFAULT_255_2_778
10
3.6781069
20
2.531746
40
1.090517
50
2.5997595
51
4.1080313
0
ARC
8
DEFAULT_255_2_778
10
3.448662
20
3.4152358
40
1.2340855
50
0.368257
51
2.8712894
0
ARC
8
DEFAULT_255_2_778
10
0.0616921
20
3.2496734
40
4.6250987
50
2.8179332
51
4.2861726
0
ARC
8
DEFAULT_255_2_778
10
-4.5184589
20
2.9243819
40
9.216769
50
4.1747117
51
4.5099549
0
ARC
8
DEFAULT_255_2_778
10
-7.5948305
20
2.6811238
40
12.3027431
50
4.5127617
51
4.906575
0
ARC
8
DEFAULT_255_2_778
10
-8.0236469
20
2.6461779
40
12.7329772
50
4.898208
51
5.1202096
0
ARC
8
DEFAULT_255_2_778
10
-3.4486625
20
3.0565511
40
8.1396247
50
5.1171242
51
5.2406327
0
ARC
8
DEFAULT_255_2_778
10
0.5966858
20
3.4266418
40
4.0773828
50
5.2540329
51
5.2717132
0
ARC
8
DEFAULT_255_2_778
10
-0.1603599
20
2.9940175
40
4.7764084
50
356.9874298
51
358.9341331
0
ARC
8
DEFAULT_255_2_778
10
-0.8275959
20
3.0255953
40
5.4443829
50
356.2182352
51
357.0246049
0
ARC
8
DEFAULT_255_2_778
10
-0.007055
20
2.960953
40
4.6213768
50
352.641992
51
356.3469464
0
ARC
8
DEFAULT_255_2_778
10
2.5521278
20
2.6288643
40
2.0407385
50
348.5903368
51
352.6869893
0
ARC
8
DEFAULT_255_2_778
10
3.9528763
20
2.3409266
40
0.6107328
50
340.6385089
51
349.0732633
0
ARC
8
DEFAULT_255_2_778
10
4.3879387
20
2.1890937
40
0.1499415
50
329.2668958
51
340.2606591
0
ARC
8
DEFAULT_255_2_778
10
4.175438
20
2.3255365
40
0.4024194
50
324.7770265
51
328.0303576
0
ARC
8
DEFAULT_255_2_778
10
4.2326801
20
2.2818942
40
0.330497
50
309.2396265
51
325.2342064
0
ARC
8
DEFAULT_255_2_778
10
4.319386
20
2.174205
40
0.1922462
50
297.9339283
51
309.5275553
0
ARC
8
DEFAULT_255_2_778
10
4.3901415
20
2.0423272
40
0.0425943
50
294.8210103
51
296.9476915
0
ARC
8
DEFAULT_255_2_778
10
4.1312697
20
1.8923573
40
0.2306516
50
315.5300006
51
318.6142223
0
ARC
8
DEFAULT_255_2_778
10
3.9342946
20
2.0837488
40
0.5052952
50
311.474746
51
315.6896416
0
ARC
8
DEFAULT_255_2_778
10
3.8243508
20
2.2072902
40
0.6706732
50
305.7930362
51
311.52215
0
ARC
8
DEFAULT_255_2_778
10
3.7876861
20
2.2569121
40
0.7323674
50
301.2590212
51
305.8492272
0
ARC
8
DEFAULT_255_2_778
10
3.779479
20
2.2702748
40
0.7480489
50
292.0356347
51
301.265277
0
ARC
8
DEFAULT_255_2_778
10
3.7795545
20
2.2702466
40
0.7479944
50
280.5439273
51
292.0310777
0
ARC
8
DEFAULT_255_2_778
10
3.7747818
20
2.2985503
40
0.7766937
50
269.931281
51
280.5079922
0
ARC
8
DEFAULT_255_2_778
10
3.7741739
20
2.3533401
40
0.8314831
50
265.094491
51
269.9776964
0
ARC
8
DEFAULT_255_2_778
10
3.7769362
20
2.389188
40
0.8674361
50
263.419045
51
265.1151892
0
ARC
8
DEFAULT_255_2_778
10
3.819535
20
2.8044631
40
1.2848678
50
252.1706342
51
263.6542838
0
ARC
8
DEFAULT_255_2_778
10
3.7207987
20
2.503932
40
0.9685409
50
238.9727303
51
252.2875664
0
ARC
8
DEFAULT_255_2_778
10
3.5453933
20
2.2179035
40
0.6330312
50
222.5819104
51
239.2330875
0
ARC
8
DEFAULT_255_2_778
10
3.3831168
20
2.0634041
40
0.4090233
50
212.211447
51
222.0277137
0
ARC
8
DEFAULT_255_2_778
10
3.279229
20
1.9991146
40
0.2868577
50
197.9268766
51
212.4076663
0
ARC
8
DEFAULT_255_2_778
10
3.2113567
20
1.9757187
40
0.2150835
50
189.0012482
51
197.5622707
0
ARC
8
DEFAULT_255_2_778
10
3.2448853
20
2.2933684
40
0.4288476
50
222.2205618
51
235.0022007
0
ARC
8
DEFAULT_255_2_778
10
3.0538525
20
2.1225552
40
0.1726017
50
205.4768751
51
222.8424624
0
ARC
8
DEFAULT_255_2_778
10
2.9409448
20
2.0682604
40
0.0473206
50
194.9314013
51
204.9341286
0
ARC
8
DEFAULT_255_2_778
10
3.3199182
20
5.5267539
40
0.4551807
50
320.8326763
51
322.1452964
0
ARC
8
DEFAULT_255_2_778
10
2.9331298
20
5.8283828
40
0.9456754
50
322.096829
51
324.5399893
0
ARC
8
DEFAULT_255_2_778
10
2.8711849
20
5.8744696
40
1.0228686
50
324.450242
51
329.0461468
0
ARC
8
DEFAULT_255_2_778
10
3.1974852
20
5.686722
40
0.6465079
50
328.4414726
51
340.9330427
0
ARC
8
DEFAULT_255_2_778
10
3.5088164
20
5.5759949
40
0.3160993
50
341.4675619
51
352.9444017
0
ARC
8
DEFAULT_255_2_778
10
3.5125992
20
5.5721787
40
0.3118941
50
353.5547783
51
0.0767121
0
ARC
8
DEFAULT_255_2_778
10
3.3811461
20
5.5653802
40
0.4434056
50
0.93249
51
18.9598481
0
ARC
8
DEFAULT_255_2_778
10
3.2529689
20
5.5283829
40
0.5766878
50
18.298596
51
21.0265226
0
ARC
8
DEFAULT_255_2_778
10
3.2465041
20
5.5262623
40
0.583483
50
20.9931195
51
26.2974264
0
ARC
8
DEFAULT_255_2_778
10
3.4049171
20
5.6053782
40
0.4064147
50
26.192248
51
29.4066639
0
ARC
8
DEFAULT_255_2_778
10
3.6550111
20
5.7459761
40
0.1195098
50
29.5575151
51
30.4642573
0
ARC
8
DEFAULT_255_2_778
10
2.4130123
20
5.1601687
40
0.1786663
50
205.1839344
51
210.0251487
0
ARC
8
DEFAULT_255_2_778
10
2.5662623
20
5.2340892
40
0.3488084
50
198.7392918
51
205.4602701
0
ARC
8
DEFAULT_255_2_778
10
2.6282333
20
5.2557881
40
0.4144659
50
189.5227827
51
198.8277314
0
ARC
8
DEFAULT_255_2_778
10
2.6379434
20
5.2577474
40
0.4243666
50
187.0901353
51
189.5667793
0
ARC
8
DEFAULT_255_2_778
10
2.7255731
20
5.2607531
40
0.511757
50
181.6395111
51
186.2130655
0
ARC
8
DEFAULT_255_2_778
10
4.1521591
20
5.3111282
40
1.9392238
50
179.5454346
51
181.9213347
0
ARC
8
DEFAULT_255_2_778
10
5.7528566
20
5.3048635
40
3.5399266
50
177.5834811
51
179.649585
0
ARC
8
DEFAULT_255_2_778
10
4.7510979
20
5.3569769
40
2.5368804
50
174.3221507
51
177.8054741
0
ARC
8
DEFAULT_255_2_778
10
2.9734029
20
5.5362061
40
0.7501792
50
168.9406477
51
174.5110708
0
ARC
8
DEFAULT_255_2_778
10
2.3552123
20
5.6605919
40
0.1196595
50
153.9358025
51
170.6124607
0
ARC
8
DEFAULT_255_2_778
10
2.3311623
20
5.6612222
40
0.0982884
50
113.0350213
51
148.0958243
0
ARC
8
DEFAULT_255_2_778
10
2.3568595
20
5.6051338
40
0.1599689
50
94.7290453
51
113.644369
0
ARC
8
DEFAULT_255_2_778
10
2.3529573
20
5.6623724
40
0.1026067
50
90.8573751
51
95.1925615
0
ARC
8
DEFAULT_255_2_778
10
2.2743602
20
6.1830856
40
0.4251602
50
280.4427848
51
283.3554943
0
ARC
8
DEFAULT_255_2_778
10
2.2104025
20
6.4621776
40
0.7114815
50
283.1750952
51
289.4072532
0
ARC
8
DEFAULT_255_2_778
10
2.2453004
20
6.3666968
40
0.609831
50
289.295579
51
295.9935639
0
ARC
8
DEFAULT_255_2_778
10
2.3137883
20
6.2264137
40
0.4537223
50
295.983713
51
303.4557121
0
ARC
8
DEFAULT_255_2_778
10
4.6420613
20
6.1448062
40
1.0477887
50
127.2151862
51
127.8583134
0
ARC
8
DEFAULT_255_2_778
10
5.2446395
20
5.3529449
40
2.0428486
50
125.9918519
51
127.241807
0
ARC
8
DEFAULT_255_2_778
10
5.1928934
20
5.4282395
40
1.9515194
50
123.5071376
51
126.0617473
0
ARC
8
DEFAULT_255_2_778
10
4.8509348
20
5.9436578
40
1.3329798
50
121.2562368
51
123.48139
0
ARC
8
DEFAULT_255_2_778
10
4.5060615
20
6.5230949
40
0.6587276
50
114.2449506
51
121.7636478
0
ARC
8
DEFAULT_255_2_778
10
4.3439463
20
6.8756652
40
0.2707012
50
108.5066113
51
113.6020526
0
ARC
8
DEFAULT_255_2_778
10
4.4294314
20
6.6179424
40
0.5422311
50
98.2554803
51
108.4283685
0
ARC
8
DEFAULT_255_2_778
10
4.4061547
20
6.7839403
40
0.374612
50
90.4612206
51
98.3777926
0
ARC
8
DEFAULT_255_2_778
10
4.4034962
20
6.9666949
40
0.1918454
50
87.8386578
51
90.0976425
0
ARC
8
DEFAULT_255_2_778
10
4.4079557
20
7.0809039
40
0.0775496
50
86.0321144
51
87.9488145
0
LINE
8
DEFAULT_255_2_778
10
6.719722
20
5.4633676
11
6.481122
21
5.0077676
0
LINE
8
DEFAULT_255_2_778
10
6.481122
20
5.0077676
11
5.880222
21
5.0596676
0
LINE
8
DEFAULT_255_2_778
10
5.880222
20
5.0596676
11
5.828322
21
5.2413676
0
LINE
8
DEFAULT_255_2_778
10
5.828322
20
5.2413676
11
6.108022
21
5.7594676
0
LINE
8
DEFAULT_255_2_778
10
5.838622
20
5.9665676
11
5.766222
21
5.5885676
0
LINE
8
DEFAULT_255_2_778
10
5.766222
20
5.5885676
11
5.781822
21
4.7336676
0
LINE
8
DEFAULT_255_2_778
10
5.781822
20
4.7336676
11
5.704022
21
4.6870676
0
LINE
8
DEFAULT_255_2_778
10
5.704022
20
4.6870676
11
5.688422
21
4.4955676
0
LINE
8
DEFAULT_255_2_778
10
5.688422
20
4.4955676
11
5.880222
21
4.0965676
0
LINE
8
DEFAULT_255_2_778
10
5.880222
20
4.0965676
11
5.947422
21
4.0343676
0
LINE
8
DEFAULT_255_2_778
10
5.947422
20
4.0343676
11
5.771222
21
3.7597676
0
LINE
8
DEFAULT_255_2_778
10
5.771222
20
3.7597676
11
5.812722
21
3.6821676
0
LINE
8
DEFAULT_255_2_778
10
5.812722
20
3.6821676
11
6.051122
21
3.0966676
0
LINE
8
DEFAULT_255_2_778
10
6.051122
20
3.0966676
11
6.045822
21
3.0241676
0
LINE
8
DEFAULT_255_2_778
10
6.045822
20
3.0241676
11
6.185822
21
2.8429676
0
LINE
8
DEFAULT_255_2_778
10
6.185822
20
2.8429676
11
6.180522
21
2.7651676
0
LINE
8
DEFAULT_255_2_778
10
6.180522
20
2.7651676
11
6.258022
21
2.5733676
0
LINE
8
DEFAULT_255_2_778
10
6.258022
20
2.5733676
11
6.107722
21
2.2314676
0
LINE
8
DEFAULT_255_2_778
10
6.107722
20
2.2314676
11
6.014322
21
2.0449676
0
LINE
8
DEFAULT_255_2_778
10
6.014322
20
2.0449676
11
6.102422
21
1.7756676
0
LINE
8
DEFAULT_255_2_778
10
4.776122
20
1.7705676
11
4.698322
21
1.8171676
0
LINE
8
DEFAULT_255_2_778
10
4.765822
20
2.6098676
11
4.682722
21
3.4231676
0
LINE
8
DEFAULT_255_2_778
10
4.656822
20
3.8012676
11
4.615222
21
2.9051676
0
LINE
8
DEFAULT_255_2_778
10
4.408022
20
2.0036676
11
4.464922
21
1.9052676
0
LINE
8
DEFAULT_255_2_778
10
4.464922
20
1.9052676
11
4.480522
21
1.7861676
0
LINE
8
DEFAULT_255_2_778
10
4.480522
20
1.7861676
11
4.418422
21
1.7086676
0
LINE
8
DEFAULT_255_2_778
10
4.418422
20
1.7086676
11
4.304322
21
1.7398676
0
LINE
8
DEFAULT_255_2_778
10
2.895222
20
2.0560676
11
3.159722
21
2.3616676
0
LINE
8
DEFAULT_255_2_778
10
3.159722
20
2.3616676
11
3.009522
21
2.4497676
0
LINE
8
DEFAULT_255_2_778
10
3.009522
20
2.4497676
11
3.133822
21
2.6725676
0
LINE
8
DEFAULT_255_2_778
10
3.133822
20
2.6725676
11
3.237522
21
2.9627676
0
LINE
8
DEFAULT_255_2_778
10
3.237522
20
2.9627676
11
3.299722
21
3.2114676
0
LINE
8
DEFAULT_255_2_778
10
3.299722
20
3.2114676
11
3.170322
21
3.2061676
0
LINE
8
DEFAULT_255_2_778
10
3.170322
20
3.2061676
11
3.382822
21
3.5374676
0
LINE
8
DEFAULT_255_2_778
10
3.382822
20
3.5374676
11
3.367222
21
3.7655676
0
LINE
8
DEFAULT_255_2_778
10
3.367222
20
3.7655676
11
3.755622
21
4.5891676
0
LINE
8
DEFAULT_255_2_778
10
3.755622
20
4.5891676
11
3.740022
21
4.7238676
0
LINE
8
DEFAULT_255_2_778
10
3.740022
20
4.7238676
11
3.687922
21
4.7963676
0
LINE
8
DEFAULT_255_2_778
10
3.687922
20
4.7963676
11
3.645522
21
5.0839676
0
LINE
8
DEFAULT_255_2_778
10
3.645522
20
5.0839676
11
3.672822
21
5.2392676
0
LINE
8
DEFAULT_255_2_778
10
3.758022
20
5.8065676
11
2.850222
21
5.2106676
0
LINE
8
DEFAULT_255_2_778
10
2.850222
20
5.2106676
11
2.720022
21
5.2003676
0
LINE
8
DEFAULT_255_2_778
10
2.720022
20
5.2003676
11
2.346722
21
5.0344676
0
LINE
8
DEFAULT_255_2_778
10
2.346722
20
5.0344676
11
2.258322
21
5.0707676
0
LINE
8
DEFAULT_255_2_778
10
2.563922
20
5.8478676
11
3.372222
21
6.4436676
0
LINE
8
DEFAULT_255_2_778
10
3.372222
20
6.4436676
11
3.999022
21
6.9720676
0
LINE
8
DEFAULT_255_2_778
10
4.413322
20
7.1582676
11
4.418622
21
6.7127676
0
LINE
8
DEFAULT_255_2_778
10
4.418622
20
6.7127676
11
4.838322
21
6.2372676
0
LINE
8
DEFAULT_255_2_778
10
4.838322
20
6.2372676
11
5.294122
21
6.5105676
0
LINE
8
DEFAULT_255_2_778
10
5.294122
20
6.5105676
11
5.656922
21
6.8474676
0
LINE
8
DEFAULT_255_2_778
10
5.656922
20
6.8474676
11
5.823822
21
6.9791676
0
ARC
8
DEFAULT_255_2_778
10
4.7913585
20
6.9542518
40
0.3639851
50
196.6802748
51
217.1450127
0
ARC
8
DEFAULT_255_2_778
10
4.9394609
20
7.0077193
40
0.5212751
50
187.6745106
51
197.6374262
0
ARC
8
DEFAULT_255_2_778
10
4.9053498
20
7.0040388
40
0.486979
50
180.1214874
51
187.7813309
0
ARC
8
DEFAULT_255_2_778
10
4.7264837
20
7.0101672
40
0.308195
50
158.9526104
51
181.3313828
0
ARC
8
DEFAULT_255_2_778
10
4.563074
20
7.0731686
40
0.133061
50
125.5966533
51
159.0004979
0
ARC
8
DEFAULT_255_2_778
10
4.253111
20
7.5328101
40
0.4213967
50
303.4881045
51
307.4254785
0
ARC
8
DEFAULT_255_2_778
10
4.4637093
20
7.2608104
40
0.0774274
50
305.9872661
51
318.7006093
0
ARC
8
DEFAULT_255_2_778
10
4.5167416
20
7.2145948
40
0.0070894
50
316.4327783
51
351.7356182
0
ARC
8
DEFAULT_255_2_778
10
4.5204301
20
7.2125654
40
0.0034773
50
16.8917666
51
109.6028013
0
ARC
8
DEFAULT_255_2_778
10
4.5255597
20
7.134473
40
0.0816113
50
94.4246716
51
108.1139075
0
ARC
8
DEFAULT_255_2_778
10
4.5967787
20
6.8796865
40
0.346105
50
106.2055523
51
108.8001592
0
ARC
8
DEFAULT_255_2_778
10
4.6633208
20
6.6806912
40
0.5559292
50
108.6828847
51
109.6016439
0
ARC
8
DEFAULT_255_2_778
10
4.7412703
20
6.4634149
40
0.7867644
50
109.6410179
51
111.2793372
0
ARC
8
DEFAULT_255_2_778
10
4.6943328
20
6.5813431
40
0.6598426
50
111.1977629
51
112.0392207
0
LINE
8
DEFAULT_255_2_778
10
4.4470225
20
7.1929651
11
4.3848225
21
7.1541651
0
LINE
8
DEFAULT_255_2_778
10
4.3848225
20
7.1541651
11
4.1168225
21
6.7072651
0
LINE
8
DEFAULT_255_2_778
10
4.1168225
20
6.7072651
11
4.4081225
21
6.6799651
0
LINE
8
DEFAULT_255_2_778
10
4.4081225
20
6.6799651
11
4.3033225
21
6.4778651
0
LINE
8
DEFAULT_255_2_778
10
4.3033225
20
6.4778651
11
4.8550225
21
6.1865651
0
LINE
8
DEFAULT_255_2_778
10
4.8550225
20
6.1865651
11
4.9016225
21
6.2410651
0
LINE
8
DEFAULT_255_2_778
10
4.9016225
20
6.2410651
11
4.5012225
21
6.7344651
0
ARC
8
DEFAULT_255_2_778
10
5.2061776
20
7.0719215
40
0.2606836
50
33.7943049
51
36.8370055
0
ARC
8
DEFAULT_255_2_778
10
5.0000422
20
6.9323678
40
0.5096136
50
28.8302503
51
33.9426487
0
ARC
8
DEFAULT_255_2_778
10
4.9555867
20
6.9068015
40
0.5608882
50
25.5226919
51
28.9283398
0
ARC
8
DEFAULT_255_2_778
10
5.0080345
20
6.9297498
40
0.5036744
50
13.0451749
51
25.737606
0
ARC
8
DEFAULT_255_2_778
10
5.1128058
20
6.9549626
40
0.3959171
50
1.8598252
51
12.9130143
0
ARC
8
DEFAULT_255_2_778
10
5.2817939
20
6.9611655
40
0.2268177
50
359.9981349
51
1.6791514
0
ARC
8
DEFAULT_255_2_778
10
5.1486416
20
6.995967
40
0.3616491
50
308.3798377
51
354.4767124
0
ARC
8
DEFAULT_255_2_778
10
4.3590261
20
7.7694644
40
1.4648387
50
311.0326424
51
313.8149133
0
ARC
8
DEFAULT_255_2_778
10
1.0846469
20
11.5278967
40
6.4495525
50
310.4780173
51
311.0558463
0
LINE
8
DEFAULT_255_2_778
10
4.6957142
20
6.1265119
11
5.5291142
21
6.2654119
0
LINE
8
DEFAULT_255_2_778
10
5.5291142
20
6.2654119
11
5.4310142
21
6.6207119
0
LINE
8
DEFAULT_255_2_778
10
5.4310142
20
6.6207119
11
5.7874142
21
6.5752119
0
LINE
8
DEFAULT_255_2_778
10
5.7874142
20
6.5752119
11
5.8186142
21
6.9872119
0
LINE
8
DEFAULT_255_2_778
10
5.8186142
20
6.9872119
11
5.4495142
21
7.2242119
0
LINE
8
DEFAULT_255_2_778
10
5.4495142
20
7.2242119
11
5.4148142
21
7.2282119
0
LINE
8
DEFAULT_255_2_778
10
5.2714142
20
6.6220119
11
4.6965142
21
6.1267119
0
LINE
8
DEFAULT_255_2_778
10
4.6965142
20
6.1267119
11
4.6957142
21
6.1265119
0
LINE
8
DEFAULT_255_2_778
10
5.3680142
20
5.3981119
11
5.2746142
21
5.8410119
0
LINE
8
DEFAULT_255_2_778
10
5.2746142
20
5.8410119
11
5.8263142
21
6.0235119
0
LINE
8
DEFAULT_255_2_778
10
5.8263142
20
6.0235119
11
5.8845142
21
5.7283119
0
LINE
8
DEFAULT_255_2_778
10
5.8845142
20
5.7283119
11
5.3680142
21
5.3981119
0
LINE
8
DEFAULT_255_2_778
10
4.6788142
20
6.1169119
11
4.6994142
21
4.9099119
0
LINE
8
DEFAULT_255_2_778
10
4.6994142
20
4.9099119
11
4.6060142
21
4.5681119
0
LINE
8
DEFAULT_255_2_778
10
4.6060142
20
4.5681119
11
4.6007142
21
4.2368119
0
LINE
8
DEFAULT_255_2_778
10
4.6007142
20
4.2368119
11
4.5851142
21
3.9103119
0
LINE
8
DEFAULT_255_2_778
10
4.5851142
20
3.9103119
11
4.6576142
21
3.8016119
0
LINE
8
DEFAULT_255_2_778
10
4.6576142
20
3.8016119
11
4.8544142
21
3.8481119
0
LINE
8
DEFAULT_255_2_778
10
5.2378142
20
4.4387119
11
5.2172142
21
4.6149119
0
LINE
8
DEFAULT_255_2_778
10
5.2172142
20
4.6149119
11
4.9116142
21
4.6408119
0
LINE
8
DEFAULT_255_2_778
10
4.9116142
20
4.6408119
11
4.9322142
21
4.4958119
0
LINE
8
DEFAULT_255_2_778
10
4.9322142
20
4.4958119
11
5.2378142
21
4.4387119
0
ARC
8
DEFAULT_255_2_778
10
7.0264632
20
4.8739281
40
0.5392653
50
177.8316022
51
179.6416757
0
ARC
8
DEFAULT_255_2_778
10
7.3417381
20
4.8639244
40
0.8546952
50
173.8113463
51
177.9611441
0
ARC
8
DEFAULT_255_2_778
10
7.1509506
20
4.8854024
40
0.6627045
50
169.4192932
51
173.8792546
0
ARC
8
DEFAULT_255_2_778
10
6.7797264
20
4.9638485
40
0.2835291
50
150.9004411
51
171.2278215
0
ARC
8
DEFAULT_255_2_778
10
6.6291591
20
5.0406065
40
0.1148025
50
142.5586961
51
147.8266622
0
ARC
8
DEFAULT_255_2_778
10
5.3210014
20
2.3311236
40
3.0340545
50
66.3520511
51
67.4158409
0
ARC
8
DEFAULT_255_2_778
10
5.3124329
20
2.31247
40
3.0545685
50
67.4018161
51
69.0398605
0
ARC
8
DEFAULT_255_2_778
10
5.3979827
20
2.5343011
40
2.8168135
50
69.0507598
51
69.7042223
0
ARC
8
DEFAULT_255_2_778
10
5.6063005
20
3.1139094
40
2.2009393
50
69.5568163
51
73.868746
0
ARC
8
DEFAULT_255_2_778
10
5.8979959
20
4.1440804
40
1.1303003
50
73.564055
51
81.808768
0
ARC
8
DEFAULT_255_2_778
10
5.9860241
20
4.7321121
40
0.535736
50
82.1669305
51
89.6044786
0
ARC
8
DEFAULT_255_2_778
10
5.9884458
20
4.9458339
40
0.3220039
50
89.7728582
51
96.6048567
0
ARC
8
DEFAULT_255_2_778
10
6.339475
20
4.9481414
40
0.5014374
50
140.7061509
51
146.2765315
0
ARC
8
DEFAULT_255_2_778
10
6.638834
20
4.7459665
40
0.862669
50
146.1467129
51
150.7007271
0
ARC
8
DEFAULT_255_2_778
10
6.8145483
20
4.6454969
40
1.0650736
50
150.6131745
51
158.9507748
0
ARC
8
DEFAULT_255_2_778
10
6.6238095
20
4.7186624
40
0.8607837
50
158.9358465
51
164.5972124
0
ARC
8
DEFAULT_255_2_778
10
6.3246376
20
4.7962
40
0.5517831
50
164.1082999
51
177.1824714
0
ARC
8
DEFAULT_255_2_778
10
6.150472
20
4.8098637
40
0.3771906
50
177.9550712
51
179.9862196
0
ARC
8
DEFAULT_255_2_778
10
6.0516728
20
4.8067837
40
0.2784096
50
179.3474721
51
195.2825823
0
ARC
8
DEFAULT_255_2_778
10
6.062264
20
3.9159685
40
0.8637841
50
105.8139642
51
108.8551908
0
ARC
8
DEFAULT_255_2_778
10
6.3055259
20
3.0628252
40
1.7509304
50
103.8079012
51
105.8650354
0
ARC
8
DEFAULT_255_2_778
10
6.5354331
20
2.1447554
40
2.6973439
50
103.226845
51
103.8960502
0
ARC
8
DEFAULT_255_2_778
10
6.8374189
20
0.8440288
40
4.0326628
50
101.8530306
51
103.1751191
0
ARC
8
DEFAULT_255_2_778
10
7.3235011
20
-1.4598927
40
6.387302
50
100.9925004
51
101.8753463
0
ARC
8
DEFAULT_255_2_778
10
8.0435216
20
-5.1957068
40
10.1918672
50
99.7904352
51
100.961372
0
ARC
8
DEFAULT_255_2_778
10
8.4819676
20
-7.6894114
40
12.7238123
50
99.3644307
51
99.8265429
0
ARC
8
DEFAULT_255_2_778
10
8.2070842
20
-6.0162214
40
11.028193
50
99.0769587
51
99.3697844
0
ARC
8
DEFAULT_255_2_778
10
7.3914025
20
-0.9055208
40
5.8528093
50
98.885558
51
99.0848084
0
ARC
8
DEFAULT_255_2_778
10
6.5243729
20
4.6407235
40
0.2392038
50
98.8168782
51
98.8990266
0
ARC
8
DEFAULT_255_2_778
10
2.5411183
20
5.5431186
40
0.3836689
50
321.2905877
51
323.7961104
0
ARC
8
DEFAULT_255_2_778
10
2.3656778
20
5.681296
40
0.6069851
50
315.7850472
51
321.4691574
0
ARC
8
DEFAULT_255_2_778
10
2.4224313
20
5.6266814
40
0.5282229
50
313.6298874
51
315.7380454
0
ARC
8
DEFAULT_255_2_778
10
2.5640115
20
5.4678459
40
0.3156462
50
296.1468776
51
314.9221604
0
ARC
8
DEFAULT_255_2_778
10
2.2270403
20
5.1161804
40
0.0564516
50
305.9834469
51
320.1164641
0
ARC
8
DEFAULT_255_2_778
10
2.141382
20
5.1909095
40
0.1701169
50
319.3024901
51
332.7965693
0
ARC
8
DEFAULT_255_2_778
10
2.017976
20
5.2584805
40
0.3107849
50
332.1177938
51
338.7498789
0
ARC
8
DEFAULT_255_2_778
10
1.8390456
20
5.32678
40
0.5023053
50
338.8862915
51
346.7163498
0
ARC
8
DEFAULT_255_2_778
10
1.5225633
20
5.4029671
40
0.8278268
50
346.6173833
51
352.6261361
0
ARC
8
DEFAULT_255_2_778
10
1.0739963
20
5.4624402
40
1.2803177
50
352.5630064
51
357.233197
0
ARC
8
DEFAULT_255_2_778
10
0.7468742
20
5.4824827
40
1.6080315
50
357.0825282
51
357.6982569
0
ARC
8
DEFAULT_255_2_778
10
0.747464
20
5.4830834
40
1.6074667
50
357.6760177
51
359.0860066
0
ARC
8
DEFAULT_255_2_778
10
0.9368043
20
5.4797966
40
1.4180981
50
359.0967589
51
359.9930486
0
ARC
8
DEFAULT_255_2_778
10
1.2747019
20
5.4829512
40
1.0802056
50
359.8235504
51
4.5597758
0
ARC
8
DEFAULT_255_2_778
10
1.7037535
20
5.5183848
40
0.6496962
50
4.4528723
51
11.070927
0
ARC
8
DEFAULT_255_2_778
10
1.9961876
20
5.5768359
40
0.3514825
50
10.8738452
51
20.4307633
0
ARC
8
DEFAULT_255_2_778
10
2.1057326
20
5.6152251
40
0.2354386
50
20.982011
51
22.5597777
0
ARC
8
DEFAULT_255_2_778
10
2.1851036
20
5.6510556
40
0.1484183
50
21.5412244
51
36.4000874
0
ARC
8
DEFAULT_255_2_778
10
2.26125
20
5.7082356
40
0.0532035
50
35.4987199
51
54.6177638
0
ARC
8
DEFAULT_255_2_778
10
2.2868006
20
5.7435683
40
0.0096091
50
56.8421161
51
61.3453387
0
ARC
8
DEFAULT_255_2_778
10
6.2314243
20
3.4284983
40
1.0768324
50
196.1540746
51
196.6858298
0
ARC
8
DEFAULT_255_2_778
10
7.7782481
20
3.8921924
40
2.6916625
50
196.68668
51
197.7507296
0
ARC
8
DEFAULT_255_2_778
10
8.680468
20
4.1795124
40
3.6385269
50
197.728301
51
199.2349927
0
ARC
8
DEFAULT_255_2_778
10
8.6184069
20
4.1553479
40
3.5719702
50
199.1969773
51
201.9034755
0
ARC
8
DEFAULT_255_2_778
10
7.9602537
20
3.8904822
40
2.8625202
50
201.8989563
51
204.5289162
0
ARC
8
DEFAULT_255_2_778
10
6.9571241
20
3.4196645
40
1.7545002
50
204.1410975
51
212.2171248
0
LINE
8
DEFAULT_255_2_778
10
5.4727576
20
2.4842893
11
5.4730085
21
2.4839006
0
ARC
8
DEFAULT_255_2_778
10
5.5542462
20
2.3436688
40
0.1620633
50
103.967561
51
120.0841689
0
ARC
8
DEFAULT_255_2_778
10
5.7281928
20
1.7284936
40
0.8012929
50
99.7408431
51
105.4204644
0
ARC
8
DEFAULT_255_2_778
10
6.0043294
20
0.1706476
40
2.3834152
50
96.7368339
51
99.9471152
0
ARC
8
DEFAULT_255_2_778
10
6.2949426
20
-2.1981005
40
4.7699119
50
95.0374819
51
96.8657303
0
ARC
8
DEFAULT_255_2_778
10
6.4249738
20
-3.6096293
40
6.1874087
50
93.2851706
51
95.0892112
0
ARC
8
DEFAULT_255_2_778
10
6.3298106
20
-1.9240699
40
4.4991662
50
92.1079145
51
93.3053581
0
ARC
8
DEFAULT_255_2_778
10
6.2468726
20
0.4016907
40
2.1719304
50
90.364316
51
92.1781823
0
ARC
8
DEFAULT_255_2_778
10
6.2369122
20
1.3791157
40
1.1944675
50
90.0044659
51
90.1846605
0
ARC
8
DEFAULT_255_2_778
10
6.2371395
20
1.6333106
40
0.9402726
50
89.2985947
51
90.0195268
0
ARC
8
DEFAULT_255_2_778
10
6.2409694
20
1.9371302
40
0.636429
50
88.3667741
51
89.308535
0
LINE
8
DEFAULT_255_2_778
10
5.7048085
20
4.6871006
11
5.4355085
21
4.6196006
0
LINE
8
DEFAULT_255_2_778
10
5.4355085
20
4.6196006
11
5.4717085
21
4.4384006
0
LINE
8
DEFAULT_255_2_778
10
5.4717085
20
4.4384006
11
5.6892085
21
4.4953006
0
LINE
8
DEFAULT_255_2_778
10
4.2853085
20
4.4953006
11
4.3165085
21
4.6765006
0
LINE
8
DEFAULT_255_2_778
10
4.3165085
20
4.6765006
11
4.5496085
21
4.6559006
0
LINE
8
DEFAULT_255_2_778
10
4.5496085
20
4.6559006
11
4.5600085
21
4.4693006
0
LINE
8
DEFAULT_255_2_778
10
4.5600085
20
4.4693006
11
4.2853085
21
4.4953006
0
LINE
8
DEFAULT_255_2_778
10
3.7413085
20
4.7231006
11
4.0782085
21
4.7127006
0
LINE
8
DEFAULT_255_2_778
10
4.0782085
20
4.7127006
11
4.0625085
21
4.5212006
0
LINE
8
DEFAULT_255_2_778
10
4.0625085
20
4.5212006
11
3.7569085
21
4.5678006
0
LINE
8
DEFAULT_255_2_778
10
4.4928085
20
5.7854006
11
3.8863085
21
6.0391006
0
LINE
8
DEFAULT_255_2_778
10
3.8863085
20
6.0391006
11
3.7567085
21
5.8060006
0
LINE
8
DEFAULT_255_2_778
10
3.7567085
20
5.8060006
11
4.3213085
21
5.3657006
0
LINE
8
DEFAULT_255_2_778
10
4.3213085
20
5.3657006
11
4.4928085
21
5.7854006
0
LINE
8
DEFAULT_255_2_778
10
6.4877085
20
4.8771006
11
6.4872085
21
4.8773006
0
LINE
8
DEFAULT_255_2_778
10
2.5589085
20
5.8682006
11
2.7380085
21
5.6078006
0
LINE
8
DEFAULT_255_2_778
10
2.7380085
20
5.6078006
11
2.8507085
21
5.3165006
0
LINE
8
DEFAULT_255_2_778
10
2.7031085
20
5.1845006
11
2.3483085
21
5.0342006
0
LINE
8
DEFAULT_255_2_778
10
2.3483085
20
5.0342006
11
2.2602085
21
5.0705006
0
LINE
8
DEFAULT_255_2_778
10
2.2914085
20
5.7520006
11
2.4663085
21
5.8182006
0
LINE
8
DEFAULT_255_2_778
10
2.4663085
20
5.8182006
11
2.5589085
21
5.8682006
0
ARC
8
DEFAULT_255_2_778
10
3.1918319
20
3.1598841
40
0.7335639
50
255.7139742
51
258.5657506
0
ARC
8
DEFAULT_255_2_778
10
3.5539126
20
4.925211
40
2.5356389
50
258.4543438
51
259.9674372
0
ARC
8
DEFAULT_255_2_778
10
4.3023476
20
9.1264329
40
6.8030047
50
259.9244439
51
260.8207817
0
ARC
8
DEFAULT_255_2_778
10
5.1124255
20
14.0747499
40
11.8171852
50
260.7706812
51
261.0366875
0
ARC
8
DEFAULT_255_2_778
10
6.0849594
20
20.2774531
40
18.0956665
50
261.0548491
51
261.5395302
0
ARC
8
DEFAULT_255_2_778
10
6.7696049
20
24.8397457
40
22.7090412
50
261.524497
51
261.715082
0
ARC
8
DEFAULT_255_2_778
10
6.3517534
20
21.9653765
40
19.804459
50
261.7130756
51
261.8331835
0
ARC
8
DEFAULT_255_2_778
10
4.9742767
20
12.3619002
40
10.1026963
50
261.829094
51
261.9155887
0
ARC
8
DEFAULT_255_2_778
10
3.6408102
20
2.7201718
40
0.3709835
50
256.3903633
51
257.1767981
0
ARC
8
DEFAULT_255_2_778
10
3.7557531
20
3.2249902
40
0.8887223
50
257.1745348
51
258.7239985
0
ARC
8
DEFAULT_255_2_778
10
3.8091541
20
3.4889961
40
1.1580742
50
258.6870057
51
260.7263317
0
ARC
8
DEFAULT_255_2_778
10
3.8015856
20
3.4348069
40
1.1033743
50
260.6607474
51
264.8493801
0
ARC
8
DEFAULT_255_2_778
10
3.7770335
20
3.155276
40
0.8227682
50
264.8046911
51
269.8332795
0
ARC
8
DEFAULT_255_2_778
10
3.7749893
20
2.8215188
40
0.4890078
50
269.9590044
51
270.1228938
0
ARC
8
DEFAULT_255_2_778
10
3.7847981
20
2.744965
40
0.4125455
50
268.7832954
51
286.6506695
0
ARC
8
DEFAULT_255_2_778
10
3.8342963
20
2.5555311
40
0.2169799
50
288.461594
51
292.867708
0
ARC
8
DEFAULT_255_2_778
10
3.1760732
20
2.6817207
40
0.8109999
50
336.2894989
51
339.4746818
0
ARC
8
DEFAULT_255_2_778
10
1.7022476
20
3.2402709
40
2.387111
50
339.3225716
51
340.9075991
0
ARC
8
DEFAULT_255_2_778
10
-1.4061682
20
4.3185304
40
5.6772311
50
340.8853234
51
341.9678102
0
ARC
8
DEFAULT_255_2_778
10
-7.5278686
20
6.3148058
40
12.1162004
50
341.9524707
51
342.702365
0
ARC
8
DEFAULT_255_2_778
10
-13.1690208
20
8.0836164
40
18.0281544
50
342.6658227
51
342.8164033
0
ARC
8
DEFAULT_255_2_778
10
-18.7429029
20
9.8017575
40
23.8608336
50
342.8290552
51
343.225206
0
ARC
8
DEFAULT_255_2_778
10
-25.0415898
20
11.7050156
40
30.4407905
50
343.2169243
51
343.4256436
0
ARC
8
DEFAULT_255_2_778
10
-26.7250575
20
12.2073284
40
32.1976002
50
343.4234782
51
343.54806
0
ARC
8
DEFAULT_255_2_778
10
-24.4385161
20
11.5328326
40
29.8136506
50
343.5467275
51
343.6623464
0
ARC
8
DEFAULT_255_2_778
10
-16.9336089
20
9.3333829
40
21.9930874
50
343.6611126
51
343.7429852
0
ARC
8
DEFAULT_255_2_778
10
-5.8512012
20
6.1021987
40
10.4492445
50
343.7402729
51
343.8014422
0
ARC
8
DEFAULT_255_2_778
10
3.7286434
20
2.7927625
40
0.6018478
50
40.9489097
51
42.3777728
0
ARC
8
DEFAULT_255_2_778
10
3.2918549
20
2.3962968
40
1.191736
50
42.3043806
51
44.5716525
0
ARC
8
DEFAULT_255_2_778
10
3.2133192
20
2.3209983
40
1.3005282
50
44.5066376
51
48.4874575
0
ARC
8
DEFAULT_255_2_778
10
3.3179202
20
2.4380856
40
1.1435242
50
48.5236709
51
50.2815315
0
ARC
8
DEFAULT_255_2_778
10
3.6092246
20
2.8130477
40
0.6691381
50
48.9510164
51
67.1670771
0
ARC
8
DEFAULT_255_2_778
10
3.7595747
20
3.1448109
40
0.3051875
50
69.0127908
51
78.2515148
0
ARC
8
DEFAULT_255_2_778
10
4.1804063
20
5.1828724
40
1.7758688
50
255.3175516
51
258.3472118
0
ARC
8
DEFAULT_255_2_778
10
4.483521
20
6.3677187
40
2.9988607
50
254.2980189
51
255.4531358
0
ARC
8
DEFAULT_255_2_778
10
4.779953
20
7.4226767
40
4.0946748
50
253.2644734
51
254.2999404
0
ARC
8
DEFAULT_255_2_778
10
5.2056502
20
8.8338407
40
5.5686493
50
251.9509188
51
253.2509371
0
ARC
8
DEFAULT_255_2_778
10
5.3247901
20
9.2088996
40
5.9621662
50
251.2979991
51
251.9790558
0
ARC
8
DEFAULT_255_2_778
10
4.6833411
20
7.3170432
40
3.9645234
50
250.8812054
51
251.311925
0
ARC
8
DEFAULT_255_2_778
10
3.715212
20
4.523109
40
1.0076092
50
250.7381353
51
250.8605806
0
ARC
8
DEFAULT_255_2_778
10
3.3408769
20
2.8740848
40
0.3387218
50
93.2167963
51
96.7902203
0
ARC
8
DEFAULT_255_2_778
10
3.3648821
20
2.4766047
40
0.7369245
50
91.0258902
51
93.3461028
0
ARC
8
DEFAULT_255_2_778
10
3.3727058
20
2.1247726
40
1.0888413
50
89.9796365
51
91.1060409
0
ARC
8
DEFAULT_255_2_778
10
3.3700182
20
1.6734452
40
1.5401718
50
86.7605368
51
89.8856233
0
ARC
8
DEFAULT_255_2_778
10
3.3511683
20
1.3119287
40
1.9021765
50
82.6521111
51
86.8090086
0
ARC
8
DEFAULT_255_2_778
10
3.378943
20
1.4967481
40
1.7153272
50
75.9432107
51
82.7826944
0
ARC
8
DEFAULT_255_2_778
10
3.5681815
20
2.183907
40
1.0029205
50
57.9149902
51
76.8957239
0
ARC
8
DEFAULT_255_2_778
10
3.7513347
20
2.5071917
40
0.6319438
50
54.2298151
51
56.4149464
0
LINE
8
DEFAULT_255_2_778
10
3.1608917
20
2.360952
11
3.2346917
21
2.103252
0
ARC
8
DEFAULT_255_2_778
10
3.6768937
20
2.8719424
40
1.1386182
50
234.5925078
51
237.1476138
0
ARC
8
DEFAULT_255_2_778
10
3.709264
20
2.9219084
40
1.1981534
50
237.1434042
51
240.1019578
0
ARC
8
DEFAULT_255_2_778
10
3.7217148
20
2.943274
40
1.2228818
50
240.0952146
51
242.0220088
0
ARC
8
DEFAULT_255_2_778
10
3.7249784
20
2.9492936
40
1.229729
50
242.0192975
51
248.8902769
0
ARC
8
DEFAULT_255_2_778
10
3.7161072
20
2.9255788
40
1.2044108
50
248.8776653
51
257.6466398
0
ARC
8
DEFAULT_255_2_778
10
3.7116959
20
2.906987
40
1.1853057
50
257.6626702
51
267.5744345
0
ARC
8
DEFAULT_255_2_778
10
3.7123364
20
2.9193659
40
1.1977007
50
267.5688846
51
270.0020026
0
ARC
8
DEFAULT_255_2_778
10
3.7115837
20
2.9560182
40
1.2343531
50
270.0368806
51
278.3129716
0
ARC
8
DEFAULT_255_2_778
10
3.6960646
20
3.0595385
40
1.3390295
50
278.329619
51
286.0916238
0
ARC
8
DEFAULT_255_2_778
10
3.6497697
20
3.2197863
40
1.5058306
50
286.0940775
51
292.9172619
0
ARC
8
DEFAULT_255_2_778
10
3.6018371
20
3.3385856
40
1.6339192
50
292.8432212
51
294.0760351
0
ARC
8
DEFAULT_255_2_778
10
5.0495988
20
2.4149089
40
0.7008195
50
248.8506309
51
257.2431517
0
ARC
8
DEFAULT_255_2_778
10
5.1902117
20
3.0168064
40
1.3189158
50
257.0591954
51
263.4208511
0
ARC
8
DEFAULT_255_2_778
10
5.2524196
20
3.5267266
40
1.8326086
50
263.3153704
51
270.0545243
0
ARC
8
DEFAULT_255_2_778
10
5.254516
20
3.5455034
40
1.8513845
50
269.9890932
51
272.8384665
0
ARC
8
DEFAULT_255_2_778
10
5.287072
20
3.1216576
40
1.4264931
50
272.3754706
51
284.477664
0
ARC
8
DEFAULT_255_2_778
10
5.4534311
20
2.4751684
40
0.7589429
50
284.5189997
51
298.0347923
0
ARC
8
DEFAULT_255_2_778
10
5.5453044
20
2.2868366
40
0.5495784
50
298.8088241
51
299.3698771
0
ARC
8
DEFAULT_255_2_778
10
6.1506039
20
3.2452883
40
1.4639336
50
252.3138631
51
259.2579091
0
ARC
8
DEFAULT_255_2_778
10
6.2069982
20
3.513559
40
1.7380228
50
259.0797773
51
261.0848313
0
ARC
8
DEFAULT_255_2_778
10
6.1991798
20
3.4486413
40
1.6726795
50
261.0047966
51
267.3480676
0
ARC
8
DEFAULT_255_2_778
10
6.1799402
20
3.0873057
40
1.3108431
50
267.4573682
51
269.958628
0
ARC
8
DEFAULT_255_2_778
10
6.1853404
20
2.6369886
40
0.8605491
50
269.5774237
51
277.5456118
0
ARC
8
DEFAULT_255_2_778
10
6.2544163
20
2.1359325
40
0.3547714
50
277.1125746
51
290.205298
0
ARC
8
DEFAULT_255_2_778
10
6.3460398
20
1.8983205
40
0.1002128
50
287.9649314
51
322.0291355
0
ARC
8
DEFAULT_255_2_778
10
6.3837152
20
1.8642299
40
0.0496754
50
326.2940175
51
334.2484056
0
ARC
8
DEFAULT_255_2_778
10
6.3996978
20
1.8568227
40
0.032063
50
333.7615348
51
359.7293068
0
ARC
8
DEFAULT_255_2_778
10
6.3990648
20
1.8565879
40
0.0326958
50
0.1460335
51
13.8829871
0
ARC
8
DEFAULT_255_2_778
10
6.3576344
20
1.8383
40
0.0776977
50
19.6541086
51
56.5902181
0
ARC
8
DEFAULT_255_2_778
10
6.18731
20
1.6139118
40
0.3592743
50
53.6185416
51
65.7771011
0
ARC
8
DEFAULT_255_2_778
10
5.8819753
20
0.9572281
40
1.0834537
50
65.2999524
51
71.6282893
0
ARC
8
DEFAULT_255_2_778
10
5.5376796
20
-0.0465464
40
2.144608
50
71.3510428
51
74.4728208
0
ARC
8
DEFAULT_255_2_778
10
5.4108349
20
-0.4877144
40
2.6036341
50
74.3822302
51
75.8062669
0
ARC
8
DEFAULT_255_2_778
10
5.529803
20
-0.0160463
40
2.117194
50
75.7976776
51
76.4946075
0
ARC
8
DEFAULT_255_2_778
10
5.7856226
20
1.0515581
40
1.0193681
50
76.4620449
51
76.9869279
0
ARC
8
DEFAULT_255_2_778
10
5.722198
20
3.537504
40
1.5288245
50
261.4917173
51
265.4122726
0
ARC
8
DEFAULT_255_2_778
10
5.7328804
20
3.6649676
40
1.6567341
50
265.3966107
51
270.0050289
0
ARC
8
DEFAULT_255_2_778
10
5.7396428
20
3.4520986
40
1.4438802
50
269.7374232
51
279.3396949
0
ARC
8
DEFAULT_255_2_778
10
5.8584717
20
2.7515234
40
0.7333163
50
279.0616153
51
290.2723354
0
ARC
8
DEFAULT_255_2_778
10
6.0380998
20
2.2815224
40
0.2302604
50
288.8652886
51
312.5590559
0
ARC
8
DEFAULT_255_2_778
10
6.1494116
20
2.1601103
40
0.0655449
50
312.6700666
51
357.7220635
0
ARC
8
DEFAULT_255_2_778
10
6.1586341
20
2.1511002
40
0.0566341
50
6.4935688
51
68.7992742
0
ARC
8
DEFAULT_255_2_778
10
6.0428884
20
1.9365167
40
0.3000868
50
63.0021459
51
78.2852558
0
ARC
8
DEFAULT_255_2_778
10
5.8789988
20
1.1911396
40
1.0632535
50
77.7929844
51
85.9250594
0
ARC
8
DEFAULT_255_2_778
10
5.7730192
20
-0.0188598
40
2.2778104
50
85.4288252
51
88.5427589
0
ARC
8
DEFAULT_255_2_778
10
5.7529203
20
-0.6347487
40
2.8940146
50
88.4550579
51
89.6651645
0
ARC
8
DEFAULT_255_2_778
10
5.752505
20
-0.66148
40
2.9207479
50
89.6600825
51
90.0000953
0
ARC
8
DEFAULT_255_2_778
10
5.7522884
20
-0.5138816
40
2.7731497
50
89.9956253
51
90.4952789
0
ARC
8
DEFAULT_255_2_778
10
5.749138
20
-0.1599485
40
2.4192026
50
90.4931275
51
90.905338
0
ARC
8
DEFAULT_255_2_778
10
5.7453937
20
0.1061819
40
2.1530463
50
90.9176104
51
90.9431769
0
ARC
8
DEFAULT_255_2_778
10
5.7385996
20
0.4909672
40
1.7682014
50
90.9282932
51
91.2719208
0
ARC
8
DEFAULT_255_2_778
10
5.7236731
20
1.1678996
40
1.0911044
50
91.2773486
51
91.4786769
0
ARC
8
DEFAULT_255_2_778
10
5.7056114
20
1.862308
40
0.3964612
50
91.4589433
51
91.6486859
0
ARC
8
DEFAULT_255_2_778
10
3.6188448
20
1.8881671
40
2.829843
50
39.491349
51
39.6086228
0
ARC
8
DEFAULT_255_2_778
10
3.3439979
20
1.6613073
40
3.1862222
50
39.3941618
51
39.4963893
0
ARC
8
DEFAULT_255_2_778
10
13.3844447
20
9.7111255
40
9.683031
50
218.4988515
51
219.7234965
0
ARC
8
DEFAULT_255_2_778
10
6.495019
20
3.9928433
40
0.7296721
50
220.0981551
51
228.2265288
0
ARC
8
DEFAULT_255_2_778
10
6.1885966
20
3.6466187
40
0.2673368
50
227.7710224
51
246.1787143
0
ARC
8
DEFAULT_255_2_778
10
6.1454911
20
3.5588914
40
0.1697205
50
247.5297429
51
252.4113906
0
ARC
8
DEFAULT_255_2_778
10
6.9012488
20
-1.4163612
40
4.8806533
50
99.5179
51
100.4789225
0
ARC
8
DEFAULT_255_2_778
10
7.2373071
20
-3.2417761
40
6.736744
50
100.4658108
51
101.5764725
0
ARC
8
DEFAULT_255_2_778
10
7.2066562
20
-3.1111711
40
6.6026461
50
101.5433392
51
103.1862848
0
ARC
8
DEFAULT_255_2_778
10
6.6707904
20
-0.8569288
40
4.2856061
50
103.0859607
51
105.9788183
0
ARC
8
DEFAULT_255_2_778
10
6.0834205
20
1.1978606
40
2.1485145
50
106.0046991
51
109.2169579
0
ARC
8
DEFAULT_255_2_778
10
5.7558006
20
2.1421765
40
1.1489829
50
109.2894314
51
112.406154
0
ARC
8
DEFAULT_255_2_778
10
5.5499434
20
2.6380746
40
0.6120574
50
112.2849478
51
117.3452517
0
ARC
8
DEFAULT_255_2_778
10
5.3941721
20
2.9369686
40
0.2750118
50
117.1229
51
125.5595558
0
ARC
8
DEFAULT_255_2_778
10
5.3002038
20
3.0680758
40
0.1137074
50
125.4592537
51
137.6981138
0
ARC
8
DEFAULT_255_2_778
10
4.372962
20
2.7831421
40
0.9173578
50
23.205253
51
27.3557538
0
ARC
8
DEFAULT_255_2_778
10
4.6765298
20
2.9366656
40
0.5772
50
27.6673069
51
28.5025001
0
ARC
8
DEFAULT_255_2_778
10
4.9364392
20
3.0908733
40
0.275445
50
26.1119252
51
54.675091
0
ARC
8
DEFAULT_255_2_778
10
5.2763372
20
3.1747981
40
0.2290298
50
129.550093
51
142.0627872
0
ARC
8
DEFAULT_255_2_778
10
5.5269181
20
2.8795056
40
0.6163003
50
123.4873776
51
130.0322956
0
ARC
8
DEFAULT_255_2_778
10
5.9284406
20
2.2796917
40
1.3380966
50
119.692339
51
123.6553758
0
ARC
8
DEFAULT_255_2_778
10
6.2802621
20
1.676355
40
2.0364974
50
118.9410646
51
119.8827596
0
ARC
8
DEFAULT_255_2_778
10
6.7642447
20
0.7864159
40
3.049511
50
116.1229804
51
118.8075103
0
ARC
8
DEFAULT_255_2_778
10
7.2546961
20
-0.1949491
40
4.1465842
50
115.950183
51
116.237085
0
ARC
8
DEFAULT_255_2_778
10
7.8101232
20
-1.3549232
40
5.4326588
50
113.798623
51
115.8640562
0
ARC
8
DEFAULT_255_2_778
10
8.3159035
20
-2.4856221
40
6.671311
50
113.1792664
51
113.8545343
0
ARC
8
DEFAULT_255_2_778
10
8.239875
20
-2.3061607
40
6.4764106
50
112.5781917
51
113.1858691
0
ARC
8
DEFAULT_255_2_778
10
7.6800667
20
-0.9588424
40
5.0174205
50
112.1673876
51
112.582668
0
ARC
8
DEFAULT_255_2_778
10
6.6628197
20
1.5399464
40
2.3195074
50
111.8645127
51
112.1863988
0
LINE
8
DEFAULT_255_2_778
10
5.7990048
20
3.6926051
11
5.7990048
21
3.6923051
0
ARC
8
DEFAULT_255_2_778
10
2.4278118
20
6.7100441
40
1.0383358
50
259.1698719
51
263.704092
0
ARC
8
DEFAULT_255_2_778
10
2.3897079
20
6.5206539
40
0.8451615
50
249.9317993
51
259.2945554
0
ARC
8
DEFAULT_255_2_778
10
2.3461612
20
6.3937976
40
0.7110696
50
246.9194806
51
249.7201621
0
ARC
8
DEFAULT_255_2_778
10
2.2742648
20
6.2455778
40
0.546588
50
221.8996066
51
247.7618409
0
ARC
8
DEFAULT_255_2_778
10
2.2266157
20
6.1933104
40
0.4762691
50
200.8531862
51
221.0475887
0
ARC
8
DEFAULT_255_2_778
10
1.4765281
20
5.8782751
40
0.3379407
50
25.5015738
51
41.7883375
0
ARC
8
DEFAULT_255_2_778
10
1.4928554
20
5.8905823
40
0.3175702
50
42.095737
51
53.3447236
0
ARC
8
DEFAULT_255_2_778
10
1.3755578
20
5.717371
40
0.5266365
50
54.3572222
51
64.8761092
0
ARC
8
DEFAULT_255_2_778
10
1.9171156
20
6.8410488
40
0.7207867
50
241.396065
51
243.8240457
0
ARC
8
DEFAULT_255_2_778
10
1.6653262
20
6.3783481
40
0.1940142
50
235.7537454
51
241.2601067
0
ARC
8
DEFAULT_255_2_778
10
1.3320784
20
5.9695042
40
0.3345761
50
47.9560054
51
82.6684002
0
ARC
8
DEFAULT_255_2_778
10
1.3283762
20
5.9362579
40
0.3680233
50
82.7572435
51
90.0720829
0
ARC
8
DEFAULT_255_2_778
10
1.3289251
20
5.8751636
40
0.4291186
50
90.1351128
51
98.5881616
0
ARC
8
DEFAULT_255_2_778
10
1.1750642
20
7.1236586
40
0.8290635
50
273.5997367
51
276.216812
0
ARC
8
DEFAULT_255_2_778
10
1.1750711
20
7.1237082
40
0.8291124
50
269.9999767
51
273.5990513
0
ARC
8
DEFAULT_255_2_778
10
1.1752715
20
7.1263422
40
0.8317466
50
242.455776
51
269.9861681
0
ARC
8
DEFAULT_255_2_778
10
0.6397236
20
6.1331967
40
0.2968944
50
59.447236
51
66.178678
0
ARC
8
DEFAULT_255_2_778
10
0.6490041
20
6.1559527
40
0.2723299
50
66.0312132
51
88.2876198
0
ARC
8
DEFAULT_255_2_778
10
0.6496959
20
6.1626856
40
0.2655795
50
88.3933925
51
89.9994643
0
ARC
8
DEFAULT_255_2_778
10
0.6475722
20
6.1801261
40
0.2481482
50
89.5090815
51
122.8679459
0
ARC
8
DEFAULT_255_2_778
10
0.5979477
20
6.2578906
40
0.1559013
50
123.0599316
51
143.7982316
0
ARC
8
DEFAULT_255_2_778
10
0.640867
20
6.2318106
40
0.2059833
50
144.9956192
51
170.7812012
0
ARC
8
DEFAULT_255_2_778
10
0.6268819
20
6.2339879
40
0.1918301
50
170.7539201
51
179.920259
0
ARC
8
DEFAULT_255_2_778
10
0.5719111
20
6.2295307
40
0.1369406
50
178.0229948
51
220.7337871
0
ARC
8
DEFAULT_255_2_778
10
0.5802524
20
5.8452092
40
0.2160514
50
99.2175885
51
102.7482342
0
ARC
8
DEFAULT_255_2_778
10
0.6117841
20
5.6998166
40
0.3648203
50
102.5395153
51
110.0518357
0
ARC
8
DEFAULT_255_2_778
10
0.5963065
20
5.7401538
40
0.3216224
50
109.925534
51
117.8487472
0
ARC
8
DEFAULT_255_2_778
10
0.5188725
20
5.8659525
40
0.1744904
50
114.6618808
51
165.761678
0
ARC
8
DEFAULT_255_2_778
10
0.4997913
20
5.8777699
40
0.1532381
50
168.2905341
51
173.4797737
0
ARC
8
DEFAULT_255_2_778
10
0.5963464
20
5.8662741
40
0.2504745
50
173.3751911
51
179.9216655
0
ARC
8
DEFAULT_255_2_778
10
0.5412189
20
5.8637123
40
0.1953682
50
179.1482192
51
218.372413
0
ARC
8
DEFAULT_255_2_778
10
0.5754784
20
5.8927041
40
0.2402291
50
218.7211292
51
236.5513765
0
ARC
8
DEFAULT_255_2_778
10
0.6122747
20
5.9456485
40
0.3046904
50
236.265588
51
246.5747631
0
ARC
8
DEFAULT_255_2_778
10
0.6494709
20
6.0244213
40
0.3917683
50
246.1631875
51
263.9006411
0
ARC
8
DEFAULT_255_2_778
10
0.6087286
20
5.6267334
40
0.0081852
50
358.7061747
51
96.2016244
0
ARC
8
DEFAULT_255_2_778
10
0.5653112
20
5.633095
40
0.0520141
50
330.0192456
51
352.7696635
0
ARC
8
DEFAULT_255_2_778
10
12.7915459
20
-0.5821668
40
13.6633898
50
153.064831
51
153.1984599
0
ARC
8
DEFAULT_255_2_778
10
0.7496464
20
5.4953558
40
0.1748162
50
151.5351969
51
177.3601334
0
ARC
8
DEFAULT_255_2_778
10
0.6770218
20
5.5030364
40
0.1020069
50
179.791531
51
209.8459095
0
ARC
8
DEFAULT_255_2_778
10
0.8005281
20
5.5807304
40
0.2478689
50
211.2153855
51
237.0003168
0
ARC
8
DEFAULT_255_2_778
10
0.8991023
20
5.7180778
40
0.4168197
50
235.918797
51
246.4925501
0
ARC
8
DEFAULT_255_2_778
10
0.8810871
20
5.6715668
40
0.3669885
50
246.1753552
51
250.9401858
0
ARC
8
DEFAULT_255_2_778
10
0.7988107
20
5.4347052
40
0.1162451
50
251.1459866
51
252.2876155
0
ARC
8
DEFAULT_255_2_778
10
0.972964
20
5.4769973
40
0.2594525
50
216.1432231
51
219.3925058
0
ARC
8
DEFAULT_255_2_778
10
1.0573877
20
5.5439126
40
0.3671676
50
219.101547
51
226.7338467
0
ARC
8
DEFAULT_255_2_778
10
0.9285866
20
5.3959148
40
0.1712907
50
224.1755214
51
254.8583734
0
ARC
8
DEFAULT_255_2_778
10
0.9432292
20
5.5663826
40
0.3410222
50
259.971532
51
263.8397862
0
ARC
8
DEFAULT_255_2_778
10
1.0721497
20
6.6874227
40
1.4694446
50
263.5325916
51
265.0296497
0
ARC
8
DEFAULT_255_2_778
10
1.278354
20
9.0040736
40
3.7952525
50
264.9584872
51
265.6928752
0
ARC
8
DEFAULT_255_2_778
10
1.5980987
20
13.2434673
40
8.0466872
50
265.6896593
51
266.248761
0
ARC
8
DEFAULT_255_2_778
10
1.8775462
20
17.4155578
40
12.2281231
50
266.2211585
51
266.3494564
0
ARC
8
DEFAULT_255_2_778
10
2.2652988
20
23.6032464
40
18.4279466
50
266.3712515
51
266.7994694
0
ARC
8
DEFAULT_255_2_778
10
2.4728276
20
27.2107241
40
22.0413848
50
266.7844005
51
266.9426459
0
ARC
8
DEFAULT_255_2_778
10
2.0905946
20
20.0410498
40
14.861529
50
266.9399095
51
267.0317336
0
ARC
8
DEFAULT_255_2_778
10
1.5195652
20
9.0328403
40
3.8385189
50
267.0351197
51
267.0608594
0
ARC
8
DEFAULT_255_2_778
10
1.6271005
20
4.3819086
40
0.8722826
50
109.8723258
51
110.4212221
0
ARC
8
DEFAULT_255_2_778
10
1.9469482
20
3.4981245
40
1.8121639
50
108.672195
51
109.8843673
0
ARC
8
DEFAULT_255_2_778
10
1.9612349
20
3.4603866
40
1.85249
50
106.9012429
51
108.717131
0
ARC
8
DEFAULT_255_2_778
10
1.8185672
20
3.9324786
40
1.3593124
50
104.5975441
51
106.9325384
0
ARC
8
DEFAULT_255_2_778
10
1.6433363
20
4.6292437
40
0.6409043
50
97.4799073
51
105.1366045
0
ARC
8
DEFAULT_255_2_778
10
1.5939413
20
4.9676626
40
0.2989755
50
95.0653035
51
96.5370314
0
ARC
8
DEFAULT_255_2_778
10
1.6830573
20
3.8994398
40
1.3709061
50
92.2454361
51
94.8334864
0
ARC
8
DEFAULT_255_2_778
10
1.711865
20
3.2680519
40
2.002942
50
90.0063689
51
92.3612235
0
ARC
8
DEFAULT_255_2_778
10
1.7119071
20
3.4331792
40
1.8378147
50
89.0269595
51
90.0082532
0
ARC
8
DEFAULT_255_2_778
10
1.7364458
20
4.229002
40
1.0417482
50
82.109208
51
89.6331008
0
ARC
8
DEFAULT_255_2_778
10
1.8483914
20
5.0216978
40
0.2411984
50
68.5373957
51
82.5985717
0
ARC
8
DEFAULT_255_2_778
10
2.0126111
20
5.4375684
40
0.2059223
50
248.3516346
51
260.0375135
0
ARC
8
DEFAULT_255_2_778
10
2.1534063
20
6.1709111
40
0.9526383
50
259.3277031
51
264.3970883
0
ARC
8
DEFAULT_255_2_778
10
2.2902743
20
7.4131174
40
2.2023233
50
264.0085835
51
265.513262
0
ARC
8
DEFAULT_255_2_778
10
2.4105069
20
8.9849961
40
3.778792
50
265.5602847
51
267.3836415
0
ARC
8
DEFAULT_255_2_778
10
2.4485521
20
9.706633
40
4.5014163
50
267.319184
51
268.0112495
0
ARC
8
DEFAULT_255_2_778
10
2.3903434
20
8.0015169
40
2.7953074
50
267.9907632
51
268.4142024
0
ARC
8
DEFAULT_255_2_778
10
2.3045729
20
4.8800275
40
0.3273608
50
88.4645947
51
88.5272628
0
ARC
8
DEFAULT_255_2_778
10
1.511626
20
5.3925622
40
0.8228519
50
346.9864122
51
347.4601449
0
ARC
8
DEFAULT_255_2_778
10
0.5572827
20
5.605114
40
1.8005786
50
347.4513749
51
348.4604674
0
ARC
8
DEFAULT_255_2_778
10
0.369781
20
5.6445574
40
1.9921811
50
348.4277522
51
349.8612839
0
ARC
8
DEFAULT_255_2_778
10
0.8421339
20
5.5619386
40
1.5126617
50
349.7923235
51
352.4453069
0
ARC
8
DEFAULT_255_2_778
10
1.6458546
20
5.4606175
40
0.7026159
50
352.0191825
51
358.9819304
0
ARC
8
DEFAULT_255_2_778
10
1.9822475
20
5.4494043
40
0.3661143
50
359.8011328
51
359.9902383
0
ARC
8
DEFAULT_255_2_778
10
2.0415838
20
5.4497186
40
0.306778
50
359.92965
51
2.6066797
0
ARC
8
DEFAULT_255_2_778
10
1.6160548
20
5.4246251
40
0.7330303
50
3.0533639
51
7.9441187
0
ARC
8
DEFAULT_255_2_778
10
0.9978578
20
5.3415983
40
1.3567733
50
7.8085945
51
10.7474824
0
ARC
8
DEFAULT_255_2_778
10
0.5653728
20
5.2619344
40
1.7965293
50
10.6714587
51
12.5947711
0
ARC
8
DEFAULT_255_2_778
10
0.997756
20
5.3596164
40
1.3532511
50
12.5503796
51
13.5136059
0
ARC
8
DEFAULT_255_2_778
10
1.887657
20
5.5730377
40
0.4381163
50
13.5706376
51
13.7902512
0
LINE
8
DEFAULT_255_2_778
10
0.4681444
20
6.1401707
11
0.5456444
21
6.0584707
0
LINE
8
DEFAULT_255_2_778
10
2.3131444
20
5.6774707
11
2.3139444
21
5.6779707
0
ARC
8
DEFAULT_255_2_778
10
1.6805994
20
2.3058793
40
0.7669028
50
273.0232574
51
275.3393506
0
ARC
8
DEFAULT_255_2_778
10
1.6377026
20
3.0665207
40
1.5287503
50
271.9908432
51
273.1251925
0
ARC
8
DEFAULT_255_2_778
10
1.6017208
20
4.1058738
40
2.568726
50
270.93717
51
271.9875692
0
ARC
8
DEFAULT_255_2_778
10
1.5760549
20
5.635118
40
4.0981854
50
270.078965
51
270.9462608
0
ARC
8
DEFAULT_255_2_778
10
1.5721652
20
6.7056232
40
5.1686956
50
269.9995305
51
270.105728
0
ARC
8
DEFAULT_255_2_778
10
1.5762083
20
8.0708224
40
6.5338962
50
268.9782622
51
269.9641743
0
ARC
8
DEFAULT_255_2_778
10
1.6113455
20
10.1781742
40
8.6415398
50
268.2430182
51
268.9944809
0
ARC
8
DEFAULT_255_2_778
10
1.6497277
20
11.441231
40
9.9051798
50
267.1683853
51
268.2451095
0
ARC
8
DEFAULT_255_2_778
10
1.6310304
20
11.1091828
40
9.5726138
50
266.0056901
51
267.1819785
0
ARC
8
DEFAULT_255_2_778
10
1.4289448
20
8.3965323
40
6.8524874
50
263.2899951
51
266.1113646
0
ARC
8
DEFAULT_255_2_778
10
1.0564184
20
5.2097131
40
3.6439702
50
260.4218551
51
263.2524706
0
ARC
8
DEFAULT_255_2_778
10
0.7617549
20
3.4723695
40
1.8818167
50
256.6006924
51
260.4667529
0
ARC
8
DEFAULT_255_2_778
10
0.5175753
20
2.4594277
40
0.8398679
50
250.2453071
51
256.7915314
0
ARC
8
DEFAULT_255_2_778
10
0.3424059
20
1.9742683
40
0.3240561
50
240.3638311
51
250.4008272
0
ARC
8
DEFAULT_255_2_778
10
4.8832216
20
1.7912801
40
4.702094
50
181.2024707
51
187.4104492
0
ARC
8
DEFAULT_255_2_778
10
4.8650442
20
1.7846572
40
4.6832162
50
187.3587828
51
191.6656571
0
ARC
8
DEFAULT_255_2_778
10
4.2359882
20
1.6531101
40
4.0405553
50
191.6424784
51
195.3573973
0
ARC
8
DEFAULT_255_2_778
10
3.2275438
20
1.3733562
40
2.9940314
50
195.305939
51
199.4659481
0
ARC
8
DEFAULT_255_2_778
10
2.4598729
20
1.1071572
40
2.1815363
50
199.5930848
51
201.2626012
0
ARC
8
DEFAULT_255_2_778
10
1.9436557
20
0.903772
40
1.6267045
50
201.1802584
51
204.5919224
0
ARC
8
DEFAULT_255_2_778
10
1.3880537
20
0.6484089
40
1.0152289
50
204.5363226
51
208.9703604
0
ARC
8
DEFAULT_255_2_778
10
0.9896852
20
0.426751
40
0.5593474
50
208.871068
51
215.0404666
0
ARC
8
DEFAULT_255_2_778
10
0.7668142
20
0.2704169
40
0.2871126
50
215.0333744
51
222.5385306
0
ARC
8
DEFAULT_255_2_778
10
0.9044667
20
0.4239032
40
0.4927152
50
224.8680655
51
242.9718838
0
ARC
8
DEFAULT_255_2_778
10
1.2450116
20
1.05635
40
1.2109466
50
242.2171638
51
252.4646296
0
ARC
8
DEFAULT_255_2_778
10
1.51751
20
1.8961472
40
2.0938326
50
252.2782959
51
261.3354307
0
ARC
8
DEFAULT_255_2_778
10
1.5831294
20
2.2634746
40
2.4668716
50
261.1140216
51
269.9496851
0
ARC
8
DEFAULT_255_2_778
10
1.5890259
20
1.6539694
40
1.8573828
50
269.7512789
51
277.3540806
0
ARC
8
DEFAULT_255_2_778
10
1.6911052
20
0.8907921
40
1.0874229
50
277.1669151
51
287.1601202
0
ARC
8
DEFAULT_255_2_778
10
1.8713287
20
0.3239669
40
0.4926818
50
286.5829658
51
303.4240072
0
ARC
8
DEFAULT_255_2_778
10
2.0612419
20
0.0503579
40
0.159903
50
300.6306672
51
347.4431944
0
ARC
8
DEFAULT_255_2_778
10
2.1075238
20
0.0324451
40
0.1110822
50
351.2744737
51
0.021071
0
ARC
8
DEFAULT_255_2_778
10
2.0874728
20
0.0309658
40
0.1311419
50
0.6641763
51
23.9360908
0
ARC
8
DEFAULT_255_2_778
10
2.0309278
20
0.0079238
40
0.1921818
50
23.3752961
51
32.9682153
0
ARC
8
DEFAULT_255_2_778
10
3.7972482
20
1.1276261
40
1.89915
50
204.3251825
51
212.3109474
0
ARC
8
DEFAULT_255_2_778
10
4.7344488
20
1.5545454
40
2.9290042
50
198.3246928
51
204.3833098
0
ARC
8
DEFAULT_255_2_778
10
5.9491864
20
1.9606749
40
4.2098318
50
193.6484852
51
198.3739503
0
ARC
8
DEFAULT_255_2_778
10
6.8664839
20
2.1910191
40
5.1555846
50
191.1741039
51
193.7306128
0
ARC
8
DEFAULT_255_2_778
10
7.0662873
20
2.2323054
40
5.3596014
50
189.6504515
51
191.1931707
0
ARC
8
DEFAULT_255_2_778
10
6.7460221
20
2.1781212
40
5.034785
50
188.657526
51
189.6535338
0
ARC
8
DEFAULT_255_2_778
10
5.969664
20
2.0607244
40
4.2496016
50
187.6839434
51
188.6683727
0
ARC
8
DEFAULT_255_2_778
10
4.6698127
20
1.8855694
40
2.9380024
50
186.9626477
51
187.6882107
0
ARC
8
DEFAULT_255_2_778
10
3.0090691
20
1.6834524
40
1.2650052
50
186.4063572
51
186.9940196
0
LINE
8
DEFAULT_255_2_778
10
1.7519631
20
1.5423041
11
1.7519631
21
1.5423041
0
ARC
8
DEFAULT_255_2_778
10
10.0868961
20
1.5357865
40
9.1554388
50
179.878288
51
181.4654427
0
ARC
8
DEFAULT_255_2_778
10
4.3365558
20
1.3811002
40
3.4030318
50
181.3378802
51
184.8936137
0
ARC
8
DEFAULT_255_2_778
10
2.0944269
20
1.1822569
40
1.1521338
50
184.5528724
51
192.3680666
0
ARC
8
DEFAULT_255_2_778
10
1.5210555
20
1.0651906
40
0.5670579
50
193.2230627
51
195.061728
0
ARC
8
DEFAULT_255_2_778
10
1.5313096
20
1.0739568
40
0.5792669
50
195.6354586
51
204.5074468
0
ARC
8
DEFAULT_255_2_778
10
1.810577
20
1.1973778
40
0.8845778
50
204.2780473
51
214.0524447
0
ARC
8
DEFAULT_255_2_778
10
1.531051
20
1.0037498
40
0.5445751
50
213.6416258
51
222.2106661
0
ARC
8
DEFAULT_255_2_778
10
1.2418113
20
0.7372001
40
0.1512891
50
221.0366467
51
238.3201963
0
ARC
8
DEFAULT_255_2_778
10
1.1868645
20
0.6534233
40
0.0512134
50
241.4121022
51
245.1939728
0
ARC
8
DEFAULT_255_2_778
10
1.2754446
20
0.8434707
40
0.2608902
50
245.0461075
51
262.2843377
0
ARC
8
DEFAULT_255_2_778
10
1.2598665
20
0.7248269
40
0.1412301
50
262.0848595
51
268.6657452
0
LINE
8
DEFAULT_255_2_778
10
1.256078
20
0.5839352
11
1.256078
21
7.5001352
0
LINE
8
DEFAULT_255_2_778
10
1.256078
20
7.5001352
11
0.922978
21
7.5001352
0
LINE
8
DEFAULT_255_2_778
10
0.922978
20
7.5001352
11
0.931478
21
1.5552352
0
LINE
8
DEFAULT_255_2_778
10
1.256578
20
0.5836352
11
1.256078
21
0.5839352
0
ARC
8
DEFAULT_255_2_778
10
3.7688779
20
1.4247307
40
2.8199768
50
180.0515511
51
180.2995568
0
ARC
8
DEFAULT_255_2_778
10
6.7743017
20
1.4390039
40
5.8254343
50
180.2853934
51
180.648787
0
ARC
8
DEFAULT_255_2_778
10
7.6606874
20
1.4480087
40
6.7118654
50
180.6399725
51
181.3404261
0
ARC
8
DEFAULT_255_2_778
10
6.1701087
20
1.4100313
40
5.2208071
50
181.3064236
51
182.5769752
0
ARC
8
DEFAULT_255_2_778
10
3.3589414
20
1.274649
40
2.406412
50
182.3662372
51
185.7168825
0
ARC
8
DEFAULT_255_2_778
10
1.6136862
20
1.0979556
40
0.6522392
50
185.5443053
51
191.5408233
0
ARC
8
DEFAULT_255_2_778
10
1.0901939
20
0.9882617
40
0.1174167
50
190.2021668
51
206.4875594
0
LINE
8
DEFAULT_255_2_778
10
1.2339023
20
1.4221935
11
0.9489023
21
1.4221935
0
LINE
8
DEFAULT_255_2_778
10
0.9851023
20
0.9358935
11
1.2365023
21
0.9289935
0
LINE
8
DEFAULT_255_2_778
10
1.2365023
20
0.9289935
11
1.2339023
21
1.4221935
0
ARC
8
DEFAULT_255_2_778
10
1.4383304
20
5.5582252
40
0.7086614
50
150.0409414
51
150.6072768
0
ARC
8
DEFAULT_255_2_778
10
2.0563645
20
5.2095614
40
1.4182618
50
150.5888733
51
151.8690415
0
ARC
8
DEFAULT_255_2_778
10
1.9931196
20
5.2418932
40
1.3472443
50
151.813471
51
153.8279934
0
ARC
8
DEFAULT_255_2_778
10
1.6482041
20
5.4116233
40
0.9628291
50
153.8397323
51
155.6859469
0
ARC
8
DEFAULT_255_2_778
10
1.1309864
20
5.6376681
40
0.3984772
50
154.6847215
51
164.7842003
0
ARC
8
DEFAULT_255_2_778
10
0.8335431
20
5.719742
40
0.0899273
50
165.5049227
51
178.4798212
0
ARC
8
DEFAULT_255_2_778
10
0.7831858
20
5.7219986
40
0.0395385
50
179.8129425
51
185.9249024
0
ARC
8
DEFAULT_255_2_778
10
0.7700216
20
5.7244461
40
0.0269654
50
194.0115591
51
270.2232123
0
ARC
8
DEFAULT_255_2_778
10
0.7871762
20
5.7970463
40
0.1010148
50
260.2829643
51
270.4439313
0
ARC
8
DEFAULT_255_2_778
10
0.7854504
20
5.8836482
40
0.1876304
50
270.7660167
51
284.4142446
0
ARC
8
DEFAULT_255_2_778
10
0.8032798
20
5.8483077
40
0.1492047
50
281.1596458
51
316.2036947
0
ARC
8
DEFAULT_255_2_778
10
0.8765478
20
5.7729549
40
0.0443212
50
320.9683296
51
349.025349
0
ARC
8
DEFAULT_255_2_778
10
0.8713323
20
5.7728358
40
0.0494312
50
350.3118622
51
0.144455
0
ARC
8
DEFAULT_255_2_778
10
0.8320608
20
5.7690742
40
0.0887877
50
2.5086412
51
28.6897609
0
ARC
8
DEFAULT_255_2_778
10
0.6781903
20
5.6878239
40
0.2627861
50
28.1244588
51
42.2981009
0
ARC
8
DEFAULT_255_2_778
10
0.5026284
20
5.5373027
40
0.4939871
50
41.5073279
51
47.5285527
0
ARC
8
DEFAULT_255_2_778
10
0.5874376
20
5.6320365
40
0.3668477
50
47.3083426
51
49.7611529
0
ARC
8
DEFAULT_255_2_778
10
1.2801918
20
11.720639
40
6.5084208
50
266.714264
51
266.8111975
0
ARC
8
DEFAULT_255_2_778
10
0.9845031
20
6.3162446
40
1.0959597
50
266.5290971
51
269.712998
0
ARC
8
DEFAULT_255_2_778
10
0.9800604
20
5.8169805
40
0.5966827
50
269.8994609
51
273.3161558
0
ARC
8
DEFAULT_255_2_778
10
1.0172424
20
5.433961
40
0.2126808
50
269.2816169
51
304.8248287
0
ARC
8
DEFAULT_255_2_778
10
1.0802437
20
5.3273291
40
0.0896391
50
310.7004221
51
323.0274268
0
ARC
8
DEFAULT_255_2_778
10
1.4177973
20
5.0615236
40
0.3400329
50
130.3308447
51
141.4529995
0
ARC
8
DEFAULT_255_2_778
10
2.6406302
20
3.6891611
40
2.1780744
50
130.6550095
51
131.4882851
0
ARC
8
DEFAULT_255_2_778
10
1.0323591
20
5.5961293
40
0.3172167
50
306.6262708
51
328.7166764
0
ARC
8
DEFAULT_255_2_778
10
1.2354586
20
5.4646957
40
0.0757077
50
333.9161876
51
359.1838338
0
ARC
8
DEFAULT_255_2_778
10
1.1491852
20
5.4746433
40
0.1623482
50
356.1057107
51
38.4875666
0
ARC
8
DEFAULT_255_2_778
10
1.0488911
20
5.3863484
40
0.2958783
50
39.7840833
51
51.681227
0
ARC
8
DEFAULT_255_2_778
10
0.8771795
20
5.1833232
40
0.5617032
50
50.7797455
51
52.1603264
0
ARC
8
DEFAULT_255_2_778
10
1.1860924
20
5.5765359
40
0.0617281
50
54.7044868
51
81.5150394
0
ARC
8
DEFAULT_255_2_778
10
1.1681131
20
5.4831796
40
0.1567666
50
80.0500769
51
90.6041207
0
ARC
8
DEFAULT_255_2_778
10
1.1721798
20
5.2649452
40
0.3750359
50
90.8738477
51
100.4089058
0
ARC
8
DEFAULT_255_2_778
10
1.2547178
20
4.797206
40
0.8499964
50
100.184596
51
106.5951337
0
ARC
8
DEFAULT_255_2_778
10
1.3658886
20
4.4063891
40
1.256296
50
106.3634546
51
111.6338977
0
ARC
8
DEFAULT_255_2_778
10
1.3446712
20
4.4622346
40
1.1965623
50
111.675364
51
111.841685
0
ARC
8
DEFAULT_255_2_778
10
1.2132475
20
4.7808277
40
0.8519511
50
111.6090538
51
116.2030363
0
ARC
8
DEFAULT_255_2_778
10
0.9615267
20
5.2872903
40
0.2863956
50
115.7584192
51
123.6561127
0
ARC
8
DEFAULT_255_2_778
10
0.824499
20
5.4899337
40
0.0418145
50
121.2540452
51
144.4970068
0
ARC
8
DEFAULT_255_2_778
10
0.9721763
20
5.417882
40
0.2056741
50
152.0703014
51
159.018204
0
ARC
8
DEFAULT_255_2_778
10
1.2208393
20
5.3208418
40
0.4725991
50
158.8282501
51
165.7186786
0
ARC
8
DEFAULT_255_2_778
10
1.042897
20
5.3599637
40
0.2905667
50
164.5389296
51
176.8851131
0
ARC
8
DEFAULT_255_2_778
10
0.8655353
20
5.3736929
40
0.1127945
50
178.9536963
51
179.981268
0
ARC
8
DEFAULT_255_2_778
10
0.8024658
20
5.3715599
40
0.0497722
50
177.5013157
51
199.5346095
0
ARC
8
DEFAULT_255_2_778
10
1.1306593
20
5.5108636
40
0.4062263
50
202.5748639
51
210.0854567
0
ARC
8
DEFAULT_255_2_778
10
0.9252255
20
5.3868868
40
0.1663758
50
208.6070953
51
233.1122332
0
ARC
8
DEFAULT_255_2_778
10
0.9153436
20
5.389007
40
0.1623994
50
236.3514448
51
245.2341828
0
ARC
8
DEFAULT_255_2_778
10
0.9524978
20
5.4728677
40
0.2541153
50
245.5482772
51
258.4071628
0
ARC
8
DEFAULT_255_2_778
10
0.9298558
20
5.3603731
40
0.1393663
50
258.2319196
51
260.5020045
0
LINE
8
DEFAULT_255_2_778
10
0.8243585
20
5.9121173
11
0.8243585
21
5.9121173
0
LINE
8
DEFAULT_255_2_778
10
0.9068585
20
5.2229173
11
0.9071585
21
5.2229173
0
ARC
8
DEFAULT_255_2_778
10
1.1274401
20
5.5363585
40
0.1187041
50
309.1690217
51
313.5879529
0
ARC
8
DEFAULT_255_2_778
10
1.0968312
20
5.5699726
40
0.1641583
50
313.2370819
51
320.9922346
0
ARC
8
DEFAULT_255_2_778
10
1.1595422
20
5.5247123
40
0.0870465
50
318.1594877
51
355.9348033
0
ARC
8
DEFAULT_255_2_778
10
1.1959179
20
5.5186494
40
0.0504518
50
359.8773391
51
21.3955728
0
ARC
8
DEFAULT_255_2_778
10
1.181289
20
5.5112883
40
0.0667751
50
22.6974669
51
51.1085586
0
ARC
8
DEFAULT_255_2_778
10
1.14891
20
5.475542
40
0.1149599
50
49.7335634
51
57.7143869
0
ARC
8
DEFAULT_255_2_778
10
1.1390784
20
5.4652868
40
0.1289125
50
56.4547706
51
72.8580886
0
ARC
8
DEFAULT_255_2_778
10
1.156661
20
5.5201876
40
0.0712709
50
73.3565335
51
89.4686895
0
ARC
8
DEFAULT_255_2_778
10
1.1574181
20
5.538032
40
0.0534235
50
90.103256
51
145.3035622
0
ARC
8
DEFAULT_255_2_778
10
1.1790055
20
5.5199398
40
0.0815117
50
143.4848944
51
160.2634787
0
ARC
8
DEFAULT_255_2_778
10
1.1388683
20
5.534351
40
0.0388657
50
160.2789373
51
163.439487
0
LINE
8
DEFAULT_255_2_778
10
1.1090148
20
5.5105288
11
1.2024148
21
5.4443288
0
LINE
8
DEFAULT_255_2_778
10
1.1016148
20
5.5454288
11
1.1090148
21
5.5105288
0
ARC
8
DEFAULT_255_2_778
10
0.676751
20
5.2246559
40
0.1224211
50
60.9335522
51
73.9773459
0
ARC
8
DEFAULT_255_2_778
10
-1.4471826
20
1.2520002
40
4.62719
50
61.7536396
51
61.8445794
0
ARC
8
DEFAULT_255_2_778
10
0.7876652
20
5.4046742
40
0.0887249
50
239.5484595
51
268.8575108
0
ARC
8
DEFAULT_255_2_778
10
0.7902924
20
5.4458066
40
0.1299141
50
268.0607278
51
270.0191151
0
ARC
8
DEFAULT_255_2_778
10
0.787048
20
5.5385439
40
0.2226756
50
270.8459883
51
280.7797641
0
ARC
8
DEFAULT_255_2_778
10
0.7320675
20
5.8498284
40
0.5387665
50
280.3319762
51
284.9593633
0
ARC
8
DEFAULT_255_2_778
10
0.7678812
20
5.7176507
40
0.4018239
50
284.8908683
51
292.5585897
0
ARC
8
DEFAULT_255_2_778
10
0.7252127
20
5.8264501
40
0.518673
50
292.3006886
51
323.4917705
0
ARC
8
DEFAULT_255_2_778
10
0.9093416
20
5.674168
40
0.2803719
50
326.1196146
51
327.3177399
0
ARC
8
DEFAULT_255_2_778
10
0.9570984
20
5.6450419
40
0.2244522
50
326.9928026
51
337.0220933
0
ARC
8
DEFAULT_255_2_778
10
1.1074964
20
5.5806342
40
0.0608469
50
337.5734451
51
0.3679444
0
ARC
8
DEFAULT_255_2_778
10
1.0699166
20
5.5777533
40
0.0984798
50
1.9037923
51
29.1910957
0
ARC
8
DEFAULT_255_2_778
10
1.0100167
20
5.5498132
40
0.1644702
50
27.5107152
51
31.760436
0
ARC
8
DEFAULT_255_2_778
10
0.8904287
20
5.4636256
40
0.3116885
50
33.660449
51
54.1921994
0
ARC
8
DEFAULT_255_2_778
10
0.8129549
20
5.3716249
40
0.4317209
50
52.9972239
51
62.4635628
0
ARC
8
DEFAULT_255_2_778
10
0.8730844
20
5.4935943
40
0.295786
50
61.868852
51
76.124252
0
ARC
8
DEFAULT_255_2_778
10
0.9106333
20
5.6413119
40
0.1433779
50
76.5350321
51
89.2676096
0
ARC
8
DEFAULT_255_2_778
10
0.9117919
20
5.7028169
40
0.081864
50
89.5281807
51
102.2362101
0
ARC
8
DEFAULT_255_2_778
10
1.0260369
20
5.2336973
40
0.5646719
50
103.4765673
51
111.2440745
0
ARC
8
DEFAULT_255_2_778
10
1.1412709
20
4.9182317
40
0.9004807
50
110.8048488
51
113.7069816
0
ARC
8
DEFAULT_255_2_778
10
1.1159404
20
4.9659237
40
0.8466385
50
113.4350671
51
121.7150917
0
ARC
8
DEFAULT_255_2_778
10
0.8573964
20
5.3824752
40
0.3563753
50
121.5612421
51
130.8790099
0
ARC
8
DEFAULT_255_2_778
10
0.7119116
20
5.5517501
40
0.1331755
50
131.2163646
51
141.1873335
0
ARC
8
DEFAULT_255_2_778
10
0.7661305
20
5.5230093
40
0.1937836
50
144.6157028
51
172.724501
0
ARC
8
DEFAULT_255_2_778
10
0.816368
20
5.5100272
40
0.2453473
50
171.2027594
51
179.8808017
0
ARC
8
DEFAULT_255_2_778
10
0.7119227
20
5.5056816
40
0.140985
50
178.0261615
51
203.0166611
0
ARC
8
DEFAULT_255_2_778
10
0.6360875
20
5.4768949
40
0.0600145
50
206.0314824
51
213.6712522
0
ARC
8
DEFAULT_255_2_778
10
0.7238031
20
5.5445381
40
0.1706897
50
216.2443399
51
229.392063
0
ARC
8
DEFAULT_255_2_778
10
0.8779615
20
5.7096967
40
0.3965281
50
228.01408
51
229.5541968
0
ARC
8
DEFAULT_255_2_778
10
1.0035056
20
5.8589299
40
0.5915429
50
229.6772262
51
232.7225049
0
ARC
8
DEFAULT_255_2_778
10
1.2496197
20
6.1832512
40
0.9986745
50
232.7567993
51
235.9280786
0
ARC
8
DEFAULT_255_2_778
10
1.2381749
20
6.1625658
40
0.9751306
50
235.8041925
51
237.1395584
0
ARC
8
DEFAULT_255_2_778
10
0.8740374
20
5.5993291
40
0.3044358
50
237.1893117
51
237.5172541
0
ARC
8
DEFAULT_255_2_778
10
1.2787668
20
6.1657304
40
0.1774173
50
212.9061251
51
214.6643363
0
ARC
8
DEFAULT_255_2_778
10
1.752325
20
6.4445012
40
0.726816
50
205.6444139
51
211.075201
0
ARC
8
DEFAULT_255_2_778
10
0.8450564
20
6.0202693
40
0.2748747
50
23.5161319
51
42.7571616
0
ARC
8
DEFAULT_255_2_778
10
1.0060602
20
6.1607821
40
0.0615731
50
48.474955
51
57.1705623
0
ARC
8
DEFAULT_255_2_778
10
1.4502201
20
6.8341736
40
0.7451113
50
233.3505596
51
236.5438605
0
ARC
8
DEFAULT_255_2_778
10
4.7283816
20
11.2941544
40
6.2802399
50
232.9413612
51
233.643984
0
ARC
8
DEFAULT_255_2_778
10
-1.9417765
20
2.4737332
40
4.7782819
50
52.8529585
51
53.9486538
0
ARC
8
DEFAULT_255_2_778
10
0.5506278
20
5.8978232
40
0.5431347
50
53.9457486
51
56.8235684
0
ARC
8
DEFAULT_255_2_778
10
1.0121698
20
6.6075167
40
0.3034428
50
236.6377638
51
237.211028
0
ARC
8
DEFAULT_255_2_778
10
-1.1276268
20
3.4320216
40
3.5257402
50
55.9734312
51
56.6119774
0
ARC
8
DEFAULT_255_2_778
10
0.4399385
20
5.8033724
40
0.6831203
50
56.9382337
51
59.7433229
0
ARC
8
DEFAULT_255_2_778
10
0.6155014
20
6.125738
40
0.3163906
50
57.7899141
51
82.8759678
0
ARC
8
DEFAULT_255_2_778
10
0.6420772
20
6.2691506
40
0.1710051
50
85.7535983
51
89.9659357
0
ARC
8
DEFAULT_255_2_778
10
0.6414657
20
6.2960209
40
0.1441366
50
89.7165128
51
104.8844055
0
ARC
8
DEFAULT_255_2_778
10
0.6263769
20
6.242045
40
0.194517
50
96.4749642
51
176.0493235
0
ARC
8
DEFAULT_255_2_778
10
0.6557488
20
6.2502511
40
0.2234872
50
178.6678665
51
180.001423
0
ARC
8
DEFAULT_255_2_778
10
0.6812079
20
6.2506346
40
0.2489466
50
180.0895271
51
185.8128944
0
ARC
8
DEFAULT_255_2_778
10
0.6431556
20
6.240959
40
0.2101893
50
184.2393237
51
207.8671706
0
ARC
8
DEFAULT_255_2_778
10
0.6161531
20
6.2350387
40
0.1836995
50
210.1720825
51
237.1073667
0
ARC
8
DEFAULT_255_2_778
10
1.4082146
20
7.3777616
40
1.5740037
50
235.4868773
51
236.5939707
0
ARC
8
DEFAULT_255_2_778
10
0.4264988
20
5.8837441
40
0.2137103
50
46.5612661
51
57.4070559
0
ARC
8
DEFAULT_255_2_778
10
4.746869
20
10.2178118
40
5.9059821
50
225.0374753
51
225.6448505
0
ARC
8
DEFAULT_255_2_778
10
2.0158639
20
7.4310245
40
2.0041219
50
225.7726409
51
226.4033427
0
ARC
8
DEFAULT_255_2_778
10
1.0931444
20
6.4450341
40
0.6538735
50
225.3805335
51
233.5008246
0
ARC
8
DEFAULT_255_2_778
10
0.7933374
20
6.0471318
40
0.1557453
50
235.093117
51
240.2446334
0
ARC
8
DEFAULT_255_2_778
10
1.033392
20
6.4845525
40
0.6546893
50
241.0049064
51
244.7674179
0
ARC
8
DEFAULT_255_2_778
10
1.1423581
20
6.7084318
40
0.9036641
50
244.5689147
51
246.9057595
0
ARC
8
DEFAULT_255_2_778
10
1.0821859
20
6.560701
40
0.7441748
50
246.70585
51
252.9942058
0
ARC
8
DEFAULT_255_2_778
10
0.9766444
20
6.2074246
40
0.3754855
50
252.6286688
51
263.4083286
0
ARC
8
DEFAULT_255_2_778
10
0.9463805
20
6.036429
40
0.2024154
50
266.3633225
51
269.9980382
0
ARC
8
DEFAULT_255_2_778
10
0.9464065
20
6.035264
40
0.2012503
50
269.9906052
51
326.8185553
0
ARC
8
DEFAULT_255_2_778
10
0.978269
20
5.9971697
40
0.1544118
50
332.1861844
51
353.5077726
0
ARC
8
DEFAULT_255_2_778
10
0.8003079
20
6.0247286
40
0.3344264
50
352.2637796
51
0.2527182
0
ARC
8
DEFAULT_255_2_778
10
0.7197279
20
6.0261527
40
0.4150033
50
0.0070413
51
3.6815154
0
ARC
8
DEFAULT_255_2_778
10
0.7282611
20
6.0264669
40
0.4064676
50
3.7145523
51
3.9021502
0
ARC
8
DEFAULT_255_2_778
10
0.845224
20
6.0349623
40
0.289198
50
3.7999161
51
5.8373047
0
ARC
8
DEFAULT_255_2_778
10
1.0487346
20
6.0555913
40
0.0846449
50
5.9563077
51
6.4644592
0
LINE
8
DEFAULT_255_2_778
10
0.7105414
20
5.3425212
11
0.7105414
21
5.3423212
0
LINE
8
DEFAULT_255_2_778
10
1.1328414
20
6.0651212
11
1.1328414
21
6.0648212
0
ARC
8
DEFAULT_255_2_778
10
0.9100594
20
6.0979942
40
0.1835311
50
250.1727999
51
252.5624281
0
ARC
8
DEFAULT_255_2_778
10
0.9567591
20
6.2440094
40
0.3368312
50
252.4267435
51
256.452962
0
ARC
8
DEFAULT_255_2_778
10
0.9523738
20
6.2191394
40
0.31163
50
256.1656986
51
266.4034247
0
ARC
8
DEFAULT_255_2_778
10
0.9458806
20
6.1398746
40
0.2321188
50
266.7756798
51
269.9638385
0
ARC
8
DEFAULT_255_2_778
10
0.9458289
20
6.1127623
40
0.2050064
50
269.973513
51
272.7751364
0
ARC
8
DEFAULT_255_2_778
10
0.9586033
20
6.0152449
40
0.1072864
50
268.4784841
51
323.3766051
0
ARC
8
DEFAULT_255_2_778
10
0.941348
20
6.0221287
40
0.1253324
50
325.5572545
51
346.7213565
0
ARC
8
DEFAULT_255_2_778
10
0.964802
20
6.0155049
40
0.1009894
50
347.3225533
51
359.9594108
0
ARC
8
DEFAULT_255_2_778
10
0.9289053
20
6.0075535
40
0.1371129
50
3.2945696
51
46.7801511
0
ARC
8
DEFAULT_255_2_778
10
0.8458197
20
5.936753
40
0.2459004
50
43.9683127
51
53.9014326
0
ARC
8
DEFAULT_255_2_778
10
0.8868882
20
5.9944773
40
0.1750643
50
53.6310178
51
57.8661471
0
ARC
8
DEFAULT_255_2_778
10
0.9642842
20
6.1172237
40
0.0299557
50
58.3459528
51
58.7855857
0
LINE
8
DEFAULT_255_2_778
10
0.9798085
20
6.1428429
11
0.8478085
21
5.9253429
0
LINE
8
DEFAULT_255_2_778
10
0.9798085
20
6.1428429
11
0.9798085
21
6.1428429
0
ARC
8
DEFAULT_255_2_778
10
1.405953
20
6.0103937
40
0.2634719
50
108.2755114
51
121.1570028
0
ARC
8
DEFAULT_255_2_778
10
1.6605313
20
5.573145
40
0.7694091
50
120.5337096
51
127.3698599
0
ARC
8
DEFAULT_255_2_778
10
2.0402906
20
5.0658342
40
1.4030975
50
127.1204136
51
131.5662955
0
ARC
8
DEFAULT_255_2_778
10
2.2035624
20
4.8758295
40
1.6535899
50
131.4309067
51
137.4697817
0
ARC
8
DEFAULT_255_2_778
10
1.7836361
20
5.2565671
40
1.0867719
50
137.2964424
51
143.7314094
0
ARC
8
DEFAULT_255_2_778
10
1.3123943
20
5.600534
40
0.503353
50
143.5664828
51
152.4415273
0
ARC
8
DEFAULT_255_2_778
10
1.0976334
20
5.7156845
40
0.2596987
50
153.0428578
51
157.8317438
0
ARC
8
DEFAULT_255_2_778
10
1.2604689
20
5.6456632
40
0.4369316
50
157.3855106
51
171.9060005
0
ARC
8
DEFAULT_255_2_778
10
1.1220307
20
5.6682242
40
0.2967096
50
172.4552809
51
179.8582645
0
ARC
8
DEFAULT_255_2_778
10
0.9945472
20
5.6577366
40
0.1695968
50
176.2061904
51
249.3118095
0
ARC
8
DEFAULT_255_2_778
10
0.9959704
20
5.657583
40
0.1699614
50
248.844674
51
270.6596151
0
ARC
8
DEFAULT_255_2_778
10
0.9963554
20
5.7325442
40
0.2449164
50
270.3676704
51
282.9708924
0
ARC
8
DEFAULT_255_2_778
10
0.958786
20
5.8700435
40
0.3873824
50
283.8211155
51
317.0729069
0
ARC
8
DEFAULT_255_2_778
10
1.0531769
20
5.7748387
40
0.2534845
50
318.2990921
51
320.4368163
0
ARC
8
DEFAULT_255_2_778
10
1.1042378
20
5.7344576
40
0.1884058
50
320.0136486
51
330.8814498
0
ARC
8
DEFAULT_255_2_778
10
0.9094207
20
5.8330406
40
0.4066656
50
332.1042
51
337.8843042
0
ARC
8
DEFAULT_255_2_778
10
0.1849683
20
6.1315655
40
1.1902109
50
337.7003801
51
340.9727203
0
ARC
8
DEFAULT_255_2_778
10
-1.0645557
20
6.5689028
40
2.5140525
50
340.8342691
51
342.4542771
0
ARC
8
DEFAULT_255_2_778
10
-2.9053319
20
7.1495144
40
4.444225
50
342.4714659
51
344.0692364
0
ARC
8
DEFAULT_255_2_778
10
-3.6602489
20
7.3701641
40
5.2307141
50
344.0148053
51
344.6259939
0
ARC
8
DEFAULT_255_2_778
10
-1.7235845
20
6.8387136
40
3.2224545
50
344.6079829
51
344.984188
0
ARC
8
DEFAULT_255_2_778
10
2.1598852
20
5.7979633
40
0.7980556
50
165.0252146
51
165.0515157
0
ARC
8
DEFAULT_255_2_778
10
1.0816916
20
5.7145631
40
0.1302042
50
323.7288903
51
330.5144522
0
ARC
8
DEFAULT_255_2_778
10
1.0311721
20
5.7496546
40
0.1917014
50
312.567499
51
324.2058649
0
ARC
8
DEFAULT_255_2_778
10
1.053554
20
5.7225108
40
0.1565813
50
282.0023879
51
313.254677
0
ARC
8
DEFAULT_255_2_778
10
1.0574234
20
5.7118606
40
0.1453679
50
277.314791
51
281.3835208
0
ARC
8
DEFAULT_255_2_778
10
1.0585788
20
5.7025312
40
0.135967
50
269.936393
51
277.3324151
0
ARC
8
DEFAULT_255_2_778
10
1.0584645
20
5.71374
40
0.1471758
50
266.5793597
51
269.9857267
0
ARC
8
DEFAULT_255_2_778
10
1.0617549
20
5.746508
40
0.1800867
50
213.116306
51
266.1563985
0
ARC
8
DEFAULT_255_2_778
10
0.9843105
20
5.6876176
40
0.0833435
50
201.785094
51
208.289104
0
ARC
8
DEFAULT_255_2_778
10
0.9636697
20
5.6799773
40
0.0613439
50
183.3655819
51
202.3134582
0
ARC
8
DEFAULT_255_2_778
10
1.0296299
20
5.6826492
40
0.1273528
50
179.988107
51
182.8234561
0
ARC
8
DEFAULT_255_2_778
10
1.0859687
20
5.6780586
40
0.1837494
50
156.2316427
51
178.5601774
0
ARC
8
DEFAULT_255_2_778
10
1.1286227
20
5.6637921
40
0.228573
50
149.6899408
51
157.2681665
0
ARC
8
DEFAULT_255_2_778
10
1.0183633
20
5.7281237
40
0.1009184
50
147.4132425
51
149.6287896
0
ARC
8
DEFAULT_255_2_778
10
1.5121074
20
5.9148336
40
0.2102685
50
211.2423093
51
222.1302024
0
ARC
8
DEFAULT_255_2_778
10
1.8588699
20
6.2160645
40
0.6695698
50
221.3416568
51
227.9522666
0
ARC
8
DEFAULT_255_2_778
10
1.8980694
20
6.252109
40
0.7226068
50
227.5583299
51
234.4888327
0
ARC
8
DEFAULT_255_2_778
10
1.6817339
20
5.9413354
40
0.3440036
50
233.7528272
51
246.9293036
0
ARC
8
DEFAULT_255_2_778
10
1.5929186
20
5.7353771
40
0.1197177
50
247.4097378
51
262.9050295
0
ARC
8
DEFAULT_255_2_778
10
1.4860366
20
5.5231938
40
0.267882
50
284.9473323
51
309.5452909
0
ARC
8
DEFAULT_255_2_778
10
-0.6398859
20
8.3114304
40
3.7739479
50
307.4817425
51
307.9199603
0
LINE
8
DEFAULT_255_2_778
10
0.9333317
20
5.782476
11
1.1950317
21
5.650476
0
LINE
8
DEFAULT_255_2_778
10
0.9333317
20
5.782476
11
0.9333317
21
5.782476
0
ARC
8
DEFAULT_255_2_778
10
4.9265995
20
5.9791677
40
0.0988851
50
89.8175181
51
180.0668497
0
ARC
8
DEFAULT_255_2_778
10
4.9272001
20
5.9793379
40
0.0987148
50
359.8342399
51
90.1657601
0
ARC
8
DEFAULT_255_2_778
10
4.9270941
20
5.9789726
40
0.0988204
50
269.895865
51
0.0462022
0
ARC
8
DEFAULT_255_2_778
10
4.9267055
20
5.9791432
40
0.0989911
50
180.0526239
51
270.1209528
0
LINE
8
DEFAULT_255_2_778
10
4.8277145
20
5.9790523
11
4.8277145
21
5.9790523
0
ARC
8
DEFAULT_255_2_778
10
4.9262421
20
5.9795579
40
0.0776314
50
89.8754394
51
180.1245024
0
ARC
8
DEFAULT_255_2_778
10
4.9265795
20
5.979558
40
0.0776314
50
359.875413
51
90.1245133
0
ARC
8
DEFAULT_255_2_778
10
4.9265797
20
5.9792204
40
0.0776313
50
269.8753351
51
0.1245761
0
ARC
8
DEFAULT_255_2_778
10
4.9262422
20
5.9792204
40
0.0776314
50
179.8754502
51
270.1244765
0
LINE
8
DEFAULT_255_2_778
10
4.8486108
20
5.9793892
11
4.8486108
21
5.9793892
0
ARC
8
DEFAULT_255_2_778
10
4.8955895
20
5.4196105
40
0.0988419
50
89.9082893
51
180.0917107
0
ARC
8
DEFAULT_255_2_778
10
4.8958274
20
5.4196319
40
0.0988204
50
359.895865
51
90.0462022
0
ARC
8
DEFAULT_255_2_778
10
4.8958489
20
5.4193513
40
0.0987989
50
269.9413377
51
0.0585924
0
ARC
8
DEFAULT_255_2_778
10
4.8955683
20
5.4193726
40
0.0988205
50
179.9538182
51
270.1040277
0
LINE
8
DEFAULT_255_2_778
10
4.7967477
20
5.4194523
11
4.7967477
21
5.4194523
0
ARC
8
DEFAULT_255_2_778
10
4.8950461
20
5.4201579
40
0.0776314
50
89.8754394
51
180.1245024
0
ARC
8
DEFAULT_255_2_778
10
4.8953836
20
5.420158
40
0.0776314
50
359.875413
51
90.1245133
0
ARC
8
DEFAULT_255_2_778
10
4.8953838
20
5.4198204
40
0.0776313
50
269.8753351
51
0.1245761
0
ARC
8
DEFAULT_255_2_778
10
4.8950462
20
5.4198204
40
0.0776314
50
179.8754502
51
270.1244765
0
LINE
8
DEFAULT_255_2_778
10
4.8174149
20
5.4199892
11
4.8174149
21
5.4199892
0
ARC
8
DEFAULT_255_2_778
10
4.8646363
20
4.8598345
40
0.0990552
50
89.9161822
51
180.0838178
0
ARC
8
DEFAULT_255_2_778
10
4.865117
20
4.8600253
40
0.0988648
50
359.8054345
51
90.1945657
0
ARC
8
DEFAULT_255_2_778
10
4.86535
20
4.8593201
40
0.0986319
50
269.6696019
51
0.2146391
0
ARC
8
DEFAULT_255_2_778
10
4.8644663
20
4.8595742
40
0.0988851
50
179.9331503
51
270.1824819
0
LINE
8
DEFAULT_255_2_778
10
4.7655813
20
4.8596896
11
4.7655813
21
4.8596896
0
ARC
8
DEFAULT_255_2_778
10
4.8640461
20
4.8605579
40
0.0776314
50
89.8754394
51
180.1245024
0
ARC
8
DEFAULT_255_2_778
10
4.8643836
20
4.860558
40
0.0776314
50
359.875413
51
90.1245133
0
ARC
8
DEFAULT_255_2_778
10
4.8643838
20
4.8602204
40
0.0776313
50
269.8753351
51
0.1245761
0
ARC
8
DEFAULT_255_2_778
10
4.8640462
20
4.8602204
40
0.0776314
50
179.8754502
51
270.1244765
0
LINE
8
DEFAULT_255_2_778
10
4.7864149
20
4.8603892
11
4.7864149
21
4.8603892
0
ARC
8
DEFAULT_255_2_778
10
4.0832147
20
8.135856
40
0.1132831
50
103.3904751
51
110.902424
0
ARC
8
DEFAULT_255_2_778
10
4.0773531
20
8.1504279
40
0.0975792
50
110.7398241
51
115.0515033
0
ARC
8
DEFAULT_255_2_778
10
4.0445203
20
8.2100241
40
0.0300273
50
106.4147982
51
168.5569173
0
ARC
8
DEFAULT_255_2_778
10
4.0315262
20
8.2160189
40
0.0164364
50
180.130993
51
192.5072674
0
ARC
8
DEFAULT_255_2_778
10
4.1423351
20
8.2560883
40
0.1341481
50
198.9794493
51
215.6670558
0
ARC
8
DEFAULT_255_2_778
10
3.9473462
20
8.1182824
40
0.1046298
50
2.9998748
51
34.715889
0
ARC
8
DEFAULT_255_2_778
10
3.9793613
20
8.1237631
40
0.0724715
50
356.2786686
51
359.9960458
0
ARC
8
DEFAULT_255_2_778
10
7.3669857
20
7.9099366
40
3.3218948
50
176.3906797
51
176.5483158
0
ARC
8
DEFAULT_255_2_778
10
4.7684631
20
8.063648
40
0.718838
50
176.3079082
51
179.755717
0
ARC
8
DEFAULT_255_2_778
10
4.4486464
20
8.0649727
40
0.3990186
50
179.7501301
51
186.2736508
0
ARC
8
DEFAULT_255_2_778
10
4.2420054
20
8.0374118
40
0.190664
50
184.8266399
51
208.8340568
0
ARC
8
DEFAULT_255_2_778
10
4.4391418
20
8.1728575
40
0.4293295
50
211.9824035
51
220.7145556
0
ARC
8
DEFAULT_255_2_778
10
4.6610717
20
8.354018
40
0.7157536
50
220.1182646
51
220.2099801
0
ARC
8
DEFAULT_255_2_778
10
4.6450164
20
8.3413502
40
0.6953143
50
220.2669155
51
224.9093049
0
ARC
8
DEFAULT_255_2_778
10
4.4575947
20
8.1467694
40
0.4252416
50
224.1695983
51
233.8912684
0
ARC
8
DEFAULT_255_2_778
10
4.2831961
20
7.9115629
40
0.1324615
50
234.8796324
51
241.4945713
0
ARC
8
DEFAULT_255_2_778
10
4.2465185
20
7.8407809
40
0.052779
50
239.8128896
51
266.8554663
0
ARC
8
DEFAULT_255_2_778
10
4.2440797
20
7.8206289
40
0.0325508
50
269.1966557
51
269.9975797
0
ARC
8
DEFAULT_255_2_778
10
4.244673
20
7.8136044
40
0.0255332
50
268.6653154
51
318.7486345
0
ARC
8
DEFAULT_255_2_778
10
4.2431219
20
7.8154144
40
0.0278948
50
318.0543659
51
339.0915258
0
ARC
8
DEFAULT_255_2_778
10
4.5602997
20
7.4701342
40
0.2562296
50
197.3886774
51
210.8379657
0
ARC
8
DEFAULT_255_2_778
10
4.8482742
20
7.630022
40
0.5855421
50
209.8265096
51
220.8791842
0
ARC
8
DEFAULT_255_2_778
10
4.8471919
20
7.6259023
40
0.5820324
50
220.6422747
51
229.4336545
0
ARC
8
DEFAULT_255_2_778
10
3.613682
20
6.2011418
40
1.3025201
50
45.1331194
51
48.9727306
0
ARC
8
DEFAULT_255_2_778
10
0.6593773
20
3.2058871
40
5.5095834
50
44.2259258
51
45.3325948
0
ARC
8
DEFAULT_255_2_778
10
-27.3642296
20
-24.2380155
40
44.733155
50
44.3732131
51
44.3796208
0
ARC
8
DEFAULT_255_2_778
10
8.232453
20
10.5433916
40
5.0351002
50
224.0083784
51
225.7521937
0
ARC
8
DEFAULT_255_2_778
10
5.2238378
20
7.4513587
40
0.7208917
50
225.5654971
51
231.3795385
0
ARC
8
DEFAULT_255_2_778
10
4.9333703
20
7.0954326
40
0.2615536
50
232.4282823
51
233.2509316
0
ARC
8
DEFAULT_255_2_778
10
4.908737
20
7.0774029
40
0.2325408
50
235.4567602
51
252.261339
0
ARC
8
DEFAULT_255_2_778
10
4.9953838
20
7.3238294
40
0.4937065
50
251.3970613
51
269.2267356
0
ARC
8
DEFAULT_255_2_778
10
4.9939263
20
7.2817378
40
0.4515998
50
269.3395558
51
269.9955306
0
ARC
8
DEFAULT_255_2_778
10
5.0060414
20
7.1090592
40
0.2791858
50
267.5056767
51
301.8054104
0
ARC
8
DEFAULT_255_2_778
10
5.0612156
20
7.0031552
40
0.1603538
50
304.9963461
51
315.6489623
0
ARC
8
DEFAULT_255_2_778
10
6.2233244
20
6.7540952
40
0.8737875
50
142.7587501
51
144.7128988
0
ARC
8
DEFAULT_255_2_778
10
3.4334789
20
8.8639813
40
2.6240523
50
322.9480348
51
323.7740522
0
ARC
8
DEFAULT_255_2_778
10
4.7762051
20
7.8780518
40
0.9582305
50
323.883468
51
325.1146687
0
ARC
8
DEFAULT_255_2_778
10
5.3413757
20
7.4949161
40
0.2756385
50
323.2527303
51
337.1370437
0
ARC
8
DEFAULT_255_2_778
10
5.553828
20
7.4037024
40
0.0444635
50
339.0754214
51
357.7951134
0
ARC
8
DEFAULT_255_2_778
10
5.5768133
20
7.4020224
40
0.0214453
50
359.9182369
51
4.9140425
0
ARC
8
DEFAULT_255_2_778
10
5.5912309
20
7.7986324
40
0.0200099
50
252.3980114
51
270.9662337
0
ARC
8
DEFAULT_255_2_778
10
5.5859455
20
7.8504871
40
0.0720813
50
274.4740069
51
298.7065714
0
ARC
8
DEFAULT_255_2_778
10
5.5486216
20
7.9324946
40
0.1620735
50
296.3536987
51
307.1413961
0
ARC
8
DEFAULT_255_2_778
10
5.5722807
20
7.9010179
40
0.1226972
50
307.2092769
51
310.8162092
0
ARC
8
DEFAULT_255_2_778
10
5.4677041
20
8.0088143
40
0.2727719
50
312.6408328
51
317.5183469
0
ARC
8
DEFAULT_255_2_778
10
5.0103616
20
8.4392547
40
0.9007997
50
316.9726731
51
320.9192955
0
ARC
8
DEFAULT_255_2_778
10
5.0336953
20
8.4209074
40
0.8711205
50
320.8885359
51
321.5706097
0
ARC
8
DEFAULT_255_2_778
10
5.1726951
20
8.3124974
40
0.6948509
50
321.4494334
51
325.3064173
0
ARC
8
DEFAULT_255_2_778
10
5.5159506
20
8.0822712
40
0.2816473
50
324.0688613
51
338.1598976
0
ARC
8
DEFAULT_255_2_778
10
5.7110345
20
8.0031213
40
0.071126
50
338.8803258
51
358.0043391
0
ARC
8
DEFAULT_255_2_778
10
5.7430759
20
8.0006509
40
0.0390413
50
359.9905224
51
2.5081529
0
ARC
8
DEFAULT_255_2_778
10
5.3067147
20
7.9719934
40
0.4763341
50
3.6550523
51
8.7892014
0
ARC
8
DEFAULT_255_2_778
10
2.645494
20
7.5853566
40
3.1654776
50
8.3450759
51
9.3387643
0
LINE
8
DEFAULT_255_2_778
10
5.7690168
20
8.0990232
11
5.7687693
21
8.1005599
0
ARC
8
DEFAULT_255_2_778
10
7.2992235
20
8.3624106
40
1.5526931
50
186.7226776
51
189.7089252
0
ARC
8
DEFAULT_255_2_778
10
5.9831115
20
8.2059063
40
0.2273132
50
180.8051764
51
186.3800792
0
ARC
8
DEFAULT_255_2_778
10
5.7943246
20
8.2045589
40
0.0385482
50
164.1801447
51
182.7462617
0
ARC
8
DEFAULT_255_2_778
10
5.7624156
20
8.2134198
40
0.0054349
50
131.9881063
51
162.3506762
0
ARC
8
DEFAULT_255_2_778
10
5.7396907
20
8.2407737
40
0.0301323
50
309.3097193
51
321.0885779
0
ARC
8
DEFAULT_255_2_778
10
5.7063914
20
8.2663562
40
0.072119
50
321.8907975
51
345.7135078
0
ARC
8
DEFAULT_255_2_778
10
5.7297175
20
8.2607064
40
0.0481207
50
345.3787936
51
359.3036364
0
ARC
8
DEFAULT_255_2_778
10
5.7583292
20
8.2619814
40
0.019594
50
354.5534357
51
64.4506306
0
ARC
8
DEFAULT_255_2_778
10
5.7629633
20
8.2702129
40
0.0101883
50
68.0002927
51
91.8003805
0
ARC
8
DEFAULT_255_2_778
10
5.771198
20
8.2086521
40
0.0722523
50
96.7998652
51
118.6962798
0
ARC
8
DEFAULT_255_2_778
10
5.955528
20
7.8282368
40
0.4948975
50
116.2674856
51
122.706492
0
ARC
8
DEFAULT_255_2_778
10
6.2562609
20
7.3393137
40
1.0688563
50
122.1098077
51
123.1085369
0
ARC
8
DEFAULT_255_2_778
10
6.5278297
20
6.9263987
40
1.5630688
50
123.1793188
51
125.2311751
0
ARC
8
DEFAULT_255_2_778
10
6.4814732
20
6.9885811
40
1.4855357
50
125.1542722
51
126.0339267
0
ARC
8
DEFAULT_255_2_778
10
5.9073052
20
7.7784844
40
0.5090031
50
126.0744576
51
126.2705084
0
ARC
8
DEFAULT_255_2_778
10
4.8784509
20
8.128433
40
0.7302334
50
4.7466161
51
5.97075
0
ARC
8
DEFAULT_255_2_778
10
4.1903834
20
8.0580973
40
1.4218854
50
5.9055059
51
7.8503522
0
ARC
8
DEFAULT_255_2_778
10
4.1162003
20
8.0497495
40
1.4965145
50
7.7790317
51
11.666381
0
ARC
8
DEFAULT_255_2_778
10
4.4423346
20
8.1170751
40
1.1635036
50
11.6670572
51
15.2078129
0
ARC
8
DEFAULT_255_2_778
10
4.9956708
20
8.2806702
40
0.5867683
50
13.9661883
51
30.4240454
0
ARC
8
DEFAULT_255_2_778
10
5.3288481
20
8.4738329
40
0.2016637
50
31.0363684
51
52.7978163
0
ARC
8
DEFAULT_255_2_778
10
5.3561749
20
8.4871883
40
0.1750397
50
57.2838704
51
73.018618
0
ARC
8
DEFAULT_255_2_778
10
5.1920222
20
8.0000922
40
0.6889983
50
71.7932835
51
77.8753982
0
ARC
8
DEFAULT_255_2_778
10
4.9716082
20
7.0062931
40
1.7069376
50
77.6484445
51
81.0908249
0
ARC
8
DEFAULT_255_2_778
10
4.7102995
20
5.3537069
40
3.3800548
50
81.0531541
51
83.7939891
0
ARC
8
DEFAULT_255_2_778
10
4.5033555
20
3.4913569
40
5.253864
50
83.7459575
51
86.2775732
0
ARC
8
DEFAULT_255_2_778
10
4.4911095
20
3.3977523
40
5.3480698
50
86.2117592
51
88.360755
0
ARC
8
DEFAULT_255_2_778
10
4.5288194
20
4.6984828
40
4.0467928
50
88.3676272
51
89.9545793
0
ARC
8
DEFAULT_255_2_778
10
4.5272506
20
6.1146705
40
2.6306082
50
89.8959593
51
92.3470122
0
ARC
8
DEFAULT_255_2_778
10
4.4752748
20
7.3555825
40
1.3886092
50
92.3010103
51
95.5833954
0
ARC
8
DEFAULT_255_2_778
10
4.3966482
20
8.1395193
40
0.6007451
50
95.394472
51
101.042265
0
ARC
8
DEFAULT_255_2_778
10
4.3144873
20
8.5486544
40
0.1834624
50
100.3311801
51
112.6851164
0
ARC
8
DEFAULT_255_2_778
10
4.2582702
20
8.6807904
40
0.0398779
50
111.380948
51
138.9871273
0
ARC
8
DEFAULT_255_2_778
10
4.3681356
20
8.6118838
40
0.1691951
50
145.8107101
51
162.5537916
0
ARC
8
DEFAULT_255_2_778
10
4.845821
20
8.4506359
40
0.6733338
50
161.6504685
51
169.198205
0
ARC
8
DEFAULT_255_2_778
10
5.883081
20
8.2408064
40
1.7315795
50
168.8105146
51
172.3232337
0
ARC
8
DEFAULT_255_2_778
10
7.3370709
20
8.0409986
40
3.1992312
50
172.2554168
51
174.6684437
0
ARC
8
DEFAULT_255_2_778
10
8.1127259
20
7.9634171
40
3.9787427
50
174.5939531
51
175.6771472
0
ARC
8
DEFAULT_255_2_778
10
7.411844
20
8.0159783
40
3.2758929
50
175.6698295
51
176.1952977
0
ARC
8
DEFAULT_255_2_778
10
5.7312783
20
8.1271149
40
1.5916566
50
176.1728506
51
176.5657733
0
LINE
8
DEFAULT_255_2_778
10
4.1424799
20
8.2227594
11
4.0569799
21
8.2460594
0
LINE
8
DEFAULT_255_2_778
10
4.2691799
20
7.8054594
11
4.3157799
21
7.3935594
0
LINE
8
DEFAULT_255_2_778
10
5.1758799
20
6.8910594
11
5.5100799
21
7.2588594
0
LINE
8
DEFAULT_255_2_778
10
5.5981799
20
7.4038594
11
5.5851799
21
7.7795594
0
LINE
8
DEFAULT_255_2_778
10
4.1424799
20
8.2224594
11
4.1424799
21
8.2227594
0
LINE
8
DEFAULT_255_2_778
10
4.2522394
20
8.0373194
11
4.1173394
21
8.2339194
0
LINE
8
DEFAULT_255_2_778
10
4.1173394
20
8.2339194
11
4.1014394
21
8.5183194
0
LINE
8
DEFAULT_255_2_778
10
4.1014394
20
8.5183194
11
4.1014394
21
8.5728194
0
LINE
8
DEFAULT_255_2_778
10
4.1014394
20
8.5728194
11
4.4755394
21
8.6945194
0
LINE
8
DEFAULT_255_2_778
10
4.4755394
20
8.6945194
11
4.3673394
21
8.5315194
0
LINE
8
DEFAULT_255_2_778
10
4.3673394
20
8.5315194
11
4.2848394
21
8.2751194
0
LINE
8
DEFAULT_255_2_778
10
4.2848394
20
8.2751194
11
4.2805394
21
8.1561194
0
LINE
8
DEFAULT_255_2_778
10
4.2805394
20
8.1561194
11
4.3152394
21
8.0936194
0
LINE
8
DEFAULT_255_2_778
10
4.3152394
20
8.0936194
11
4.3152394
21
7.9201194
0
LINE
8
DEFAULT_255_2_778
10
4.3152394
20
7.9201194
11
4.3274394
21
7.7931194
0
LINE
8
DEFAULT_255_2_778
10
4.3274394
20
7.7931194
11
4.2972394
21
7.8592194
0
LINE
8
DEFAULT_255_2_778
10
4.2972394
20
7.8592194
11
4.2522394
21
8.0373194
0
ARC
8
DEFAULT_255_2_778
10
5.2816642
20
7.756578
40
0.7448773
50
53.2167677
51
57.0749004
0
ARC
8
DEFAULT_255_2_778
10
5.5218009
20
8.0759405
40
0.3453083
50
47.0120184
51
53.3986585
0
ARC
8
DEFAULT_255_2_778
10
5.6758971
20
8.2388174
40
0.1211061
50
33.7629475
51
47.7993236
0
ARC
8
DEFAULT_255_2_778
10
5.7504817
20
8.287677
40
0.0319575
50
3.6089196
51
35.2546305
0
ARC
8
DEFAULT_255_2_778
10
5.7620832
20
8.2915342
40
0.0203763
50
279.9836811
51
354.8032426
0
ARC
8
DEFAULT_255_2_778
10
5.7324429
20
8.3761368
40
0.1098013
50
271.971049
51
287.5848469
0
ARC
8
DEFAULT_255_2_778
10
5.7217697
20
8.5146088
40
0.2486286
50
269.8910876
51
273.3317936
0
ARC
8
DEFAULT_255_2_778
10
5.729165
20
8.8180685
40
0.5521439
50
261.6378486
51
269.1835225
0
ARC
8
DEFAULT_255_2_778
10
5.8388043
20
9.6055806
40
1.3472419
50
257.1196523
51
261.8953066
0
ARC
8
DEFAULT_255_2_778
10
6.0170127
20
10.408063
40
2.1692637
50
253.394332
51
257.2559845
0
ARC
8
DEFAULT_255_2_778
10
6.0452182
20
10.5121569
40
2.2770786
50
251.3605352
51
253.4627503
0
ARC
8
DEFAULT_255_2_778
10
3.154735
20
1.9407534
40
6.7685751
50
71.3660441
51
71.9840434
0
ARC
8
DEFAULT_255_2_778
10
2.1798536
20
-1.0593912
40
9.923137
50
71.9887023
51
72.7044181
0
ARC
8
DEFAULT_255_2_778
10
1.4159745
20
-3.5046523
40
12.4849349
50
72.6935868
51
73.3152973
0
ARC
8
DEFAULT_255_2_778
10
1.3082914
20
-3.859175
40
12.8554483
50
73.3092168
51
73.8283842
0
ARC
8
DEFAULT_255_2_778
10
2.1405445
20
-0.9502602
40
9.8298447
50
73.7651124
51
75.3662249
0
ARC
8
DEFAULT_255_2_778
10
3.4277677
20
3.9802107
40
4.7341124
50
75.3642053
51
77.141054
0
ARC
8
DEFAULT_255_2_778
10
4.0682669
20
6.8034332
40
1.8391537
50
77.0202858
51
80.178914
0
ARC
8
DEFAULT_255_2_778
10
4.2995985
20
8.1641479
40
0.4589401
50
79.6597324
51
87.1351438
0
ARC
8
DEFAULT_255_2_778
10
4.3254841
20
8.7593786
40
0.1368958
50
265.7891651
51
268.766219
0
ARC
8
DEFAULT_255_2_778
10
4.3166629
20
8.645984
40
0.0231643
50
256.9930628
51
266.9546212
0
ARC
8
DEFAULT_255_2_778
10
4.3114676
20
8.6243784
40
0.0009644
50
206.1885524
51
268.9163741
0
ARC
8
DEFAULT_255_2_778
10
4.315129
20
8.6184698
40
0.0071102
50
91.3755021
51
129.5434825
0
ARC
8
DEFAULT_255_2_778
10
4.3614066
20
8.3886482
40
0.2414398
50
96.7294858
51
101.09175
0
ARC
8
DEFAULT_255_2_778
10
4.4966893
20
7.3307448
40
1.3079486
50
95.6862243
51
97.1843539
0
ARC
8
DEFAULT_255_2_778
10
4.729929
20
5.0307916
40
3.6196968
50
94.8993718
51
95.7528877
0
ARC
8
DEFAULT_255_2_778
10
4.9806744
20
2.1491107
40
6.5122651
50
94.4435132
51
94.932069
0
ARC
8
DEFAULT_255_2_778
10
5.1710696
20
-0.2884389
40
8.9572391
50
94.0437538
51
94.4497229
0
ARC
8
DEFAULT_255_2_778
10
5.294277
20
-2.0226965
40
10.6958678
50
93.6716516
51
94.0469888
0
ARC
8
DEFAULT_255_2_778
10
5.3463444
20
-2.8283475
40
11.5031996
50
93.1077975
51
93.6734835
0
ARC
8
DEFAULT_255_2_778
10
5.3029188
20
-2.0075023
40
10.6812074
50
92.4759985
51
93.1139132
0
ARC
8
DEFAULT_255_2_778
10
5.1882174
20
0.7611293
40
7.9102071
50
91.2252017
51
92.5123095
0
ARC
8
DEFAULT_255_2_778
10
5.1219029
20
3.7855064
40
4.885104
50
90.046975
51
91.2060649
0
ARC
8
DEFAULT_255_2_778
10
5.1209816
20
5.6559081
40
3.0147022
50
88.5874086
51
90.0586099
0
ARC
8
DEFAULT_255_2_778
10
5.156467
20
7.0265603
40
1.6435925
50
86.2550433
51
88.6461663
0
ARC
8
DEFAULT_255_2_778
10
5.216071
20
7.9194691
40
0.7486982
50
82.5571602
51
86.3435159
0
ARC
8
DEFAULT_255_2_778
10
5.2798204
20
8.3952217
40
0.2687008
50
75.4178384
51
82.8950768
0
ARC
8
DEFAULT_255_2_778
10
5.315338
20
8.5387396
40
0.1208765
50
72.1765279
51
74.583657
0
ARC
8
DEFAULT_255_2_778
10
5.2469321
20
8.3366142
40
0.3342546
50
61.5455442
51
71.6185654
0
ARC
8
DEFAULT_255_2_778
10
5.0333877
20
7.9715878
40
0.7570562
50
46.7325453
51
60.4990308
0
ARC
8
DEFAULT_255_2_778
10
4.6095911
20
7.4922152
40
1.3967323
50
42.8235205
51
47.5518349
0
ARC
8
DEFAULT_255_2_778
10
4.5776778
20
7.4591218
40
1.4426365
50
40.6346329
51
42.925971
0
ARC
8
DEFAULT_255_2_778
10
4.9891957
20
7.8116352
40
0.9007763
50
39.3642486
51
40.665134
0
ARC
8
DEFAULT_255_2_778
10
5.5125221
20
8.2412932
40
0.2236676
50
38.9218169
51
39.297019
0
LINE
8
DEFAULT_255_2_778
10
5.6865365
20
8.3818145
11
5.6865365
21
8.3818145
0
ARC
8
DEFAULT_255_2_778
10
4.3851539
20
9.3896629
40
0.8129669
50
235.6339754
51
244.5916084
0
ARC
8
DEFAULT_255_2_778
10
4.1634048
20
9.0700815
40
0.4240047
50
220.7795762
51
235.9915224
0
ARC
8
DEFAULT_255_2_778
10
3.9951348
20
8.9300945
40
0.2051906
50
185.5977571
51
221.8696461
0
ARC
8
DEFAULT_255_2_778
10
3.9631863
20
8.9226467
40
0.1727213
50
179.994081
51
184.1725449
0
ARC
8
DEFAULT_255_2_778
10
4.0096654
20
8.9169823
40
0.2192741
50
146.8046287
51
178.515088
0
ARC
8
DEFAULT_255_2_778
10
4.2070156
20
8.7967416
40
0.450311
50
133.4601641
51
147.7500222
0
ARC
8
DEFAULT_255_2_778
10
4.4906053
20
8.5041274
40
0.8577852
50
125.0510929
51
133.7653957
0
ARC
8
DEFAULT_255_2_778
10
4.7552218
20
8.1404181
40
1.3075261
50
122.2743841
51
125.3904826
0
ARC
8
DEFAULT_255_2_778
10
4.5962878
20
8.3719983
40
1.0269143
50
108.4705565
51
121.6762095
0
ARC
8
DEFAULT_255_2_778
10
4.847246
20
7.6086282
40
1.8304725
50
95.7195322
51
108.3510367
0
ARC
8
DEFAULT_255_2_778
10
4.9219787
20
7.0483151
40
2.3955154
50
90.7401431
51
96.1625071
0
ARC
8
DEFAULT_255_2_778
10
4.9225289
20
7.0478334
40
2.3960043
50
90.0008434
51
90.7531515
0
ARC
8
DEFAULT_255_2_778
10
4.9248153
20
7.2207117
40
2.2231272
50
85.3867644
51
90.0598361
0
ARC
8
DEFAULT_255_2_778
10
4.9691954
20
7.7519095
40
1.6900814
50
80.5735911
51
85.4380381
0
ARC
8
DEFAULT_255_2_778
10
5.0707374
20
8.3556778
40
1.0778362
50
74.8659848
51
80.6419134
0
ARC
8
DEFAULT_255_2_778
10
5.0562652
20
8.3346713
40
1.1019252
50
68.9699039
51
74.4247478
0
ARC
8
DEFAULT_255_2_778
10
4.9353307
20
8.0174753
40
1.441392
50
63.0705985
51
69.0076332
0
ARC
8
DEFAULT_255_2_778
10
5.0457845
20
8.1879603
40
1.2395521
50
43.3278457
51
64.0535967
0
ARC
8
DEFAULT_255_2_778
10
5.590963
20
8.7047444
40
0.4883686
50
18.2750431
51
43.111633
0
ARC
8
DEFAULT_255_2_778
10
5.7809248
20
8.7755974
40
0.2858741
50
0.2851674
51
16.7293303
0
ARC
8
DEFAULT_255_2_778
10
5.810315
20
8.7769496
40
0.2564805
50
353.5736031
51
0.0157615
0
ARC
8
DEFAULT_255_2_778
10
5.8126883
20
8.7767339
40
0.254098
50
348.9041055
51
353.5620475
0
ARC
8
DEFAULT_255_2_778
10
5.7433098
20
8.8094356
40
0.3290071
50
319.3431536
51
345.6390967
0
ARC
8
DEFAULT_255_2_778
10
5.6817835
20
8.8629466
40
0.4105468
50
303.6729065
51
319.2721455
0
ARC
8
DEFAULT_255_2_778
10
5.6144099
20
8.9620651
40
0.5303914
50
292.2703963
51
303.7931446
0
ARC
8
DEFAULT_255_2_778
10
5.6113754
20
8.9645054
40
0.5338031
50
286.7686633
51
292.4725491
0
ARC
8
DEFAULT_255_2_778
10
5.6730967
20
8.7566438
40
0.3169744
50
283.3287137
51
286.9264735
0
ARC
8
DEFAULT_255_2_778
10
5.7306547
20
8.5163246
40
0.0698619
50
282.5510539
51
282.8325097
0
LINE
8
DEFAULT_255_2_778
10
5.7458363
20
8.4481323
11
4.0363363
21
8.6553323
0
ARC
8
DEFAULT_255_2_778
10
4.6621006
20
7.6345523
40
1.2573647
50
108.8151105
51
120.3199241
0
ARC
8
DEFAULT_255_2_778
10
4.7950481
20
7.2502776
40
1.6639841
50
96.9601225
51
108.880839
0
ARC
8
DEFAULT_255_2_778
10
4.8160882
20
7.1188194
40
1.7970299
50
90.0110181
51
97.1181117
0
ARC
8
DEFAULT_255_2_778
10
4.815764
20
7.1485918
40
1.7672575
50
89.0517969
51
90.0006928
0
ARC
8
DEFAULT_255_2_778
10
4.8378947
20
7.4217249
40
1.4938993
50
66.7831728
51
89.7271245
0
ARC
8
DEFAULT_255_2_778
10
5.0424027
20
7.9047674
40
0.9693574
50
40.1217447
51
66.636931
0
ARC
8
DEFAULT_255_2_778
10
5.5187727
20
8.6264707
40
0.2820902
50
330.8026287
51
339.8798897
0
ARC
8
DEFAULT_255_2_778
10
5.2470949
20
8.7680755
40
0.5883948
50
328.3022409
51
331.6709324
0
ARC
8
DEFAULT_255_2_778
10
5.2999639
20
8.7333531
40
0.5251705
50
322.9641282
51
328.4946425
0
ARC
8
DEFAULT_255_2_778
10
5.546738
20
8.5430621
40
0.2135907
50
311.6477658
51
323.8401828
0
ARC
8
DEFAULT_255_2_778
10
5.6321544
20
8.4512153
40
0.0882395
50
308.055915
51
309.8357198
0
ARC
8
DEFAULT_255_2_778
10
4.9129507
20
7.3396575
40
1.2978356
50
53.4112589
51
63.0195824
0
ARC
8
DEFAULT_255_2_778
10
4.8722705
20
7.2566818
40
1.3902372
50
63.0769623
51
73.2296986
0
ARC
8
DEFAULT_255_2_778
10
4.8379002
20
7.150862
40
1.5014753
50
73.1390391
51
75.2516567
0
ARC
8
DEFAULT_255_2_778
10
4.8047308
20
7.0137328
40
1.642533
50
75.3504787
51
83.471664
0
ARC
8
DEFAULT_255_2_778
10
4.7748449
20
6.7628651
40
1.8951721
50
83.4362988
51
89.3062536
0
ARC
8
DEFAULT_255_2_778
10
4.7709768
20
6.6199278
40
2.0381469
50
89.2461727
51
90.0008237
0
ARC
8
DEFAULT_255_2_778
10
4.7725378
20
6.4913543
40
2.1667208
50
90.0420536
51
94.7422591
0
ARC
8
DEFAULT_255_2_778
10
4.786452
20
6.3143491
40
2.3442705
50
94.7235103
51
98.2704049
0
ARC
8
DEFAULT_255_2_778
10
4.7973231
20
6.2362777
40
2.4230939
50
98.2592421
51
101.0518429
0
ARC
8
DEFAULT_255_2_778
10
4.7933983
20
6.2557566
40
2.4032238
50
101.0490293
51
102.5505315
0
ARC
8
DEFAULT_255_2_778
10
4.7702652
20
6.3581497
40
2.2982505
50
102.5422996
51
104.489109
0
ARC
8
DEFAULT_255_2_778
10
4.7119036
20
6.5835334
40
2.0654333
50
104.4859087
51
106.0501032
0
ARC
8
DEFAULT_255_2_778
10
4.6153821
20
6.9185051
40
1.7168326
50
106.0452014
51
107.3811436
0
ARC
8
DEFAULT_255_2_778
10
4.4682813
20
7.3871241
40
1.2256685
50
107.3626824
51
108.6195589
0
ARC
8
DEFAULT_255_2_778
10
4.2719342
20
7.9691598
40
0.6114066
50
108.5974232
51
109.5627958
0
ARC
8
DEFAULT_255_2_778
10
4.1051582
20
8.438699
40
0.1131284
50
109.5990536
51
109.9558867
0
LINE
8
DEFAULT_255_2_778
10
4.0662479
20
8.5450347
11
4.0273479
21
8.7199347
0
LINE
8
DEFAULT_255_2_778
10
4.0665479
20
8.5450347
11
4.0662479
21
8.5450347
0
ARC
8
DEFAULT_255_2_778
10
5.145134
20
8.7547377
40
0.1966258
50
23.2485897
51
61.8767662
0
ARC
8
DEFAULT_255_2_778
10
5.1966989
20
8.7815835
40
0.1387185
50
0.9511329
51
21.4672124
0
ARC
8
DEFAULT_255_2_778
10
5.2023215
20
8.782026
40
0.1330898
50
359.9939034
51
0.8008441
0
ARC
8
DEFAULT_255_2_778
10
5.1983232
20
8.7823495
40
0.1370886
50
335.7520455
51
359.8588741
0
ARC
8
DEFAULT_255_2_778
10
5.2120942
20
8.788667
40
0.1276386
50
273.4730647
51
330.620769
0
ARC
8
DEFAULT_255_2_778
10
5.1844288
20
8.8999196
40
0.2412676
50
269.9792426
51
278.436633
0
ARC
8
DEFAULT_255_2_778
10
5.182154
20
8.8526455
40
0.1940059
50
255.9112389
51
270.6460092
0
ARC
8
DEFAULT_255_2_778
10
5.1635259
20
8.7696257
40
0.1089699
50
252.5879013
51
254.7852949
0
ARC
8
DEFAULT_255_2_778
10
5.1875443
20
8.8347244
40
0.1783062
50
239.0151995
51
251.483224
0
ARC
8
DEFAULT_255_2_778
10
5.209949
20
8.8761113
40
0.2253312
50
234.841549
51
239.5488733
0
ARC
8
DEFAULT_255_2_778
10
5.1601102
20
8.8210343
40
0.1518719
50
183.3409567
51
238.250548
0
ARC
8
DEFAULT_255_2_778
10
5.1463798
20
8.8110752
40
0.1378879
50
158.8938338
51
179.5394489
0
ARC
8
DEFAULT_255_2_778
10
5.1812782
20
8.7994298
40
0.1746469
50
155.6101463
51
159.4524436
0
ARC
8
DEFAULT_255_2_778
10
5.15453
20
8.8009391
40
0.1499746
50
89.7644215
51
151.912929
0
ARC
8
DEFAULT_255_2_778
10
5.1547087
20
8.7920605
40
0.1588525
50
68.4806503
51
89.8420372
0
ARC
8
DEFAULT_255_2_778
10
5.1476289
20
8.7727445
40
0.1794196
50
59.8233084
51
68.6400414
0
ARC
8
DEFAULT_255_2_778
10
5.1586723
20
8.8028416
40
0.0879533
50
154.7576782
51
179.2737336
0
ARC
8
DEFAULT_255_2_778
10
5.1639553
20
8.8093768
40
0.0933867
50
183.3274557
51
238.0233525
0
ARC
8
DEFAULT_255_2_778
10
5.1863338
20
8.8294592
40
0.1225576
50
234.1177188
51
250.2545353
0
ARC
8
DEFAULT_255_2_778
10
5.1658018
20
8.7764438
40
0.065738
50
251.487048
51
252.2105072
0
ARC
8
DEFAULT_255_2_778
10
5.1764459
20
8.8209308
40
0.1114035
50
253.9884724
51
270.9331938
0
ARC
8
DEFAULT_255_2_778
10
5.1782939
20
8.8575275
40
0.1479854
50
269.9870135
51
278.564522
0
ARC
8
DEFAULT_255_2_778
10
5.1954394
20
8.7894972
40
0.0784575
50
273.5755006
51
330.4883975
0
ARC
8
DEFAULT_255_2_778
10
5.186715
20
8.7855292
40
0.0844517
50
335.7542757
51
359.8641145
0
ARC
8
DEFAULT_255_2_778
10
5.1888543
20
8.7853377
40
0.0823122
50
359.9939371
51
1.2942625
0
ARC
8
DEFAULT_255_2_778
10
5.1649872
20
8.7789594
40
0.1064773
50
4.4370276
51
63.05804
0
ARC
8
DEFAULT_255_2_778
10
5.1278256
20
8.7310487
40
0.1664178
50
59.1229862
51
59.8476533
0
ARC
8
DEFAULT_255_2_778
10
5.155407
20
8.7786272
40
0.111423
50
59.8223268
51
67.6854769
0
ARC
8
DEFAULT_255_2_778
10
5.1602411
20
8.7913903
40
0.0977809
50
67.4663461
51
89.8070201
0
ARC
8
DEFAULT_255_2_778
10
5.1602611
20
8.7973286
40
0.0918426
50
89.8070368
51
152.0685405
0
ARC
8
DEFAULT_255_2_778
10
5.4408507
20
8.6621073
40
0.2007469
50
0.3644344
51
62.7339616
0
ARC
8
DEFAULT_255_2_778
10
5.4479262
20
8.6633772
40
0.1936674
50
357.6048052
51
0.0020751
0
ARC
8
DEFAULT_255_2_778
10
5.4484686
20
8.6633439
40
0.193124
50
351.0049199
51
357.607941
0
ARC
8
DEFAULT_255_2_778
10
5.530858
20
8.6526581
40
0.1101017
50
283.1271411
51
349.793828
0
ARC
8
DEFAULT_255_2_778
10
5.5144069
20
8.6858556
40
0.1464138
50
270.3640912
51
286.4480919
0
ARC
8
DEFAULT_255_2_778
10
5.5143652
20
8.636101
40
0.0966613
50
257.1802215
51
270.5762134
0
ARC
8
DEFAULT_255_2_778
10
5.5463987
20
8.7164659
40
0.1826234
50
180.0473172
51
252.9713246
0
ARC
8
DEFAULT_255_2_778
10
5.546925
20
8.7162698
40
0.1831496
50
169.371771
51
179.9858233
0
ARC
8
DEFAULT_255_2_778
10
5.4862583
20
8.7356164
40
0.1202104
50
94.4587266
51
173.1043325
0
ARC
8
DEFAULT_255_2_778
10
5.4751235
20
8.7389866
40
0.1164901
50
61.448352
51
89.1197773
0
ARC
8
DEFAULT_255_2_778
10
5.4607492
20
8.7066061
40
0.1518297
50
61.7481642
51
62.5239548
0
ARC
8
DEFAULT_255_2_778
10
5.5507233
20
8.7018306
40
0.1334351
50
170.5020324
51
179.860413
0
ARC
8
DEFAULT_255_2_778
10
5.5245808
20
8.7011534
40
0.107297
50
179.4647993
51
227.6577561
0
ARC
8
DEFAULT_255_2_778
10
5.5354696
20
8.7110957
40
0.1219874
50
227.0229111
51
233.1123215
0
ARC
8
DEFAULT_255_2_778
10
5.5269561
20
8.6976374
40
0.1061207
50
232.4271062
51
251.9510591
0
ARC
8
DEFAULT_255_2_778
10
5.5094955
20
8.6485189
40
0.0540272
50
253.417969
51
256.2100517
0
ARC
8
DEFAULT_255_2_778
10
5.5097215
20
8.6538802
40
0.0592972
50
257.2328182
51
270.5636276
0
ARC
8
DEFAULT_255_2_778
10
5.509735
20
8.68394
40
0.089356
50
270.3654183
51
286.5133186
0
ARC
8
DEFAULT_255_2_778
10
5.5195137
20
8.6643592
40
0.0679105
50
283.2973591
51
349.6420427
0
ARC
8
DEFAULT_255_2_778
10
5.4705922
20
8.6706903
40
0.1172012
50
350.8975832
51
356.9973741
0
ARC
8
DEFAULT_255_2_778
10
5.4701253
20
8.6707197
40
0.1176688
50
356.9949764
51
0.0003911
0
ARC
8
DEFAULT_255_2_778
10
5.4638197
20
8.669556
40
0.1239798
50
0.5381669
51
62.4216936
0
ARC
8
DEFAULT_255_2_778
10
5.4859967
20
8.7173287
40
0.0714103
50
60.4478149
51
89.0713807
0
ARC
8
DEFAULT_255_2_778
10
5.4930563
20
8.7146546
40
0.0743098
50
94.5556369
51
172.8924699
0
LINE
8
DEFAULT_255_2_778
10
4.9910174
20
8.9688491
11
4.7695174
21
8.7783491
0
LINE
8
DEFAULT_255_2_778
10
4.7695174
20
8.7783491
11
4.9481174
21
8.7551491
0
LINE
8
DEFAULT_255_2_778
10
4.9481174
20
8.7551491
11
4.9402174
21
8.7085491
0
LINE
8
DEFAULT_255_2_778
10
4.9402174
20
8.7085491
11
4.6216174
21
8.7358491
0
LINE
8
DEFAULT_255_2_778
10
4.6216174
20
8.7358491
11
4.8547174
21
8.9456491
0
LINE
8
DEFAULT_255_2_778
10
4.8547174
20
8.9456491
11
4.6954174
21
8.9535491
0
LINE
8
DEFAULT_255_2_778
10
4.6954174
20
8.9535491
11
4.6994174
21
9.0043491
0
LINE
8
DEFAULT_255_2_778
10
4.6994174
20
9.0043491
11
4.9910174
21
8.9688491
0
LINE
8
DEFAULT_255_2_778
10
5.2378174
20
8.9278491
11
5.2378174
21
8.9281491
0
LINE
8
DEFAULT_255_2_778
10
5.0791174
20
8.8403491
11
5.0791174
21
8.8403491
0
LINE
8
DEFAULT_255_2_778
10
5.5326174
20
8.8403491
11
5.5328174
21
8.8405491
0
LINE
8
DEFAULT_255_2_778
10
5.4193174
20
8.7238491
11
5.4191174
21
8.7238491
0
LINE
8
DEFAULT_255_2_778
10
5.5224571
20
8.3288696
11
5.5565571
21
8.1476696
0
LINE
8
DEFAULT_255_2_778
10
5.5565571
20
8.1476696
11
5.5084571
21
8.0155696
0
LINE
8
DEFAULT_255_2_778
10
5.5084571
20
8.0155696
11
5.5174571
21
7.8705696
0
LINE
8
DEFAULT_255_2_778
10
5.5174571
20
7.8705696
11
5.5174571
21
7.7957696
0
LINE
8
DEFAULT_255_2_778
10
5.5174571
20
7.7957696
11
5.5603571
21
7.8578696
0
LINE
8
DEFAULT_255_2_778
10
5.5603571
20
7.8578696
11
5.5780571
21
8.0753696
0
LINE
8
DEFAULT_255_2_778
10
5.5780571
20
8.0753696
11
5.6592571
21
8.2230696
0
LINE
8
DEFAULT_255_2_778
10
5.6592571
20
8.2230696
11
5.6661571
21
8.3084696
0
LINE
8
DEFAULT_255_2_778
10
5.6661571
20
8.3084696
11
5.5224571
21
8.3288696
0
ARC
8
DEFAULT_255_2_778
10
5.5895542
20
8.3190689
40
0.2468601
50
231.1892936
51
237.2720813
0
ARC
8
DEFAULT_255_2_778
10
-0.259247
20
0.8855721
40
9.211767
50
51.8201973
51
52.0387824
0
ARC
8
DEFAULT_255_2_778
10
4.9621884
20
7.5734963
40
0.7269794
50
52.2589214
51
53.7323142
0
ARC
8
DEFAULT_255_2_778
10
5.2835721
20
8.0255344
40
0.1726001
50
50.9801415
51
69.9920545
0
ARC
8
DEFAULT_255_2_778
10
5.3338679
20
8.1559448
40
0.0329578
50
74.5869824
51
89.0935768
0
ARC
8
DEFAULT_255_2_778
10
5.3436203
20
7.9879109
40
0.2011995
50
92.6296591
51
102.4298687
0
ARC
8
DEFAULT_255_2_778
10
5.6165064
20
6.6158076
40
1.6001383
50
101.39686
51
103.0713209
0
ARC
8
DEFAULT_255_2_778
10
4.4844322
20
11.5748131
40
3.4864608
50
282.7322491
51
282.7622646
0
ARC
8
DEFAULT_255_2_778
10
5.0845033
20
8.857416
40
0.703761
50
278.1580303
51
283.8383815
0
ARC
8
DEFAULT_255_2_778
10
5.1692321
20
8.2984794
40
0.1385321
50
274.0803
51
276.273315
0
ARC
8
DEFAULT_255_2_778
10
5.301572
20
7.5460712
40
0.6263203
50
101.2773907
51
117.6630941
0
ARC
8
DEFAULT_255_2_778
10
4.7574256
20
8.2820819
40
0.1870594
50
253.609853
51
265.9116456
0
ARC
8
DEFAULT_255_2_778
10
4.8575287
20
8.6887338
40
0.6057218
50
253.6953092
51
255.3801662
0
ARC
8
DEFAULT_255_2_778
10
4.9039828
20
8.8485279
40
0.7721311
50
252.1984356
51
253.7157581
0
ARC
8
DEFAULT_255_2_778
10
4.8285164
20
8.6243685
40
0.5356429
50
248.3245022
51
252.5538743
0
ARC
8
DEFAULT_255_2_778
10
4.6636576
20
8.2078738
40
0.08771
50
243.913658
51
247.9127315
0
ARC
8
DEFAULT_255_2_778
10
4.6036411
20
8.0716516
40
0.0613203
50
69.5265367
51
86.8146056
0
ARC
8
DEFAULT_255_2_778
10
4.5718045
20
7.7656868
40
0.368878
50
84.5173934
51
88.7734617
0
ARC
8
DEFAULT_255_2_778
10
4.5589064
20
7.3411913
40
0.7935614
50
88.4984766
51
90.048639
0
ARC
8
DEFAULT_255_2_778
10
4.5584042
20
7.1047894
40
1.029963
50
90.0095353
51
91.0616774
0
ARC
8
DEFAULT_255_2_778
10
4.5532782
20
7.3643102
40
0.7703918
50
91.0381361
51
91.5668712
0
ARC
8
DEFAULT_255_2_778
10
4.5371562
20
7.955103
40
0.1793789
50
91.5791693
51
91.7464798
0
LINE
8
DEFAULT_255_2_778
10
4.5316893
20
8.1343985
11
4.4720893
21
8.1732985
0
LINE
8
DEFAULT_255_2_778
10
4.4720893
20
8.1732985
11
4.3916893
21
8.0981985
0
ARC
8
DEFAULT_255_2_778
10
4.7401774
20
7.9472385
40
0.0889475
50
37.018033
51
55.6279606
0
ARC
8
DEFAULT_255_2_778
10
4.6574393
20
7.8747133
40
0.1988392
50
37.68621
51
39.3508711
0
ARC
8
DEFAULT_255_2_778
10
4.6424132
20
7.8629121
40
0.2179448
50
27.1458685
51
37.7264618
0
ARC
8
DEFAULT_255_2_778
10
4.7579449
20
7.9181566
40
0.0900036
50
4.3073833
51
29.4082607
0
ARC
8
DEFAULT_255_2_778
10
4.8133662
20
7.924876
40
0.0343281
50
355.6207577
51
0.067669
0
ARC
8
DEFAULT_255_2_778
10
4.8145934
20
7.5945772
40
0.0125367
50
226.6903733
51
254.690985
0
ARC
8
DEFAULT_255_2_778
10
4.8467795
20
7.6813768
40
0.1050688
50
250.2549353
51
256.5435002
0
ARC
8
DEFAULT_255_2_778
10
4.9104677
20
7.949746
40
0.3808914
50
256.6204611
51
262.9407272
0
ARC
8
DEFAULT_255_2_778
10
4.9038309
20
7.866178
40
0.2971641
50
262.2304549
51
269.1616127
0
ARC
8
DEFAULT_255_2_778
10
4.9022999
20
7.6235266
40
0.0545538
50
267.0399897
51
286.7468774
0
ARC
8
DEFAULT_255_2_778
10
4.9148064
20
7.5794206
40
0.0087454
50
291.553077
51
307.2008899
0
ARC
8
DEFAULT_255_2_778
10
4.8779602
20
8.3802837
40
0.7848518
50
278.19935
51
278.5542355
0
ARC
8
DEFAULT_255_2_778
10
5.0151957
20
7.483178
40
0.1227082
50
91.1660446
51
99.6134305
0
ARC
8
DEFAULT_255_2_778
10
5.0128346
20
7.5471715
40
0.0586895
50
84.0671269
51
90.1328219
0
ARC
8
DEFAULT_255_2_778
10
5.0148688
20
7.5632772
40
0.0424612
50
35.3677832
51
84.5509014
0
ARC
8
DEFAULT_255_2_778
10
4.6146008
20
7.906024
40
0.1368817
50
29.7055817
51
89.6573942
0
ARC
8
DEFAULT_255_2_778
10
4.5985495
20
7.8301565
40
0.2134145
50
85.4661873
51
90.0142153
0
ARC
8
DEFAULT_255_2_778
10
4.5985311
20
7.8234766
40
0.2200943
50
90.0090049
51
94.7433639
0
ARC
8
DEFAULT_255_2_778
10
4.5897414
20
7.8579653
40
0.185091
50
92.9143021
51
142.299501
0
ARC
8
DEFAULT_255_2_778
10
5.1778992
20
7.935651
40
0.1142693
50
107.2137917
51
164.673361
0
ARC
8
DEFAULT_255_2_778
10
5.2443023
20
7.7919711
40
0.2719694
50
90.4677913
51
111.6228991
0
ARC
8
DEFAULT_255_2_778
10
5.2465828
20
7.7677751
40
0.2961907
50
90.0026469
51
90.8707093
0
ARC
8
DEFAULT_255_2_778
10
5.2545408
20
7.8503261
40
0.2137884
50
55.4239477
51
92.1369395
0
ARC
8
DEFAULT_255_2_778
10
5.3098417
20
7.9397418
40
0.1089074
50
26.9823786
51
52.681894
0
LINE
8
DEFAULT_255_2_778
10
4.847594
20
7.9222548
11
4.805994
21
7.5854548
0
ARC
8
DEFAULT_255_2_778
10
4.5856641
20
7.9661527
40
0.073107
50
83.9741683
51
172.7680323
0
ARC
8
DEFAULT_255_2_778
10
4.6009781
20
7.9658797
40
0.073375
50
7.4203872
51
95.9761842
0
ARC
8
DEFAULT_255_2_778
10
4.6011437
20
7.9846227
40
0.0731841
50
263.8778276
51
352.725512
0
ARC
8
DEFAULT_255_2_778
10
4.5855539
20
7.9844198
40
0.0729802
50
187.1343327
51
276.1234246
0
ARC
8
DEFAULT_255_2_778
10
5.218611
20
7.9908311
40
0.0767563
50
83.9215459
51
172.3447746
0
ARC
8
DEFAULT_255_2_778
10
5.2349782
20
7.9910885
40
0.0765124
50
7.4853273
51
96.1821147
0
ARC
8
DEFAULT_255_2_778
10
5.2349664
20
8.0109236
40
0.0765113
50
263.8267358
51
352.5899453
0
ARC
8
DEFAULT_255_2_778
10
5.218501
20
8.0110255
40
0.0766137
50
187.4769358
51
276.172557
0
LINE
8
DEFAULT_255_2_778
10
4.5131387
20
7.9753559
11
4.5131387
21
7.9753559
0
LINE
8
DEFAULT_255_2_778
10
5.1425387
20
8.0010559
11
5.1425387
21
8.0010559
0
ARC
8
DEFAULT_255_2_778
10
4.8540499
20
7.5955764
40
0.2913583
50
220.3934157
51
253.7061327
0
ARC
8
DEFAULT_255_2_778
10
4.9180496
20
7.7710076
40
0.4778554
50
252.2420285
51
269.0680215
0
ARC
8
DEFAULT_255_2_778
10
4.9204258
20
7.7990456
40
0.505932
50
268.850603
51
270.0009507
0
ARC
8
DEFAULT_255_2_778
10
4.9287235
20
7.7069175
40
0.413887
50
268.8524059
51
298.1796812
0
ARC
8
DEFAULT_255_2_778
10
5.0234339
20
7.5273148
40
0.2108506
50
298.5413011
51
333.3277486
0
ARC
8
DEFAULT_255_2_778
10
5.1833012
20
6.3518682
40
1.0571591
50
92.4425448
51
92.8948762
0
ARC
8
DEFAULT_255_2_778
10
5.2274894
20
5.464338
40
1.9457885
50
92.8745068
51
93.9560301
0
ARC
8
DEFAULT_255_2_778
10
5.2008972
20
5.8229089
40
1.5862383
50
93.8913488
51
95.7767902
0
ARC
8
DEFAULT_255_2_778
10
5.0894056
20
6.8506114
40
0.5525838
50
95.0007994
51
102.5402514
0
ARC
8
DEFAULT_255_2_778
10
4.9881035
20
7.3067939
40
0.0852889
50
102.650033
51
115.9757925
0
ARC
8
DEFAULT_255_2_778
10
4.9516326
20
7.153649
40
0.2298196
50
90.2206088
51
93.8427879
0
ARC
8
DEFAULT_255_2_778
10
4.9639453
20
6.9685503
40
0.4153273
50
93.8262209
51
96.7873167
0
ARC
8
DEFAULT_255_2_778
10
4.9716435
20
6.8934189
40
0.4908435
50
96.6431431
51
98.7704543
0
ARC
8
DEFAULT_255_2_778
10
4.9081475
20
7.3059541
40
0.0734505
50
98.886118
51
99.1655832
0
ARC
8
DEFAULT_255_2_778
10
4.774378
20
6.4605815
40
0.9259668
50
82.4246793
51
82.9096684
0
ARC
8
DEFAULT_255_2_778
10
4.6797385
20
5.7059172
40
1.6865418
50
82.883696
51
83.8100576
0
ARC
8
DEFAULT_255_2_778
10
4.6801104
20
5.7117611
40
1.6806919
50
83.8011811
51
84.2125209
0
ARC
8
DEFAULT_255_2_778
10
4.7140122
20
6.0593084
40
1.3314981
50
84.1558362
51
86.0011237
0
ARC
8
DEFAULT_255_2_778
10
4.758664
20
6.7261185
40
0.6632004
50
85.8319462
51
89.6322413
0
ARC
8
DEFAULT_255_2_778
10
4.7590238
20
7.2121188
40
0.1772293
50
88.7400735
51
99.3770672
0
ARC
8
DEFAULT_255_2_778
10
4.7346504
20
7.3585848
40
0.0287499
50
99.0105336
51
120.0638723
0
ARC
8
DEFAULT_255_2_778
10
4.7068208
20
7.4058423
40
0.0260949
50
267.3073895
51
300.9668467
0
ARC
8
DEFAULT_255_2_778
10
4.708776
20
7.4658466
40
0.0861292
50
250.6992149
51
267.8833796
0
ARC
8
DEFAULT_255_2_778
10
4.7453601
20
7.5821271
40
0.208003
50
245.2231539
51
251.7751845
0
ARC
8
DEFAULT_255_2_778
10
4.7834188
20
7.6670973
40
0.3011031
50
240.3325042
51
245.4238094
0
ARC
8
DEFAULT_255_2_778
10
4.7042814
20
7.528051
40
0.1411138
50
239.2579462
51
240.3082549
0
LINE
8
DEFAULT_255_2_778
10
5.2118477
20
7.4326669
11
5.1382477
21
7.4080669
0
LINE
8
DEFAULT_255_2_778
10
4.6321477
20
7.4067669
11
4.6321477
21
7.4067669
0
ARC
8
DEFAULT_255_2_778
10
4.9558406
20
7.4423959
40
0.232505
50
276.3795108
51
316.5140103
0
ARC
8
DEFAULT_255_2_778
10
4.9242645
20
7.5750051
40
0.3681779
50
271.3368444
51
278.9708302
0
ARC
8
DEFAULT_255_2_778
10
4.9236317
20
7.5879328
40
0.381117
50
269.9978394
51
271.3866098
0
ARC
8
DEFAULT_255_2_778
10
4.9183003
20
7.5308923
40
0.3241201
50
244.5746785
51
270.93994
0
ARC
8
DEFAULT_255_2_778
10
4.8572742
20
7.3931373
40
0.1735533
50
229.1834085
51
243.2449676
0
ARC
8
DEFAULT_255_2_778
10
5.1915788
20
7.9948157
40
0.0455862
50
194.0491827
51
222.947306
0
ARC
8
DEFAULT_255_2_778
10
5.2438558
20
8.0098682
40
0.0999718
50
180.032475
51
195.144886
0
ARC
8
DEFAULT_255_2_778
10
5.2085762
20
8.0098597
40
0.0646922
50
178.8329827
51
180.0427195
0
ARC
8
DEFAULT_255_2_778
10
5.1717536
20
8.0106386
40
0.0278615
50
177.9059043
51
178.8921002
0
ARC
8
DEFAULT_255_2_778
10
4.5702649
20
7.9638095
40
0.0460744
50
194.3547637
51
222.7118313
0
ARC
8
DEFAULT_255_2_778
10
4.6214369
20
7.9786888
40
0.0993528
50
180.0385411
51
195.3513133
0
ARC
8
DEFAULT_255_2_778
10
4.5860602
20
7.97867
40
0.0639762
50
178.8265324
51
180.0429545
0
ARC
8
DEFAULT_255_2_778
10
4.5495293
20
7.9794473
40
0.0274372
50
177.8917704
51
178.8872821
0
LINE
8
DEFAULT_255_2_778
10
5.1439106
20
8.0116567
11
5.2397106
21
8.0000567
0
LINE
8
DEFAULT_255_2_778
10
5.2397106
20
8.0000567
11
5.1582106
21
7.9637567
0
LINE
8
DEFAULT_255_2_778
10
5.1439106
20
8.0116567
11
5.1439106
21
8.0116567
0
LINE
8
DEFAULT_255_2_778
10
4.5221106
20
7.9804567
11
4.6179106
21
7.9687567
0
LINE
8
DEFAULT_255_2_778
10
4.6179106
20
7.9687567
11
4.5364106
21
7.9325567
0
LINE
8
DEFAULT_255_2_778
10
4.5221106
20
7.9804567
11
4.5221106
21
7.9804567
0
ARC
8
DEFAULT_255_2_778
10
5.1425992
20
8.5095099
40
0.6510603
50
325.3299491
51
329.1796365
0
ARC
8
DEFAULT_255_2_778
10
8.1349007
20
6.4880708
40
2.9600933
50
146.0975255
51
146.4347838
0
ARC
8
DEFAULT_255_2_778
10
6.6098337
20
7.5003824
40
1.1296279
50
146.4514183
51
147.171074
0
ARC
8
DEFAULT_255_2_778
10
5.8689951
20
7.9668983
40
0.2543749
50
145.003146
51
159.3393077
0
ARC
8
DEFAULT_255_2_778
10
5.6776785
20
8.0425461
40
0.0487819
50
163.1943672
51
171.637862
0
ARC
8
DEFAULT_255_2_778
10
5.6875814
20
8.0422612
40
0.0586323
50
172.769868
51
180.4241452
0
ARC
8
DEFAULT_255_2_778
10
5.9039117
20
8.0549274
40
0.275273
50
182.7277264
51
193.3564891
0
ARC
8
DEFAULT_255_2_778
10
6.8036057
20
8.2371267
40
1.1931129
50
191.8884675
51
192.5573277
0
ARC
8
DEFAULT_255_2_778
10
4.9252983
20
7.8051193
40
0.7343093
50
9.9629636
51
13.5950288
0
ARC
8
DEFAULT_255_2_778
10
5.5970228
20
7.9243325
40
0.0521032
50
1.123598
51
8.6440403
0
ARC
8
DEFAULT_255_2_778
10
5.633102
20
7.9252364
40
0.0160144
50
353.5606472
51
0.4213773
0
ARC
8
DEFAULT_255_2_778
10
5.3166081
20
7.9133218
40
0.3697733
50
10.6470154
51
17.465916
0
ARC
8
DEFAULT_255_2_778
10
5.5804353
20
8.0053665
40
0.0908928
50
12.0263484
51
47.8802243
0
ARC
8
DEFAULT_255_2_778
10
5.6304582
20
8.0533192
40
0.0223286
50
60.6703525
51
61.4915857
0
ARC
8
DEFAULT_255_2_778
10
4.2808926
20
8.3285469
40
0.2438123
50
218.20926
51
226.4547023
0
ARC
8
DEFAULT_255_2_778
10
16.283797
20
20.4867483
40
17.3286037
50
225.3835522
51
225.5509289
0
ARC
8
DEFAULT_255_2_778
10
3.2130938
20
7.1717873
40
1.3296936
50
44.5416973
51
45.262646
0
ARC
8
DEFAULT_255_2_778
10
3.9193781
20
7.8538133
40
0.3480286
50
35.0262525
51
46.0729942
0
ARC
8
DEFAULT_255_2_778
10
4.1668455
20
8.0272386
40
0.0458424
50
11.1969198
51
35.0489926
0
ARC
8
DEFAULT_255_2_778
10
4.1497896
20
8.0288173
40
0.0624566
50
359.7936665
51
6.7334135
0
ARC
8
DEFAULT_255_2_778
10
4.0065211
20
8.0393059
40
0.2060037
50
344.4628599
51
357.01891
0
ARC
8
DEFAULT_255_2_778
10
0.6965918
20
8.8153804
40
3.6055361
50
346.6439405
51
346.6705635
0
ARC
8
DEFAULT_255_2_778
10
4.4100321
20
7.9246601
40
0.2134083
50
164.2758384
51
176.7159878
0
ARC
8
DEFAULT_255_2_778
10
4.2466805
20
7.9361302
40
0.0497121
50
179.1296846
51
194.7893381
0
ARC
8
DEFAULT_255_2_778
10
4.8919121
20
8.1370519
40
0.7254586
50
197.1245792
51
203.3395302
0
ARC
8
DEFAULT_255_2_778
10
4.2875306
20
7.9739781
40
0.1275299
50
179.4108282
51
189.6773247
0
ARC
8
DEFAULT_255_2_778
10
4.3525627
20
7.9750317
40
0.1925554
50
172.932694
51
179.9233233
0
ARC
8
DEFAULT_255_2_778
10
4.2414142
20
7.9981145
40
0.0799462
50
132.0525219
51
179.5640042
0
ARC
8
DEFAULT_255_2_778
10
4.1985852
20
8.0379679
40
0.0222603
50
105.2889999
51
118.7879488
0
ARC
8
DEFAULT_255_2_778
10
11.1488995
20
4.7614072
40
0.5010517
50
10.4062538
51
42.2897656
0
ARC
8
DEFAULT_255_2_778
10
10.7327036
20
4.6671757
40
0.9275878
50
359.4798586
51
11.4876074
0
ARC
8
DEFAULT_255_2_778
10
10.6750767
20
4.6460471
40
0.9852583
50
346.7109682
51
0.7390252
0
ARC
8
DEFAULT_255_2_778
10
11.1154725
20
4.5381833
40
0.5318743
50
319.9231759
51
347.1143632
0
ARC
8
DEFAULT_255_2_778
10
11.1806793
20
4.4822748
40
0.4459854
50
269.9923314
51
320.0258382
0
ARC
8
DEFAULT_255_2_778
10
11.1806286
20
4.4839713
40
0.4476818
50
268.4415446
51
269.9988402
0
ARC
8
DEFAULT_255_2_778
10
11.1541002
20
4.4058163
40
0.36964
50
234.4817266
51
272.2253246
0
ARC
8
DEFAULT_255_2_778
10
11.2233478
20
4.4536324
40
0.4496987
50
211.9209141
51
230.8374839
0
ARC
8
DEFAULT_255_2_778
10
11.2434555
20
4.7944176
40
0.4850133
50
129.3159222
51
147.9972833
0
ARC
8
DEFAULT_255_2_778
10
11.1667202
20
4.8635171
40
0.3832514
50
89.985764
51
126.9851491
0
ARC
8
DEFAULT_255_2_778
10
11.1668109
20
4.8625744
40
0.3841941
50
88.6066377
51
89.999326
0
ARC
8
DEFAULT_255_2_778
10
11.1831322
20
4.7923264
40
0.4543822
50
90.0003714
51
90.8800712
0
ARC
8
DEFAULT_255_2_778
10
11.183002
20
4.7916129
40
0.4550956
50
42.3097076
51
89.9839832
0
ARC
8
DEFAULT_255_2_778
10
11.1057739
20
4.7714089
40
0.2139172
50
31.1471611
51
94.1876124
0
ARC
8
DEFAULT_255_2_778
10
11.0772804
20
4.7583109
40
0.2268097
50
86.7463874
51
89.9993208
0
ARC
8
DEFAULT_255_2_778
10
11.0773524
20
4.7601024
40
0.2250183
50
90.0176556
51
161.9951397
0
ARC
8
DEFAULT_255_2_778
10
11.3429532
20
4.6620229
40
0.5080519
50
160.734213
51
179.4660991
0
ARC
8
DEFAULT_255_2_778
10
11.9782907
20
4.6221248
40
1.1442383
50
177.7645487
51
180.0585729
0
ARC
8
DEFAULT_255_2_778
10
11.3076029
20
4.6083589
40
0.4737173
50
178.4763242
51
200.0119609
0
ARC
8
DEFAULT_255_2_778
10
11.0874777
20
4.530653
40
0.240302
50
200.5642691
51
232.6387118
0
ARC
8
DEFAULT_255_2_778
10
11.0873253
20
4.5383954
40
0.2464105
50
233.7594287
51
269.9687885
0
ARC
8
DEFAULT_255_2_778
10
11.0871801
20
4.5376921
40
0.2457072
50
270.0025454
51
271.3696311
0
ARC
8
DEFAULT_255_2_778
10
11.1039215
20
4.5122941
40
0.2205071
50
267.1748584
51
269.9999878
0
ARC
8
DEFAULT_255_2_778
10
11.1039758
20
4.5114614
40
0.2196745
50
269.9858252
51
326.1678199
0
ARC
8
DEFAULT_255_2_778
10
10.9400851
20
4.6105234
40
0.4110654
50
327.4168119
51
356.4127222
0
ARC
8
DEFAULT_255_2_778
10
10.6738921
20
4.6465138
40
0.6792621
50
354.7875512
51
0.0962651
0
ARC
8
DEFAULT_255_2_778
10
10.9040653
20
4.6563518
40
0.449172
50
358.8905855
51
0.0009188
0
ARC
8
DEFAULT_255_2_778
10
10.9053928
20
4.6563811
40
0.4478446
50
359.9971648
51
30.3776724
0
ARC
8
DEFAULT_255_2_778
10
12.2819903
20
5.2518963
40
0.4827961
50
275.4152261
51
286.5939536
0
ARC
8
DEFAULT_255_2_778
10
12.3839341
20
4.9009615
40
0.11739
50
287.8261524
51
301.2044805
0
ARC
8
DEFAULT_255_2_778
10
12.4182716
20
4.887705
40
0.0910845
50
286.9019743
51
0.4717953
0
ARC
8
DEFAULT_255_2_778
10
12.4076378
20
4.8981136
40
0.1021728
50
354.5756392
51
59.3966877
0
ARC
8
DEFAULT_255_2_778
10
12.3456767
20
4.7502787
40
0.2618799
50
64.2004547
51
89.4993111
0
ARC
8
DEFAULT_255_2_778
10
12.3143966
20
4.3913903
40
0.6216653
50
86.9046498
51
90.0777402
0
ARC
8
DEFAULT_255_2_778
10
12.3014439
20
4.7772915
40
0.2360743
50
87.0597722
51
117.9345209
0
ARC
8
DEFAULT_255_2_778
10
12.2537976
20
4.8806948
40
0.122563
50
120.9024225
51
139.4618689
0
ARC
8
DEFAULT_255_2_778
10
12.3363683
20
4.8274305
40
0.2203287
50
142.8933392
51
172.8498025
0
ARC
8
DEFAULT_255_2_778
10
12.2467208
20
4.8450654
40
0.4221812
50
142.9040963
51
178.6713003
0
ARC
8
DEFAULT_255_2_778
10
12.1762996
20
4.8861105
40
0.3413939
50
140.6105693
51
141.2699078
0
ARC
8
DEFAULT_255_2_778
10
12.207542
20
4.8577123
40
0.3835667
50
102.0679376
51
140.2936479
0
ARC
8
DEFAULT_255_2_778
10
12.3130099
20
4.457493
40
0.7972291
50
89.2566264
51
103.4668385
0
ARC
8
DEFAULT_255_2_778
10
12.3365241
20
4.5233748
40
0.7313988
50
89.9993796
51
91.031834
0
ARC
8
DEFAULT_255_2_778
10
12.3364305
20
4.5214291
40
0.7333446
50
63.8046457
51
89.9920688
0
ARC
8
DEFAULT_255_2_778
10
12.5361826
20
4.9410319
40
0.2687271
50
1.5256251
51
62.5273595
0
ARC
8
DEFAULT_255_2_778
10
12.2872971
20
4.8978773
40
0.519957
50
359.8873547
51
5.55243
0
ARC
8
DEFAULT_255_2_778
10
13.0148929
20
4.2368459
40
0.2055402
50
180.1089583
51
201.3513086
0
ARC
8
DEFAULT_255_2_778
10
12.8713788
20
4.1853648
40
0.0533067
50
205.9820571
51
213.3555565
0
ARC
8
DEFAULT_255_2_778
10
12.9132041
20
4.2187734
40
0.1067244
50
215.9915879
51
246.5615777
0
ARC
8
DEFAULT_255_2_778
10
12.8917564
20
4.2133769
40
0.3715543
50
191.0197937
51
201.5409111
0
ARC
8
DEFAULT_255_2_778
10
12.0633548
20
4.6355898
40
0.6221071
50
300.0047566
51
317.0429567
0
ARC
8
DEFAULT_255_2_778
10
12.1603736
20
4.4768634
40
0.436161
50
270.017404
51
299.3949457
0
ARC
8
DEFAULT_255_2_778
10
12.1605205
20
4.4760685
40
0.4353659
50
269.1093507
51
269.9980972
0
ARC
8
DEFAULT_255_2_778
10
12.1396086
20
4.4214505
40
0.3809581
50
229.9449462
51
272.127813
0
ARC
8
DEFAULT_255_2_778
10
12.1124144
20
4.365656
40
0.3211062
50
176.9832773
51
227.251437
0
ARC
8
DEFAULT_255_2_778
10
12.1183344
20
4.4048313
40
0.3273401
50
119.5988578
51
183.9021304
0
ARC
8
DEFAULT_255_2_778
10
12.2116486
20
4.2118204
40
0.5414403
50
101.8452196
51
118.0964845
0
ARC
8
DEFAULT_255_2_778
10
12.3785431
20
3.5241668
40
1.248906
50
97.1889257
51
102.8631363
0
ARC
8
DEFAULT_255_2_778
10
12.3214849
20
4.9389984
40
0.3623354
50
291.2744519
51
301.6203501
0
ARC
8
DEFAULT_255_2_778
10
12.2839597
20
5.0950143
40
0.5217837
50
279.7421549
51
288.8975137
0
ARC
8
DEFAULT_255_2_778
10
12.393088
20
3.9849493
40
0.589864
50
98.6814863
51
109.6591187
0
ARC
8
DEFAULT_255_2_778
10
12.2649664
20
4.3536084
40
0.1996191
50
110.6270338
51
119.6703502
0
ARC
8
DEFAULT_255_2_778
10
12.2326494
20
4.4066093
40
0.1375825
50
118.9024228
51
182.9806996
0
ARC
8
DEFAULT_255_2_778
10
12.2286405
20
4.387267
40
0.133943
50
174.7791951
51
227.7913023
0
ARC
8
DEFAULT_255_2_778
10
12.2395634
20
4.4185343
40
0.1649476
50
232.2822776
51
269.9829167
0
ARC
8
DEFAULT_255_2_778
10
12.2395255
20
4.4170061
40
0.1634195
50
269.9960583
51
271.6577683
0
ARC
8
DEFAULT_255_2_778
10
12.2449821
20
4.4505274
40
0.1968738
50
269.7878484
51
270.0707898
0
ARC
8
DEFAULT_255_2_778
10
12.2452985
20
4.568247
40
0.3145935
50
269.9866645
51
305.0024877
0
ARC
8
DEFAULT_255_2_778
10
12.3066402
20
4.4738198
40
0.2020972
50
306.1133331
51
358.0155901
0
ARC
8
DEFAULT_255_2_778
10
12.0158054
20
4.5249884
40
0.4962317
50
353.2684906
51
358.9453815
0
ARC
8
DEFAULT_255_2_778
10
13.4960275
20
4.7733218
40
0.2676841
50
7.1101638
51
33.8829181
0
ARC
8
DEFAULT_255_2_778
10
13.5744152
20
4.8101053
40
0.1825768
50
38.0176184
51
94.354354
0
ARC
8
DEFAULT_255_2_778
10
13.5501216
20
4.7912084
40
0.2012172
50
87.0283367
51
165.5688495
0
ARC
8
DEFAULT_255_2_778
10
13.8631749
20
4.6704437
40
0.535906
50
161.402358
51
177.7266103
0
ARC
8
DEFAULT_255_2_778
10
14.3489213
20
4.6303915
40
1.0230695
50
176.5643249
51
180.0860473
0
ARC
8
DEFAULT_255_2_778
10
14.010397
20
4.6177924
40
0.6846332
50
179.0741508
51
192.7013381
0
ARC
8
DEFAULT_255_2_778
10
13.7012562
20
4.5543168
40
0.3691504
50
193.640106
51
200.3977276
0
ARC
8
DEFAULT_255_2_778
10
13.5509244
20
4.4827457
40
0.2038298
50
196.265566
51
272.1167878
0
ARC
8
DEFAULT_255_2_778
10
13.5710037
20
4.4797857
40
0.2011227
50
266.4222553
51
305.1006754
0
ARC
8
DEFAULT_255_2_778
10
13.5925199
20
4.4361276
40
0.1532156
50
307.9067513
51
319.1712066
0
ARC
8
DEFAULT_255_2_778
10
13.4802725
20
4.5031006
40
0.2828499
50
323.7766932
51
356.0578801
0
ARC
8
DEFAULT_255_2_778
10
13.5717819
20
4.5263057
40
0.4993959
50
322.7976319
51
355.1007076
0
ARC
8
DEFAULT_255_2_778
10
13.586495
20
4.5001076
40
0.4719883
50
270.0196914
51
324.2509698
0
ARC
8
DEFAULT_255_2_778
10
13.5507418
20
4.773948
40
0.746693
50
269.9778475
51
272.756949
0
ARC
8
DEFAULT_255_2_778
10
13.5374239
20
4.6802119
40
0.6530868
50
250.4961413
51
271.1431359
0
ARC
8
DEFAULT_255_2_778
10
13.4569418
20
4.4433167
40
0.4029273
50
218.5788318
51
250.0370753
0
ARC
8
DEFAULT_255_2_778
10
13.6311918
20
4.5677953
40
0.6168754
50
185.1278332
51
217.5246251
0
ARC
8
DEFAULT_255_2_778
10
13.9443523
20
4.6168613
40
0.9334014
50
179.8776156
51
186.4096309
0
ARC
8
DEFAULT_255_2_778
10
13.8957106
20
4.6312903
40
0.8848449
50
164.0391813
51
180.8052416
0
ARC
8
DEFAULT_255_2_778
10
13.5666495
20
4.7246145
40
0.5428074
50
139.2475155
51
163.959096
0
ARC
8
DEFAULT_255_2_778
10
13.5198048
20
4.7523445
40
0.4893124
50
91.3901138
51
138.1264615
0
ARC
8
DEFAULT_255_2_778
10
13.5542971
20
4.4970878
40
0.7458673
50
89.9649663
51
93.5637774
0
ARC
8
DEFAULT_255_2_778
10
13.5707569
20
4.5490155
40
0.694124
50
70.8028067
51
91.3211372
0
ARC
8
DEFAULT_255_2_778
10
13.65189
20
4.8061618
40
0.4246728
50
53.1875022
51
69.7323787
0
ARC
8
DEFAULT_255_2_778
10
13.6690937
20
4.8405375
40
0.3869032
50
16.3263022
51
52.1768068
0
ARC
8
DEFAULT_255_2_778
10
13.376287
20
4.7407772
40
0.6960757
50
5.1496409
51
17.4316258
0
ARC
8
DEFAULT_255_2_778
10
14.9707309
20
4.9043341
40
0.3377007
50
35.8795905
51
67.1156933
0
ARC
8
DEFAULT_255_2_778
10
15.0043712
20
4.9189745
40
0.3019653
50
9.6619989
51
37.3699312
0
ARC
8
DEFAULT_255_2_778
10
13.6596178
20
4.7798431
40
1.6533669
50
0.0154707
51
6.592278
0
ARC
8
DEFAULT_255_2_778
10
13.9857834
20
4.7800319
40
1.3272013
50
359.9666368
51
0.0111211
0
ARC
8
DEFAULT_255_2_778
10
13.6877
20
4.7802807
40
1.6252846
50
358.8427249
51
359.9639852
0
ARC
8
DEFAULT_255_2_778
10
14.6844199
20
4.7863841
40
0.3238177
50
358.0658571
51
25.4341101
0
ARC
8
DEFAULT_255_2_778
10
14.8399108
20
4.849968
40
0.1563697
50
28.8649654
51
95.4323499
0
ARC
8
DEFAULT_255_2_778
10
14.8215798
20
4.6849876
40
0.3206672
50
89.3697289
51
90.0047723
0
ARC
8
DEFAULT_255_2_778
10
14.8117946
20
4.7852216
40
0.2206493
50
87.4651925
51
140.3708741
0
ARC
8
DEFAULT_255_2_778
10
14.8739076
20
4.7568727
40
0.2871204
50
143.9217137
51
176.0245051
0
ARC
8
DEFAULT_255_2_778
10
15.2435135
20
4.7012732
40
0.6603663
50
173.4345104
51
180.244514
0
ARC
8
DEFAULT_255_2_778
10
14.8977988
20
4.8884498
40
0.3667403
50
116.5361349
51
149.0874417
0
ARC
8
DEFAULT_255_2_778
10
14.9143377
20
4.8265996
40
0.4296555
50
90.0246123
51
114.8241941
0
ARC
8
DEFAULT_255_2_778
10
14.9200843
20
4.7649575
40
0.4913333
50
90.0020181
51
90.6916704
0
ARC
8
DEFAULT_255_2_778
10
14.9201292
20
4.7687885
40
0.4875023
50
67.4917461
51
90.0073085
0
ARC
8
DEFAULT_255_2_778
10
16.1510149
20
4.77062
40
0.4688126
50
33.2774988
51
65.6577458
0
ARC
8
DEFAULT_255_2_778
10
16.0735162
20
4.7095479
40
0.5671776
50
8.5074427
51
34.1396824
0
ARC
8
DEFAULT_255_2_778
10
15.1731098
20
4.6149103
40
1.4722101
50
359.9597518
51
6.9657892
0
ARC
8
DEFAULT_255_2_778
10
15.1044517
20
4.6139541
40
1.540868
50
358.1925874
51
359.9970994
0
ARC
8
DEFAULT_255_2_778
10
16.1512825
20
4.5668982
40
0.3441328
50
180.2569225
51
210.2111636
0
ARC
8
DEFAULT_255_2_778
10
16.0460021
20
4.5139818
40
0.2266409
50
212.0434865
51
237.5375052
0
ARC
8
DEFAULT_255_2_778
10
16.0811973
20
4.5835547
40
0.3043297
50
238.9774281
51
270.0260437
0
ARC
8
DEFAULT_255_2_778
10
16.0813452
20
4.5844828
40
0.3052577
50
269.9982013
51
271.6722254
0
ARC
8
DEFAULT_255_2_778
10
16.1013816
20
4.536171
40
0.257057
50
267.5187908
51
269.9992573
0
ARC
8
DEFAULT_255_2_778
10
16.10168
20
4.5338745
40
0.2547606
50
269.9321314
51
307.6091263
0
ARC
8
DEFAULT_255_2_778
10
16.1236058
20
4.492734
40
0.2089321
50
309.7314493
51
337.0170687
0
ARC
8
DEFAULT_255_2_778
10
16.3493117
20
4.4455047
40
0.2756896
50
336.2997173
51
352.8426166
0
ARC
8
DEFAULT_255_2_778
10
16.2154071
20
4.5099614
40
0.4242411
50
315.3504936
51
335.5977844
0
ARC
8
DEFAULT_255_2_778
10
16.0896002
20
4.6196271
40
0.5909035
50
315.5540562
51
316.3584597
0
ARC
8
DEFAULT_255_2_778
10
16.1301401
20
4.5663323
40
0.5247318
50
274.8894313
51
316.6089235
0
ARC
8
DEFAULT_255_2_778
10
16.0806409
20
4.8542495
40
0.8161965
50
269.8745006
51
276.6291492
0
ARC
8
DEFAULT_255_2_778
10
16.0707586
20
4.6680451
40
0.630042
50
270.000211
51
270.7361364
0
ARC
8
DEFAULT_255_2_778
10
16.070698
20
4.6649983
40
0.6269954
50
230.7214984
51
270.0057473
0
ARC
8
DEFAULT_255_2_778
10
15.9673038
20
4.5302277
40
0.4572453
50
191.4313003
51
230.0590057
0
ARC
8
DEFAULT_255_2_778
10
16.3636433
20
4.6305821
40
0.8658387
50
179.3929815
51
192.7424485
0
ARC
8
DEFAULT_255_2_778
10
16.3168709
20
4.6526574
40
0.8191194
50
162.9542267
51
180.9025357
0
ARC
8
DEFAULT_255_2_778
10
16.0205813
20
4.7415939
40
0.5097784
50
135.6490887
51
162.749283
0
ARC
8
DEFAULT_255_2_778
10
16.0426197
20
4.7093213
40
0.5481513
50
89.0676173
51
134.847217
0
ARC
8
DEFAULT_255_2_778
10
16.0672176
20
4.4645747
40
0.7929803
50
89.9974304
51
91.132876
0
ARC
8
DEFAULT_255_2_778
10
16.0764525
20
4.5984763
40
0.6591429
50
89.9989066
51
90.7996831
0
ARC
8
DEFAULT_255_2_778
10
16.0764578
20
4.598679
40
0.6589404
50
66.6285633
51
89.9993661
0
ARC
8
DEFAULT_255_2_778
10
16.1245394
20
4.7277058
40
0.3116801
50
137.5794188
51
174.0240602
0
ARC
8
DEFAULT_255_2_778
10
16.0897093
20
4.7618733
40
0.2426499
50
359.5942747
51
47.87935
0
ARC
8
DEFAULT_255_2_778
10
16.0805081
20
4.7334338
40
0.2701934
50
50.4777709
51
89.9814209
0
ARC
8
DEFAULT_255_2_778
10
16.08059
20
4.7342103
40
0.269417
50
89.9987917
51
91.3264977
0
ARC
8
DEFAULT_255_2_778
10
16.0600541
20
4.7645516
40
0.2394308
50
86.5762169
51
133.5950081
0
ARC
8
DEFAULT_255_2_778
10
19.3016189
20
4.5294218
40
0.489494
50
278.7185759
51
319.7203897
0
ARC
8
DEFAULT_255_2_778
10
19.2369802
20
4.8204825
40
0.7872378
50
269.7069022
51
280.1577804
0
ARC
8
DEFAULT_255_2_778
10
19.2198916
20
4.7314226
40
0.6982898
50
250.618551
51
271.0717812
0
ARC
8
DEFAULT_255_2_778
10
19.141248
20
4.4964857
40
0.4505841
50
218.9949003
51
250.1380983
0
ARC
8
DEFAULT_255_2_778
10
19.3119116
20
4.6293706
40
0.6668549
50
178.6093089
51
218.6416143
0
ARC
8
DEFAULT_255_2_778
10
19.3129543
20
4.6595537
40
0.6678479
50
141.3951014
51
181.2010596
0
ARC
8
DEFAULT_255_2_778
10
19.1638827
20
4.7698473
40
0.4825842
50
97.3195635
51
140.585131
0
ARC
8
DEFAULT_255_2_778
10
19.2293242
20
4.4531778
40
0.8053854
50
89.7418384
51
99.0673066
0
ARC
8
DEFAULT_255_2_778
10
19.2458578
20
4.5690197
40
0.6896561
50
70.3608758
51
91.0721681
0
ARC
8
DEFAULT_255_2_778
10
19.3219945
20
4.7945565
40
0.4516686
50
38.5856728
51
69.8415178
0
ARC
8
DEFAULT_255_2_778
10
19.1510089
20
4.6588284
40
0.6699756
50
358.8648005
51
38.539025
0
ARC
8
DEFAULT_255_2_778
10
19.1558593
20
4.6288094
40
0.6652046
50
321.3066063
51
1.442495
0
ARC
8
DEFAULT_255_2_778
10
19.128227
20
4.5927051
40
0.3736619
50
325.1446742
51
355.2606366
0
ARC
8
DEFAULT_255_2_778
10
18.8179012
20
4.6407406
40
0.6872552
50
353.4069261
51
0.1762787
0
ARC
8
DEFAULT_255_2_778
10
18.9639296
20
4.6554407
40
0.5413698
50
358.6678775
51
19.6549336
0
ARC
8
DEFAULT_255_2_778
10
19.1974966
20
4.7328668
40
0.295423
50
20.7500993
51
36.5395446
0
ARC
8
DEFAULT_255_2_778
10
19.2430473
20
4.7589349
40
0.2433835
50
37.9935212
51
93.1311983
0
ARC
8
DEFAULT_255_2_778
10
19.2172349
20
4.7611338
40
0.2411464
50
87.0243632
51
142.2538271
0
ARC
8
DEFAULT_255_2_778
10
19.3172991
20
4.6998967
40
0.3579875
50
144.3082967
51
174.5814986
0
ARC
8
DEFAULT_255_2_778
10
19.6520698
20
4.6458213
40
0.6967231
50
172.7537883
51
180.2439374
0
ARC
8
DEFAULT_255_2_778
10
19.4989418
20
4.6302619
40
0.5437345
50
178.6728815
51
198.2023997
0
ARC
8
DEFAULT_255_2_778
10
19.2487768
20
4.5524761
40
0.2818218
50
199.0668755
51
217.9520863
0
ARC
8
DEFAULT_255_2_778
10
19.2204763
20
4.5325192
40
0.2472383
50
218.3387056
51
272.1503386
0
ARC
8
DEFAULT_255_2_778
10
19.24152
20
4.5310203
40
0.245847
50
267.2566148
51
321.8499698
0
ARC
8
DEFAULT_255_2_778
10
20.6209379
20
4.5297157
40
0.489822
50
278.7420392
51
319.7078585
0
ARC
8
DEFAULT_255_2_778
10
20.5566696
20
4.8191088
40
0.785864
50
269.7071645
51
280.1666595
0
ARC
8
DEFAULT_255_2_778
10
20.5397514
20
4.7316023
40
0.6984664
50
250.6217696
51
271.0584022
0
ARC
8
DEFAULT_255_2_778
10
20.4613591
20
4.4977148
40
0.4518329
50
219.0672724
51
250.1584994
0
ARC
8
DEFAULT_255_2_778
10
20.6297464
20
4.6288093
40
0.6652041
50
178.5574934
51
218.6934104
0
ARC
8
DEFAULT_255_2_778
10
20.6324552
20
4.6595536
40
0.6678488
50
141.3951386
51
181.2010464
0
ARC
8
DEFAULT_255_2_778
10
20.4833694
20
4.7698393
40
0.4825791
50
97.3073071
51
140.5833952
0
ARC
8
DEFAULT_255_2_778
10
20.5490105
20
4.4519645
40
0.8065987
50
89.7412517
51
99.0604948
0
ARC
8
DEFAULT_255_2_778
10
20.5656808
20
4.5692017
40
0.6894764
50
70.3577142
51
91.0826734
0
ARC
8
DEFAULT_255_2_778
10
20.6420863
20
4.7957032
40
0.4504911
50
38.5186159
51
69.8262806
0
ARC
8
DEFAULT_255_2_778
10
20.4687532
20
4.6587016
40
0.6714286
50
358.8780756
51
38.4541406
0
ARC
8
DEFAULT_255_2_778
10
20.4736236
20
4.6289323
40
0.6666368
50
321.3916251
51
1.4288329
0
ARC
8
DEFAULT_255_2_778
10
20.4483723
20
4.592637
40
0.3730116
50
325.0878312
51
355.2628467
0
ARC
8
DEFAULT_255_2_778
10
20.1377548
20
4.6407342
40
0.6869016
50
353.4040499
51
0.1768988
0
ARC
8
DEFAULT_255_2_778
10
20.2841124
20
4.6554734
40
0.540688
50
358.6627279
51
19.6770669
0
ARC
8
DEFAULT_255_2_778
10
20.5174588
20
4.7329021
40
0.2949504
50
20.7775452
51
36.5990538
0
ARC
8
DEFAULT_255_2_778
10
20.5625407
20
4.759126
40
0.2431923
50
37.9715668
51
93.1321009
0
ARC
8
DEFAULT_255_2_778
10
20.5366756
20
4.7612631
40
0.2410204
50
87.0086938
51
142.2695009
0
ARC
8
DEFAULT_255_2_778
10
20.6367991
20
4.6998967
40
0.3579875
50
144.3082967
51
174.5814986
0
ARC
8
DEFAULT_255_2_778
10
20.9715698
20
4.6458213
40
0.6967231
50
172.7537883
51
180.2439374
0
ARC
8
DEFAULT_255_2_778
10
20.8184418
20
4.6302619
40
0.5437345
50
178.6728815
51
198.2023997
0
ARC
8
DEFAULT_255_2_778
10
20.5682768
20
4.5524761
40
0.2818218
50
199.0668755
51
217.9520863
0
ARC
8
DEFAULT_255_2_778
10
20.5399764
20
4.5325195
40
0.2472386
50
218.3387605
51
272.1503179
0
ARC
8
DEFAULT_255_2_778
10
20.5610736
20
4.5306971
40
0.2455267
50
267.2405267
51
321.8871595
0
ARC
8
DEFAULT_255_2_778
10
23.1093206
20
4.7708447
40
0.4692674
50
33.2520777
51
65.6166189
0
ARC
8
DEFAULT_255_2_778
10
23.031805
20
4.709648
40
0.5677129
50
8.5197644
51
34.1274296
0
ARC
8
DEFAULT_255_2_778
10
22.1364847
20
4.615164
40
1.4676747
50
359.9832761
51
6.9892423
0
ARC
8
DEFAULT_255_2_778
10
22.1073794
20
4.6147748
40
1.4967799
50
358.1193873
51
359.9984978
0
ARC
8
DEFAULT_255_2_778
10
23.1108321
20
4.5673009
40
0.344883
50
180.2734382
51
209.9979346
0
ARC
8
DEFAULT_255_2_778
10
23.0048514
20
4.5143893
40
0.2267582
50
211.8082058
51
237.5415668
0
ARC
8
DEFAULT_255_2_778
10
23.0404509
20
4.5855909
40
0.3060517
50
239.0721586
51
270.0298278
0
ARC
8
DEFAULT_255_2_778
10
23.0406066
20
4.5871151
40
0.307576
50
270.000672
51
271.5736272
0
ARC
8
DEFAULT_255_2_778
10
23.0609181
20
4.5330949
40
0.2537175
50
267.31962
51
307.665759
0
ARC
8
DEFAULT_255_2_778
10
23.081767
20
4.4934088
40
0.2097056
50
309.7827484
51
336.9657855
0
ARC
8
DEFAULT_255_2_778
10
23.3088256
20
4.4456467
40
0.2749742
50
336.4079479
51
352.8360743
0
ARC
8
DEFAULT_255_2_778
10
23.1763099
20
4.5092372
40
0.4218967
50
315.2717703
51
335.6963224
0
ARC
8
DEFAULT_255_2_778
10
23.0498376
20
4.6198875
40
0.5897104
50
315.4728792
51
316.2815408
0
ARC
8
DEFAULT_255_2_778
10
23.0889401
20
4.5668323
40
0.5247318
50
274.8894313
51
316.6089235
0
ARC
8
DEFAULT_255_2_778
10
23.0394409
20
4.8547495
40
0.8161965
50
269.8745006
51
276.6291492
0
ARC
8
DEFAULT_255_2_778
10
23.0287536
20
4.6631262
40
0.6246345
50
269.9989672
51
270.8163515
0
ARC
8
DEFAULT_255_2_778
10
23.0286573
20
4.6630954
40
0.6246038
50
230.6416478
51
270.0078046
0
ARC
8
DEFAULT_255_2_778
10
22.9277175
20
4.5317811
40
0.4590892
50
191.2620713
51
229.9890029
0
ARC
8
DEFAULT_255_2_778
10
23.3242468
20
4.631242
40
0.8676403
50
179.404803
51
192.5898324
0
ARC
8
DEFAULT_255_2_778
10
23.2757906
20
4.6531507
40
0.8192389
50
162.9555055
51
180.9019328
0
ARC
8
DEFAULT_255_2_778
10
22.9799632
20
4.7419131
40
0.5103909
50
135.6722066
51
162.7481093
0
ARC
8
DEFAULT_255_2_778
10
23.0014485
20
4.7095053
40
0.5484667
50
89.0711648
51
134.8186999
0
ARC
8
DEFAULT_255_2_778
10
23.0260176
20
4.4650747
40
0.7929803
50
89.9974304
51
91.132876
0
ARC
8
DEFAULT_255_2_778
10
23.0359156
20
4.6043949
40
0.6537345
50
90.000157
51
90.8644195
0
ARC
8
DEFAULT_255_2_778
10
23.0358944
20
4.6033362
40
0.6547931
50
66.5514601
51
89.9983032
0
ARC
8
DEFAULT_255_2_778
10
23.0814725
20
4.7290063
40
0.3095416
50
137.4182352
51
174.131598
0
ARC
8
DEFAULT_255_2_778
10
23.0490253
20
4.7626113
40
0.2423357
50
359.5374715
51
47.9128917
0
ARC
8
DEFAULT_255_2_778
10
23.0397185
20
4.7342241
40
0.2699127
50
50.4865201
51
89.9837757
0
ARC
8
DEFAULT_255_2_778
10
23.0397903
20
4.7348365
40
0.2693004
50
89.9990002
51
91.4122465
0
ARC
8
DEFAULT_255_2_778
10
23.0188541
20
4.7650516
40
0.2394308
50
86.5762169
51
133.5950081
0
LINE
8
DEFAULT_255_2_778
10
9.4618531
20
5.627155
11
9.8293531
21
5.627155
0
LINE
8
DEFAULT_255_2_778
10
9.8293531
20
5.627155
11
10.3794531
21
4.072155
0
LINE
8
DEFAULT_255_2_778
10
10.3794531
20
4.072155
11
10.0272531
21
4.072155
0
LINE
8
DEFAULT_255_2_778
10
10.0272531
20
4.072155
11
9.9246531
21
4.394455
0
LINE
8
DEFAULT_255_2_778
10
9.9246531
20
4.394455
11
9.3518531
21
4.394455
0
LINE
8
DEFAULT_255_2_778
10
9.3518531
20
4.394455
11
9.2462531
21
4.072155
0
LINE
8
DEFAULT_255_2_778
10
9.2462531
20
4.072155
11
8.9062531
21
4.072155
0
LINE
8
DEFAULT_255_2_778
10
8.9062531
20
4.072155
11
9.4618531
21
5.627155
0
LINE
8
DEFAULT_255_2_778
10
9.4404531
20
4.659855
11
9.8383531
21
4.659855
0
LINE
8
DEFAULT_255_2_778
10
9.8383531
20
4.659855
11
9.6420531
21
5.271555
0
LINE
8
DEFAULT_255_2_778
10
9.6420531
20
5.271555
11
9.4404531
21
4.659855
0
LINE
8
DEFAULT_255_2_778
10
10.8416531
20
4.215855
11
10.8416531
21
3.616855
0
LINE
8
DEFAULT_255_2_778
10
10.8416531
20
3.616855
11
10.5442531
21
3.616855
0
LINE
8
DEFAULT_255_2_778
10
10.5442531
20
3.616855
11
10.5442531
21
5.221555
0
LINE
8
DEFAULT_255_2_778
10
10.5442531
20
5.221555
11
10.8321531
21
5.221555
0
LINE
8
DEFAULT_255_2_778
10
10.8321531
20
5.221555
11
10.8321531
21
5.051455
0
LINE
8
DEFAULT_255_2_778
10
11.5195531
20
5.097955
11
11.5195531
21
5.098555
0
LINE
8
DEFAULT_255_2_778
10
11.2917531
20
4.882855
11
11.2888531
21
4.882055
0
LINE
8
DEFAULT_255_2_778
10
12.1177531
20
4.854855
11
11.8246531
21
4.854855
0
LINE
8
DEFAULT_255_2_778
10
12.8072531
20
4.896855
11
12.8072531
21
4.369355
0
LINE
8
DEFAULT_255_2_778
10
12.8072531
20
4.369355
11
12.8093531
21
4.236455
0
LINE
8
DEFAULT_255_2_778
10
12.8707531
20
4.120855
11
12.8707531
21
4.076955
0
LINE
8
DEFAULT_255_2_778
10
12.8707531
20
4.076955
11
12.5461531
21
4.076955
0
LINE
8
DEFAULT_255_2_778
10
12.5270531
20
4.142355
11
12.5186531
21
4.211655
0
LINE
8
DEFAULT_255_2_778
10
12.2222531
20
4.763255
11
12.3275531
21
4.771255
0
LINE
8
DEFAULT_255_2_778
10
12.3722531
20
4.580755
11
12.3040531
21
4.568055
0
LINE
8
DEFAULT_255_2_778
10
12.5119531
20
4.515855
11
12.5119531
21
4.627855
0
LINE
8
DEFAULT_255_2_778
10
12.5119531
20
4.627855
11
12.5114531
21
4.630455
0
LINE
8
DEFAULT_255_2_778
10
13.7624531
20
4.483655
11
14.0693531
21
4.483655
0
LINE
8
DEFAULT_255_2_778
10
14.0695531
20
4.803255
11
13.7618531
21
4.803255
0
LINE
8
DEFAULT_255_2_778
10
13.7618531
20
4.803255
11
13.7616531
21
4.806455
0
LINE
8
DEFAULT_255_2_778
10
15.3126531
20
4.747455
11
15.3126531
21
4.071955
0
LINE
8
DEFAULT_255_2_778
10
15.3126531
20
4.071955
11
15.0080531
21
4.071955
0
LINE
8
DEFAULT_255_2_778
10
15.0080531
20
4.071955
11
15.0080531
21
4.775455
0
LINE
8
DEFAULT_255_2_778
10
14.5831531
20
4.698455
11
14.5831531
21
4.075355
0
LINE
8
DEFAULT_255_2_778
10
14.5831531
20
4.075355
11
14.2825531
21
4.075355
0
LINE
8
DEFAULT_255_2_778
10
14.2825531
20
4.075355
11
14.2825531
21
5.625055
0
LINE
8
DEFAULT_255_2_778
10
14.2825531
20
5.625055
11
14.5831531
21
5.625055
0
LINE
8
DEFAULT_255_2_778
10
14.5831531
20
5.625055
11
14.5831531
21
5.076855
0
LINE
8
DEFAULT_255_2_778
10
15.1067531
20
5.219155
11
15.1020531
21
5.215455
0
LINE
8
DEFAULT_255_2_778
10
16.6445531
20
4.565355
11
15.8071531
21
4.565355
0
LINE
8
DEFAULT_255_2_778
10
16.3159531
20
4.411155
11
16.6228531
21
4.411155
0
LINE
8
DEFAULT_255_2_778
10
16.3378531
20
5.203555
11
16.3442531
21
5.197755
0
LINE
8
DEFAULT_255_2_778
10
15.8145531
20
4.760155
11
16.3323531
21
4.760155
0
LINE
8
DEFAULT_255_2_778
10
15.8949531
20
4.937955
11
15.8944531
21
4.937955
0
LINE
8
DEFAULT_255_2_778
10
17.3112531
20
4.345755
11
18.1026531
21
5.351155
0
LINE
8
DEFAULT_255_2_778
10
18.1026531
20
5.351155
11
17.3279531
21
5.351155
0
LINE
8
DEFAULT_255_2_778
10
17.3279531
20
5.351155
11
17.3279531
21
5.626655
0
LINE
8
DEFAULT_255_2_778
10
17.3279531
20
5.626655
11
18.5061531
21
5.626655
0
LINE
8
DEFAULT_255_2_778
10
18.5061531
20
5.626655
11
18.5061531
21
5.362855
0
LINE
8
DEFAULT_255_2_778
10
18.5061531
20
5.362855
11
17.7012531
21
4.342855
0
LINE
8
DEFAULT_255_2_778
10
17.7012531
20
4.342855
11
18.5085531
21
4.342855
0
LINE
8
DEFAULT_255_2_778
10
18.5085531
20
4.342855
11
18.5085531
21
4.068455
0
LINE
8
DEFAULT_255_2_778
10
18.5085531
20
4.068455
11
17.3080531
21
4.068455
0
LINE
8
DEFAULT_255_2_778
10
17.3080531
20
4.068455
11
17.3112531
21
4.345755
0
LINE
8
DEFAULT_255_2_778
10
19.6750531
20
4.212955
11
19.6750531
21
4.212955
0
LINE
8
DEFAULT_255_2_778
10
19.4348531
20
4.379155
11
19.4348531
21
4.379155
0
LINE
8
DEFAULT_255_2_778
10
20.9945531
20
4.212955
11
20.9945531
21
4.212955
0
LINE
8
DEFAULT_255_2_778
10
20.7542531
20
4.379155
11
20.7542531
21
4.379155
0
LINE
8
DEFAULT_255_2_778
10
21.3522531
20
5.621855
11
21.6477531
21
5.621855
0
LINE
8
DEFAULT_255_2_778
10
21.6477531
20
5.621855
11
21.6477531
21
4.783155
0
LINE
8
DEFAULT_255_2_778
10
21.6477531
20
4.783155
11
22.0269531
21
5.217055
0
LINE
8
DEFAULT_255_2_778
10
22.0269531
20
5.217055
11
22.4005531
21
5.217055
0
LINE
8
DEFAULT_255_2_778
10
22.4005531
20
5.217055
11
21.9883531
21
4.789255
0
LINE
8
DEFAULT_255_2_778
10
21.9883531
20
4.789255
11
22.4161531
21
4.073255
0
LINE
8
DEFAULT_255_2_778
10
22.4161531
20
4.073255
11
22.0502531
21
4.073255
0
LINE
8
DEFAULT_255_2_778
10
22.0502531
20
4.073255
11
21.7721531
21
4.564055
0
LINE
8
DEFAULT_255_2_778
10
21.7721531
20
4.564055
11
21.6475531
21
4.434455
0
LINE
8
DEFAULT_255_2_778
10
21.6475531
20
4.434455
11
21.6475531
21
4.072755
0
LINE
8
DEFAULT_255_2_778
10
21.6475531
20
4.072755
11
21.3519531
21
4.072755
0
LINE
8
DEFAULT_255_2_778
10
21.3519531
20
4.072755
11
21.3522531
21
5.621855
0
LINE
8
DEFAULT_255_2_778
10
23.6033531
20
4.565655
11
22.7659531
21
4.565655
0
LINE
8
DEFAULT_255_2_778
10
23.2747531
20
4.411355
11
23.5816531
21
4.411355
0
LINE
8
DEFAULT_255_2_778
10
23.2964531
20
5.204055
11
23.3030531
21
5.198255
0
LINE
8
DEFAULT_255_2_778
10
22.7735531
20
4.760655
11
23.2913531
21
4.760655
0
LINE
8
DEFAULT_255_2_778
10
22.8537531
20
4.938455
11
22.8535531
21
4.938455
0
ARC
8
DEFAULT_255_2_778
10
24.3136244
20
4.7739387
40
0.465419
50
33.1145172
51
65.754109
0
ARC
8
DEFAULT_255_2_778
10
24.2327672
20
4.7094752
40
0.5684457
50
8.2358249
51
34.1043487
0
ARC
8
DEFAULT_255_2_778
10
23.8230145
20
4.6555804
40
0.9817074
50
1.8681032
51
7.923159
0
ARC
8
DEFAULT_255_2_778
10
22.8080304
20
4.6097025
40
1.9976883
50
359.9174973
51
2.2342559
0
ARC
8
DEFAULT_255_2_778
10
22.0758431
20
4.6075219
40
2.7298734
50
359.0613947
51
359.9853936
0
ARC
8
DEFAULT_255_2_778
10
24.3136583
20
4.564724
40
0.3457133
50
180.3182511
51
209.9710002
0
ARC
8
DEFAULT_255_2_778
10
24.2067352
20
4.5113487
40
0.2265376
50
211.7864527
51
237.5400801
0
ARC
8
DEFAULT_255_2_778
10
24.2418205
20
4.5802792
40
0.3036194
50
238.935114
51
269.9801092
0
ARC
8
DEFAULT_255_2_778
10
24.2417107
20
4.5796096
40
0.3029499
50
270.0008477
51
271.7666604
0
ARC
8
DEFAULT_255_2_778
10
24.2625737
20
4.5334162
40
0.256871
50
267.4288304
51
269.9988125
0
ARC
8
DEFAULT_255_2_778
10
24.2627921
20
4.5309891
40
0.2544441
50
269.9496184
51
307.6029753
0
ARC
8
DEFAULT_255_2_778
10
24.2839615
20
4.4902419
40
0.2094008
50
309.8175819
51
337.0241655
0
ARC
8
DEFAULT_255_2_778
10
24.5147456
20
4.4411997
40
0.2708852
50
336.3985591
51
353.0674878
0
ARC
8
DEFAULT_255_2_778
10
24.3810688
20
4.5051277
40
0.4190059
50
315.505791
51
335.7066093
0
ARC
8
DEFAULT_255_2_778
10
24.2543241
20
4.615262
40
0.5866917
50
315.4259369
51
316.5084283
0
ARC
8
DEFAULT_255_2_778
10
24.2917906
20
4.562636
40
0.5231879
50
275.2500912
51
316.6517785
0
ARC
8
DEFAULT_255_2_778
10
24.2415852
20
4.8481844
40
0.8124829
50
269.8635521
51
276.9333568
0
ARC
8
DEFAULT_255_2_778
10
24.2307508
20
4.6602749
40
0.6246345
50
269.9989672
51
270.8163515
0
ARC
8
DEFAULT_255_2_778
10
24.2305862
20
4.6597734
40
0.6241331
50
230.6261907
51
270.0140843
0
ARC
8
DEFAULT_255_2_778
10
24.1295424
20
4.5289374
40
0.4589199
50
191.2592314
51
230.015641
0
ARC
8
DEFAULT_255_2_778
10
24.5260791
20
4.6283882
40
0.8674756
50
179.4045222
51
192.5878358
0
ARC
8
DEFAULT_255_2_778
10
24.4770033
20
4.6502698
40
0.8184541
50
162.9388636
51
180.9007195
0
ARC
8
DEFAULT_255_2_778
10
24.1808677
20
4.739301
40
0.5092328
50
135.6296917
51
162.7396416
0
ARC
8
DEFAULT_255_2_778
10
24.2037838
20
4.7055135
40
0.5493013
50
89.1078428
51
134.7819179
0
ARC
8
DEFAULT_255_2_778
10
24.2279948
20
4.4659876
40
0.788916
50
89.9959638
51
91.1372593
0
ARC
8
DEFAULT_255_2_778
10
24.2379137
20
4.6011315
40
0.6538466
50
90.0001569
51
90.8643494
0
ARC
8
DEFAULT_255_2_778
10
24.2377982
20
4.5986207
40
0.6563574
50
66.6017885
51
89.9900733
0
ARC
8
DEFAULT_255_2_778
10
24.2856626
20
4.7281079
40
0.3120196
50
137.5999168
51
174.0035095
0
ARC
8
DEFAULT_255_2_778
10
24.2504673
20
4.7625039
40
0.2426897
50
359.5750088
51
47.8753546
0
ARC
8
DEFAULT_255_2_778
10
24.2415158
20
4.7342729
40
0.2699127
50
50.4865201
51
89.9837757
0
ARC
8
DEFAULT_255_2_778
10
24.2415875
20
4.7348852
40
0.2693004
50
89.9990002
51
91.4122465
0
ARC
8
DEFAULT_255_2_778
10
24.2206514
20
4.7651004
40
0.2394308
50
86.5762169
51
133.5950081
0
ARC
8
DEFAULT_255_2_778
10
25.5492526
20
4.7595948
40
0.5049267
50
10.342651
51
42.1753864
0
ARC
8
DEFAULT_255_2_778
10
25.1383914
20
4.6670137
40
0.9258954
50
359.49195
51
11.4140686
0
ARC
8
DEFAULT_255_2_778
10
25.0798217
20
4.6461434
40
0.9845101
50
346.6978393
51
0.7368179
0
ARC
8
DEFAULT_255_2_778
10
25.5186798
20
4.5385504
40
0.5326839
50
319.9516742
51
347.0991557
0
ARC
8
DEFAULT_255_2_778
10
25.5845854
20
4.4825187
40
0.4461806
50
269.9912235
51
320.0141435
0
ARC
8
DEFAULT_255_2_778
10
25.5845259
20
4.4840223
40
0.447684
50
268.4415423
51
269.9988636
0
ARC
8
DEFAULT_255_2_778
10
25.5581187
20
4.4062711
40
0.3700411
50
234.5029661
51
272.2041217
0
ARC
8
DEFAULT_255_2_778
10
25.6191999
20
4.4462568
40
0.4388642
50
211.6604653
51
231.039738
0
ARC
8
DEFAULT_255_2_778
10
25.6442749
20
4.7975197
40
0.4807012
50
129.262685
51
148.1051698
0
ARC
8
DEFAULT_255_2_778
10
25.5706929
20
4.8633401
40
0.3834771
50
89.996993
51
126.9738625
0
ARC
8
DEFAULT_255_2_778
10
25.5707083
20
4.8626304
40
0.3841868
50
88.6066383
51
89.9992967
0
ARC
8
DEFAULT_255_2_778
10
25.5873357
20
4.7954002
40
0.4513624
50
89.9972421
51
90.9248452
0
ARC
8
DEFAULT_255_2_778
10
25.5872076
20
4.7923748
40
0.4543878
50
42.2693748
51
89.9811057
0
ARC
8
DEFAULT_255_2_778
10
25.5096713
20
4.771458
40
0.2139168
50
31.1471092
51
94.187671
0
ARC
8
DEFAULT_255_2_778
10
25.4817959
20
4.7581201
40
0.2270146
50
86.9056111
51
89.9997513
0
ARC
8
DEFAULT_255_2_778
10
25.4818188
20
4.7594542
40
0.2256807
50
90.0055693
51
161.8636833
0
ARC
8
DEFAULT_255_2_778
10
25.7445525
20
4.6621816
40
0.5057525
50
160.656336
51
179.4761254
0
ARC
8
DEFAULT_255_2_778
10
26.3806693
20
4.6221874
40
1.1427196
50
177.7622735
51
180.0593476
0
ARC
8
DEFAULT_255_2_778
10
25.711083
20
4.6083707
40
0.4733013
50
178.470517
51
200.0618687
0
ARC
8
DEFAULT_255_2_778
10
25.4920599
20
4.5309696
40
0.2410288
50
200.6390077
51
232.595676
0
ARC
8
DEFAULT_255_2_778
10
25.4910405
20
4.5384132
40
0.2463803
50
233.8355758
51
271.3744771
0
ARC
8
DEFAULT_255_2_778
10
25.5078321
20
4.5128907
40
0.2210549
50
267.1783789
51
269.9998355
0
ARC
8
DEFAULT_255_2_778
10
25.50794
20
4.5113843
40
0.2195487
50
269.9716739
51
326.1853681
0
ARC
8
DEFAULT_255_2_778
10
25.3497106
20
4.6089931
40
0.4053921
50
327.1688794
51
356.898528
0
ARC
8
DEFAULT_255_2_778
10
25.0598608
20
4.6465429
40
0.6971904
50
355.1056455
51
0.095398
0
ARC
8
DEFAULT_255_2_778
10
25.2860537
20
4.6545942
40
0.471047
50
359.1618511
51
359.9997906
0
ARC
8
DEFAULT_255_2_778
10
25.2833802
20
4.6544066
40
0.4737205
50
0.0224888
51
28.8387308
0
ARC
8
DEFAULT_255_2_778
10
26.8347857
20
4.7741771
40
0.4647387
50
33.0899851
51
65.7787038
0
ARC
8
DEFAULT_255_2_778
10
26.7547147
20
4.7093579
40
0.5673106
50
8.5298233
51
34.1597185
0
ARC
8
DEFAULT_255_2_778
10
26.402227
20
4.662361
40
0.9228885
50
1.7917413
51
8.1694013
0
ARC
8
DEFAULT_255_2_778
10
25.3304922
20
4.6145525
40
1.9956453
50
359.9092977
51
2.2016019
0
ARC
8
DEFAULT_255_2_778
10
24.4709582
20
4.6122989
40
2.8551771
50
359.0588975
51
359.981826
0
ARC
8
DEFAULT_255_2_778
10
26.8333066
20
4.5672211
40
0.344961
50
180.3018468
51
210.1837735
0
ARC
8
DEFAULT_255_2_778
10
26.7270823
20
4.513838
40
0.2264157
50
212.0216957
51
237.5363359
0
ARC
8
DEFAULT_255_2_778
10
26.7623945
20
4.5836035
40
0.3043297
50
238.9774281
51
270.0260437
0
ARC
8
DEFAULT_255_2_778
10
26.7625424
20
4.5845315
40
0.3052577
50
269.9982013
51
271.6722254
0
ARC
8
DEFAULT_255_2_778
10
26.7828861
20
4.5341168
40
0.2549696
50
267.4293397
51
307.5988078
0
ARC
8
DEFAULT_255_2_778
10
26.8050122
20
4.4924586
40
0.208613
50
309.7652991
51
337.0766051
0
ARC
8
DEFAULT_255_2_778
10
27.0321435
20
4.4451349
40
0.2740158
50
337.1867131
51
352.8868687
0
ARC
8
DEFAULT_255_2_778
10
26.9048768
20
4.5047415
40
0.4144758
50
315.5110122
51
336.412731
0
ARC
8
DEFAULT_255_2_778
10
26.7783121
20
4.6143211
40
0.5816508
50
315.4263467
51
316.5473985
0
ARC
8
DEFAULT_255_2_778
10
26.8123812
20
4.5651208
40
0.5229702
50
275.2372099
51
316.6466163
0
ARC
8
DEFAULT_255_2_778
10
26.7620889
20
4.8513351
40
0.8129334
50
269.8633688
51
276.9259432
0
ARC
8
DEFAULT_255_2_778
10
26.7508271
20
4.6646124
40
0.6262781
50
270.0015082
51
270.8529797
0
ARC
8
DEFAULT_255_2_778
10
26.7508773
20
4.6624835
40
0.624149
50
230.6403271
51
269.9969081
0
ARC
8
DEFAULT_255_2_778
10
26.6508116
20
4.5319889
40
0.4598246
50
191.2855565
51
229.9688069
0
ARC
8
DEFAULT_255_2_778
10
27.0453271
20
4.6310308
40
0.8663231
50
179.4065487
51
192.6031588
0
ARC
8
DEFAULT_255_2_778
10
26.9980542
20
4.6528793
40
0.819105
50
162.9456796
51
180.9006676
0
ARC
8
DEFAULT_255_2_778
10
26.7024008
20
4.7416674
40
0.510416
50
135.6758214
51
162.7408378
0
ARC
8
DEFAULT_255_2_778
10
26.7239127
20
4.7090881
40
0.5486316
50
89.0775173
51
134.8114449
0
ARC
8
DEFAULT_255_2_778
10
26.7484151
20
4.4656735
40
0.7921303
50
89.9974539
51
91.1334816
0
ARC
8
DEFAULT_255_2_778
10
26.7576406
20
4.6000411
40
0.6578269
50
89.9988763
51
90.8004875
0
ARC
8
DEFAULT_255_2_778
10
26.757554
20
4.5982857
40
0.6595825
50
66.6620227
51
89.9913521
0
ARC
8
DEFAULT_255_2_778
10
26.805745
20
4.7280856
40
0.3113763
50
137.5610253
51
174.0424639
0
ARC
8
DEFAULT_255_2_778
10
26.7715031
20
4.7623516
40
0.2423551
50
359.5395122
51
47.9108143
0
ARC
8
DEFAULT_255_2_778
10
26.7622158
20
4.7339729
40
0.2699127
50
50.4865201
51
89.9837757
0
ARC
8
DEFAULT_255_2_778
10
26.7622875
20
4.7345852
40
0.2693004
50
89.9990002
51
91.4122465
0
ARC
8
DEFAULT_255_2_778
10
26.741035
20
4.765665
40
0.2385869
50
86.4879759
51
133.6831535
0
ARC
8
DEFAULT_255_2_778
10
28.043326
20
4.6035279
40
0.3410134
50
87.8616025
51
115.9695212
0
ARC
8
DEFAULT_255_2_778
10
27.9797182
20
4.7459149
40
0.1852222
50
117.5674865
51
154.2774691
0
ARC
8
DEFAULT_255_2_778
10
28.1078077
20
4.6855954
40
0.3268007
50
154.4966833
51
176.0029097
0
ARC
8
DEFAULT_255_2_778
10
28.6013865
20
4.6256862
40
0.8237452
50
174.2388386
51
180.2700416
0
ARC
8
DEFAULT_255_2_778
10
28.5796725
20
4.5384678
40
0.9491346
50
140.9945722
51
149.4429674
0
ARC
8
DEFAULT_255_2_778
10
28.0917565
20
4.932085
40
0.3222438
50
130.2026787
51
140.7782298
0
ARC
8
DEFAULT_255_2_778
10
28.0887476
20
4.9162948
40
0.3325961
50
87.6139916
51
128.0504264
0
ARC
8
DEFAULT_255_2_778
10
28.1033863
20
4.8999721
40
0.3486315
50
89.956603
51
90.1301935
0
LINE
8
DEFAULT_255_2_778
10
24.8053503
20
4.5628038
11
23.9679503
21
4.5628038
0
LINE
8
DEFAULT_255_2_778
10
24.4767503
20
4.4085038
11
24.7836503
21
4.4085038
0
LINE
8
DEFAULT_255_2_778
10
24.4984503
20
5.2010038
11
24.5047503
21
5.1983038
0
LINE
8
DEFAULT_255_2_778
10
23.9753503
20
4.7607038
11
24.4931503
21
4.7607038
0
LINE
8
DEFAULT_255_2_778
10
24.0555503
20
4.9385038
11
24.0552503
21
4.9385038
0
LINE
8
DEFAULT_255_2_778
10
25.2456503
20
4.2159038
11
25.2456503
21
3.6169038
0
LINE
8
DEFAULT_255_2_778
10
25.2456503
20
3.6169038
11
24.9482503
21
3.6169038
0
LINE
8
DEFAULT_255_2_778
10
24.9482503
20
3.6169038
11
24.9482503
21
5.2216038
0
LINE
8
DEFAULT_255_2_778
10
24.9482503
20
5.2216038
11
25.2361503
21
5.2216038
0
LINE
8
DEFAULT_255_2_778
10
25.2361503
20
5.2216038
11
25.2361503
21
5.0515038
0
LINE
8
DEFAULT_255_2_778
10
25.9234503
20
5.0980038
11
25.9234503
21
5.0986038
0
LINE
8
DEFAULT_255_2_778
10
25.6983503
20
4.8829038
11
25.6927503
21
4.8821038
0
LINE
8
DEFAULT_255_2_778
10
27.3257503
20
4.5654038
11
26.4883503
21
4.5654038
0
LINE
8
DEFAULT_255_2_778
10
26.9971503
20
4.4112038
11
27.3040503
21
4.4112038
0
LINE
8
DEFAULT_255_2_778
10
27.0188503
20
5.2039038
11
27.0254503
21
5.1980038
0
LINE
8
DEFAULT_255_2_778
10
26.4960503
20
4.7604038
11
27.0138503
21
4.7604038
0
LINE
8
DEFAULT_255_2_778
10
26.5762503
20
4.9382038
11
26.5759503
21
4.9382038
0
LINE
8
DEFAULT_255_2_778
10
28.1168503
20
5.2488038
11
28.1425503
21
5.2470038
0
LINE
8
DEFAULT_255_2_778
10
28.1425503
20
5.2470038
11
28.1425503
21
4.9393038
0
LINE
8
DEFAULT_255_2_778
10
28.1425503
20
4.9393038
11
28.0917503
21
4.9432038
0
LINE
8
DEFAULT_255_2_778
10
28.0917503
20
4.9432038
11
28.0560503
21
4.9443038
0
LINE
8
DEFAULT_255_2_778
10
27.7776503
20
4.6218038
11
27.7776503
21
4.0728038
0
LINE
8
DEFAULT_255_2_778
10
27.7776503
20
4.0728038
11
27.4750503
21
4.0728038
0
LINE
8
DEFAULT_255_2_778
10
27.4750503
20
4.0728038
11
27.4750503
21
5.2216038
0
LINE
8
DEFAULT_255_2_778
10
27.4750503
20
5.2216038
11
27.7623503
21
5.2216038
0
LINE
8
DEFAULT_255_2_778
10
27.7623503
20
5.2216038
11
27.7623503
21
5.0210038
0
LINE
8
DEFAULT_255_2_778
10
28.1036503
20
5.2486038
11
28.1182503
21
5.2481038
0
LINE
8
DEFAULT_255_2_778
10
28.1182503
20
5.2481038
11
28.1168503
21
5.2488038
0
ENDSEC
0
EOF