0
SECTION
2
HEADER
9
$MEASUREMENT
70
1
0
ENDSEC
0
SECTION
2
TABLES
0
TABLE
2
LTYPE
0
LTYPE
72
65
70
64
2
CONTINUOUS
3
______
73
0
40
0
0
ENDTAB
0
TABLE
2
LAYER
0
LAYER
2
DEFAULT_255_2_778
70
0
62
255
6
CONTINUOUS
0
ENDTAB
0
ENDSEC
0
SECTION
2
ENTITIES
0
ARC
8
DEFAULT_255_2_778
10
15.1992354
20
3.0504937
40
3.2259127
50
345.2419471
51
0.1274889
0
ARC
8
DEFAULT_255_2_778
10
15.5087846
20
2.9654181
40
2.9049055
50
324.7208617
51
345.3093054
0
ARC
8
DEFAULT_255_2_778
10
15.7344172
20
2.8018024
40
2.6262148
50
286.6774931
51
324.7917856
0
ARC
8
DEFAULT_255_2_778
10
15.6924799
20
2.9629944
40
2.7926683
50
271.37799
51
286.5526227
0
ARC
8
DEFAULT_255_2_778
10
15.6798565
20
3.1673691
40
2.9972972
50
269.9977756
51
271.5252754
0
ARC
8
DEFAULT_255_2_778
10
15.6739401
20
2.9992568
40
2.829191
50
252.8819693
51
270.1174616
0
ARC
8
DEFAULT_255_2_778
10
15.6580298
20
2.9179412
40
2.7468086
50
200.4499436
51
252.6998895
0
ARC
8
DEFAULT_255_2_778
10
15.8480022
20
3.0001119
40
2.9535373
50
183.7427391
51
200.65592
0
ARC
8
DEFAULT_255_2_778
10
16.0124959
20
3.0165143
40
3.1187559
50
179.9915972
51
183.8461665
0
ARC
8
DEFAULT_255_2_778
10
15.8163757
20
3.0228901
40
2.9226415
50
163.7380081
51
180.1160255
0
ARC
8
DEFAULT_255_2_778
10
15.6895879
20
3.0562122
40
2.7915973
50
111.9951042
51
163.6658556
0
ARC
8
DEFAULT_255_2_778
10
15.7610521
20
2.8949049
40
2.967935
50
94.6988712
51
112.1080139
0
ARC
8
DEFAULT_255_2_778
10
15.7806247
20
2.7234493
40
3.1404225
50
89.986947
51
94.7985114
0
ARC
8
DEFAULT_255_2_778
10
15.814116
20
2.6226722
40
3.2413652
50
52.5027928
51
90.5793707
0
ARC
8
DEFAULT_255_2_778
10
15.8412607
20
2.6840654
40
3.176173
50
51.5814288
51
52.2171344
0
ARC
8
DEFAULT_255_2_778
10
15.8941045
20
2.6661526
40
3.5769217
50
53.9708142
51
85.1470775
0
ARC
8
DEFAULT_255_2_778
10
15.783703
20
1.9589858
40
4.2911866
50
84.4770515
51
90.0315485
0
ARC
8
DEFAULT_255_2_778
10
15.7752094
20
2.6667269
40
3.58345
50
89.9019759
51
104.1675938
0
ARC
8
DEFAULT_255_2_778
10
15.7162289
20
2.8961884
40
3.346532
50
104.1500661
51
123.746682
0
ARC
8
DEFAULT_255_2_778
10
15.6078734
20
3.0496192
40
3.1587639
50
123.6584614
51
164.8725412
0
ARC
8
DEFAULT_255_2_778
10
15.7290899
20
3.0229121
40
3.282755
50
164.9746778
51
180.1036811
0
ARC
8
DEFAULT_255_2_778
10
15.8205824
20
3.0108344
40
3.3742478
50
179.8957872
51
194.6514674
0
ARC
8
DEFAULT_255_2_778
10
15.6453159
20
2.9658166
40
3.1932939
50
194.6654219
51
217.3884372
0
ARC
8
DEFAULT_255_2_778
10
15.6494711
20
2.9765595
40
3.2031244
50
217.4959864
51
250.8598888
0
ARC
8
DEFAULT_255_2_778
10
15.7064277
20
3.1331306
40
3.369716
50
250.817863
51
267.1301724
0
ARC
8
DEFAULT_255_2_778
10
15.7194252
20
3.2814022
40
3.5184567
50
267.0396692
51
269.3504835
0
ARC
8
DEFAULT_255_2_778
10
15.6879959
20
3.1630675
40
3.3999063
50
269.8575024
51
281.7115804
0
ARC
8
DEFAULT_255_2_778
10
15.7658705
20
2.7905663
40
3.0193526
50
281.6994131
51
298.4670678
0
ARC
8
DEFAULT_255_2_778
10
15.7485205
20
2.7772198
40
3.0159672
50
298.8776815
51
335.6954125
0
ARC
8
DEFAULT_255_2_778
10
15.2609437
20
3.024919
40
3.5623683
50
335.2922684
51
349.6738031
0
ARC
8
DEFAULT_255_2_778
10
14.808078
20
3.1117613
40
4.023468
50
349.6131592
51
0.0969833
0
LINE
8
DEFAULT_255_2_778
10
7.6674402
20
0.8814717
11
7.1996402
21
-0.0768283
0
LINE
8
DEFAULT_255_2_778
10
7.1996402
20
-0.0768283
11
7.6674402
21
-0.0768283
0
LINE
8
DEFAULT_255_2_778
10
7.6674402
20
-0.0768283
11
7.9521402
21
0.4925717
0
LINE
8
DEFAULT_255_2_778
10
7.9521402
20
0.4925717
11
10.2500402
21
0.4925717
0
LINE
8
DEFAULT_255_2_778
10
10.2500402
20
0.4925717
11
10.5145402
21
-0.0768283
0
LINE
8
DEFAULT_255_2_778
10
10.5145402
20
-0.0768283
11
11.0053402
21
-0.0768283
0
LINE
8
DEFAULT_255_2_778
10
11.0053402
20
-0.0768283
11
10.5376402
21
0.8788717
0
LINE
8
DEFAULT_255_2_778
10
10.5376402
20
0.8788717
11
7.6674402
21
0.8788717
0
LINE
8
DEFAULT_255_2_778
10
9.0704402
20
6.4332717
11
5.7965402
21
-0.0768283
0
LINE
8
DEFAULT_255_2_778
10
5.7965402
20
-0.0768283
11
6.2846402
21
-0.0768283
0
LINE
8
DEFAULT_255_2_778
10
6.2846402
20
-0.0768283
11
9.1109402
21
5.6402717
0
LINE
8
DEFAULT_255_2_778
10
9.1109402
20
5.6402717
11
11.9380402
21
-0.0768283
0
LINE
8
DEFAULT_255_2_778
10
11.9380402
20
-0.0768283
11
12.4465402
21
-0.0768283
0
LINE
8
DEFAULT_255_2_778
10
12.4465402
20
-0.0768283
11
9.1525402
21
6.4308717
0
LINE
8
DEFAULT_255_2_778
10
9.1525402
20
6.4308717
11
9.0739402
21
6.4308717
0
LINE
8
DEFAULT_255_2_778
10
0.5903402
20
4.9280717
11
0.5903402
21
4.5213717
0
LINE
8
DEFAULT_255_2_778
10
0.5903402
20
4.5213717
11
2.6239402
21
4.5213717
0
LINE
8
DEFAULT_255_2_778
10
2.6239402
20
4.5213717
11
0.2241402
21
0.0067717
0
LINE
8
DEFAULT_255_2_778
10
0.2241402
20
0.0067717
11
0.2241402
21
-0.0768283
0
LINE
8
DEFAULT_255_2_778
10
0.2241402
20
-0.0768283
11
5.2472402
21
-0.0768283
0
LINE
8
DEFAULT_255_2_778
10
5.2472402
20
-0.0768283
11
5.2472402
21
0.3094717
0
LINE
8
DEFAULT_255_2_778
10
5.2472402
20
0.3094717
11
0.8546402
21
0.3094717
0
LINE
8
DEFAULT_255_2_778
10
0.8546402
20
0.3094717
11
3.3152402
21
4.9256717
0
LINE
8
DEFAULT_255_2_778
10
3.3152402
20
4.9256717
11
0.5900402
21
4.9256717
0
LINE
8
DEFAULT_255_2_778
10
0.5903402
20
5.7008717
11
4.6368402
21
5.7008717
0
LINE
8
DEFAULT_255_2_778
10
4.6368402
20
5.7008717
11
2.1762402
21
1.0873717
0
LINE
8
DEFAULT_255_2_778
10
2.1762402
20
1.0873717
11
5.2470402
21
1.0873717
0
LINE
8
DEFAULT_255_2_778
10
5.2470402
20
1.0873717
11
5.2470402
21
1.4940717
0
LINE
8
DEFAULT_255_2_778
10
5.2470402
20
1.4940717
11
2.8472402
21
1.4940717
0
LINE
8
DEFAULT_255_2_778
10
2.8472402
20
1.4940717
11
5.2671402
21
6.0289717
0
LINE
8
DEFAULT_255_2_778
10
5.2671402
20
6.0289717
11
5.2671402
21
6.1101717
0
LINE
8
DEFAULT_255_2_778
10
5.2671402
20
6.1101717
11
0.5903402
21
6.1101717
0
LINE
8
DEFAULT_255_2_778
10
0.5903402
20
6.1101717
11
0.5903402
21
5.7035717
0
LINE
8
DEFAULT_255_2_778
10
9.1109402
20
3.1185717
11
9.6396402
21
1.9186717
0
LINE
8
DEFAULT_255_2_778
10
9.6396402
20
1.9186717
11
8.5616402
21
1.9186717
0
LINE
8
DEFAULT_255_2_778
10
8.5616402
20
1.9186717
11
9.1109402
21
3.1185717
0
LINE
8
DEFAULT_255_2_778
10
7.9925402
20
1.5932717
11
10.2092402
21
1.5932717
0
LINE
8
DEFAULT_255_2_778
10
10.2092402
20
1.5932717
11
9.1112402
21
3.8506717
0
LINE
8
DEFAULT_255_2_778
10
9.1112402
20
3.8506717
11
7.9925402
21
1.5932717
0
LINE
8
DEFAULT_255_2_778
10
18.8317402
20
3.5863717
11
15.1712402
21
3.5863717
0
LINE
8
DEFAULT_255_2_778
10
15.1712402
20
3.5863717
11
15.1712402
21
3.2000717
0
LINE
8
DEFAULT_255_2_778
10
15.1712402
20
3.2000717
11
18.4251402
21
3.2000717
0
LINE
8
DEFAULT_255_2_778
10
18.4251402
20
3.2000717
11
18.4251402
21
3.0576717
0
LINE
8
DEFAULT_255_2_778
10
17.8149402
20
5.1725717
11
17.9980402
21
5.5588717
0
LINE
8
DEFAULT_255_2_778
10
18.8315402
20
3.1185717
11
18.8315402
21
3.5863717
0
LINE
8
DEFAULT_255_2_778
10
27.7215402
20
4.9283717
11
27.7215402
21
-0.0768283
0
LINE
8
DEFAULT_255_2_778
10
27.7215402
20
-0.0768283
11
28.1485402
21
-0.0768283
0
LINE
8
DEFAULT_255_2_778
10
28.1485402
20
-0.0768283
11
28.1485402
21
4.5216717
0
LINE
8
DEFAULT_255_2_778
10
28.1485402
20
4.5216717
11
29.6738402
21
4.5216717
0
LINE
8
DEFAULT_255_2_778
10
29.6738402
20
4.5216717
11
29.6738402
21
4.9283717
0
LINE
8
DEFAULT_255_2_778
10
29.6738402
20
4.9283717
11
27.7212402
21
4.9283717
0
LINE
8
DEFAULT_255_2_778
10
24.9124402
20
4.5216717
11
26.4377402
21
4.5216717
0
LINE
8
DEFAULT_255_2_778
10
26.4377402
20
4.5216717
11
26.4377402
21
-0.0768283
0
LINE
8
DEFAULT_255_2_778
10
26.4377402
20
-0.0768283
11
26.8647402
21
-0.0768283
0
LINE
8
DEFAULT_255_2_778
10
26.8647402
20
-0.0768283
11
26.8647402
21
4.9283717
0
LINE
8
DEFAULT_255_2_778
10
26.8647402
20
4.9283717
11
24.9121402
21
4.9283717
0
LINE
8
DEFAULT_255_2_778
10
24.9121402
20
4.9283717
11
24.9121402
21
4.5216717
0
ARC
8
DEFAULT_255_2_778
10
15.7876284
20
2.5306653
40
2.0955828
50
45.9266987
51
90.1793175
0
ARC
8
DEFAULT_255_2_778
10
15.859839
20
2.6659616
40
2.3549627
50
48.2368083
51
74.7210185
0
ARC
8
DEFAULT_255_2_778
10
15.7840063
20
2.4313445
40
2.6012951
50
74.4715483
51
90.0646758
0
ARC
8
DEFAULT_255_2_778
10
15.7746218
20
2.9375791
40
2.0950687
50
89.8236576
51
108.7334809
0
ARC
8
DEFAULT_255_2_778
10
15.7293414
20
3.0728703
40
1.9524022
50
108.750192
51
165.8456195
0
ARC
8
DEFAULT_255_2_778
10
15.8887163
20
3.0258369
40
2.1184503
50
165.6662308
51
180.1081598
0
ARC
8
DEFAULT_255_2_778
10
16.0485336
20
3.0153601
40
2.2782729
50
179.8370919
51
196.8864429
0
ARC
8
DEFAULT_255_2_778
10
15.8249708
20
2.9445808
40
2.0437917
50
196.8082877
51
221.0919305
0
ARC
8
DEFAULT_255_2_778
10
15.6740163
20
2.809357
40
1.8411476
50
221.0080804
51
263.8120574
0
ARC
8
DEFAULT_255_2_778
10
15.6812317
20
2.8790426
40
1.9112048
50
263.8221909
51
270.0191323
0
ARC
8
DEFAULT_255_2_778
10
15.6915069
20
3.1633961
40
2.1955794
50
269.7485127
51
283.349145
0
ARC
8
DEFAULT_255_2_778
10
15.795295
20
2.7411205
40
1.7607537
50
283.235676
51
303.3203559
0
ARC
8
DEFAULT_255_2_778
10
15.8974095
20
2.5710337
40
1.5625546
50
303.6175107
51
344.3604017
0
ARC
8
DEFAULT_255_2_778
10
15.5953426
20
2.6683186
40
1.8797045
50
343.9869972
51
356.5144271
0
ARC
8
DEFAULT_255_2_778
10
15.8821498
20
2.5549097
40
1.1672994
50
286.8326085
51
340.6291193
0
ARC
8
DEFAULT_255_2_778
10
15.6961497
20
3.0481676
40
1.6936508
50
270.1145144
51
288.0233291
0
ARC
8
DEFAULT_255_2_778
10
15.6815846
20
3.3096238
40
1.955186
50
269.9995699
51
270.5260268
0
ARC
8
DEFAULT_255_2_778
10
15.691851
20
2.7743061
40
1.4199055
50
212.5633722
51
269.5851351
0
ARC
8
DEFAULT_255_2_778
10
15.9549416
20
2.975203
40
1.7499859
50
191.3225181
51
213.4707048
0
ARC
8
DEFAULT_255_2_778
10
16.1453773
20
3.0194369
40
1.9454091
50
179.9233981
51
191.4987705
0
ARC
8
DEFAULT_255_2_778
10
15.8918935
20
3.0289142
40
1.6919375
50
159.6187003
51
180.2328617
0
ARC
8
DEFAULT_255_2_778
10
15.7542861
20
3.080576
40
1.5449529
50
98.8900163
51
159.637376
0
ARC
8
DEFAULT_255_2_778
10
15.784763
20
2.9452734
40
1.6833651
50
89.9521141
51
99.2032003
0
LINE
8
DEFAULT_255_2_778
10
24.9123699
20
6.1079378
11
29.6709699
21
6.1079378
0
LINE
8
DEFAULT_255_2_778
10
29.6709699
20
6.1079378
11
29.6709699
21
5.7012378
0
LINE
8
DEFAULT_255_2_778
10
29.6709699
20
5.7012378
11
24.9123699
21
5.7012378
0
LINE
8
DEFAULT_255_2_778
10
24.9123699
20
5.7012378
11
24.9123699
21
6.1079378
0
LINE
8
DEFAULT_255_2_778
10
17.2452699
20
4.0362378
11
17.4283699
21
4.4225378
0
LINE
8
DEFAULT_255_2_778
10
17.4715699
20
2.5540378
11
15.1736699
21
2.5540378
0
LINE
8
DEFAULT_255_2_778
10
15.1736699
20
2.5540378
11
15.1736699
21
2.1677378
0
LINE
8
DEFAULT_255_2_778
10
15.1736699
20
2.1677378
11
16.9833699
21
2.1677378
0
LINE
8
DEFAULT_255_2_778
10
22.0646699
20
6.4330378
11
18.7912699
21
-0.0767622
0
LINE
8
DEFAULT_255_2_778
10
18.7912699
20
-0.0767622
11
19.2794699
21
-0.0767622
0
LINE
8
DEFAULT_255_2_778
10
19.2794699
20
-0.0767622
11
22.1062699
21
5.6377378
0
LINE
8
DEFAULT_255_2_778
10
22.1062699
20
5.6377378
11
24.9330699
21
-0.0767622
0
LINE
8
DEFAULT_255_2_778
10
24.9330699
20
-0.0767622
11
25.4415699
21
-0.0767622
0
LINE
8
DEFAULT_255_2_778
10
25.4415699
20
-0.0767622
11
22.1443699
21
6.4333378
0
LINE
8
DEFAULT_255_2_778
10
22.1443699
20
6.4333378
11
22.0649699
21
6.4333378
0
LINE
8
DEFAULT_255_2_778
10
20.6621699
20
0.8815378
11
20.1943699
21
-0.0767622
0
LINE
8
DEFAULT_255_2_778
10
20.1943699
20
-0.0767622
11
20.6621699
21
-0.0767622
0
LINE
8
DEFAULT_255_2_778
10
20.6621699
20
-0.0767622
11
20.9468699
21
0.4926378
0
LINE
8
DEFAULT_255_2_778
10
20.9468699
20
0.4926378
11
23.2447699
21
0.4926378
0
LINE
8
DEFAULT_255_2_778
10
23.2447699
20
0.4926378
11
23.5093699
21
-0.0767622
0
LINE
8
DEFAULT_255_2_778
10
23.5093699
20
-0.0767622
11
23.9974699
21
-0.0767622
0
LINE
8
DEFAULT_255_2_778
10
23.9974699
20
-0.0767622
11
23.5296699
21
0.8789378
0
LINE
8
DEFAULT_255_2_778
10
23.5296699
20
0.8789378
11
20.6621699
21
0.8789378
0
LINE
8
DEFAULT_255_2_778
10
22.1059699
20
3.1186378
11
22.6345699
21
1.9187378
0
LINE
8
DEFAULT_255_2_778
10
22.6345699
20
1.9187378
11
21.5569699
21
1.9187378
0
LINE
8
DEFAULT_255_2_778
10
21.5569699
20
1.9187378
11
22.1059699
21
3.1186378
0
LINE
8
DEFAULT_255_2_778
10
20.9875699
20
1.5933378
11
23.2042699
21
1.5933378
0
LINE
8
DEFAULT_255_2_778
10
23.2042699
20
1.5933378
11
22.1062699
21
3.8507378
0
LINE
8
DEFAULT_255_2_778
10
22.1062699
20
3.8507378
11
20.9875699
21
1.5933378
0
ENDSEC
0
EOF