0
SECTION
2
HEADER
9
$MEASUREMENT
70
1
0
ENDSEC
0
SECTION
2
TABLES
0
TABLE
2
LTYPE
0
LTYPE
72
65
70
64
2
CONTINUOUS
3
______
73
0
40
0
0
ENDTAB
0
TABLE
2
LAYER
0
LAYER
2
DEFAULT_255_2_778
70
0
62
255
6
CONTINUOUS
0
ENDTAB
0
ENDSEC
0
SECTION
2
ENTITIES
0
LINE
8
DEFAULT_255_2_778
10
13.5902852
20
0.657901
11
13.5902852
21
4.351501
0
LINE
8
DEFAULT_255_2_778
10
0.2618852
20
-0.200399
11
17.2004852
21
-0.200399
0
LINE
8
DEFAULT_255_2_778
10
17.2004852
20
-0.200399
11
13.5894852
21
6.057801
0
LINE
8
DEFAULT_255_2_778
10
13.5894852
20
6.057801
11
13.5894852
21
8.200901
0
LINE
8
DEFAULT_255_2_778
10
13.5894852
20
8.200901
11
14.5895852
21
9.506601
0
LINE
8
DEFAULT_255_2_778
10
14.5895852
20
9.506601
11
11.5897852
21
9.506601
0
LINE
8
DEFAULT_255_2_778
10
11.5897852
20
9.506601
11
8.7311852
21
14.480001
0
LINE
8
DEFAULT_255_2_778
10
8.7311852
20
14.480001
11
5.8728852
21
9.515901
0
LINE
8
DEFAULT_255_2_778
10
5.8728852
20
9.515901
11
2.8732852
21
9.515901
0
LINE
8
DEFAULT_255_2_778
10
2.8732852
20
9.515901
11
3.8734852
21
8.210201
0
LINE
8
DEFAULT_255_2_778
10
3.8734852
20
8.210201
11
3.8734852
21
6.069201
0
LINE
8
DEFAULT_255_2_778
10
3.8734852
20
6.069201
11
0.2618852
21
-0.200399
0
LINE
8
DEFAULT_255_2_778
10
3.8734852
20
0.646301
11
1.7440852
21
0.646301
0
LINE
8
DEFAULT_255_2_778
10
1.7440852
20
0.646301
11
3.8731852
21
4.339801
0
LINE
8
DEFAULT_255_2_778
10
3.8731852
20
4.339801
11
3.8734852
21
0.646301
0
LINE
8
DEFAULT_255_2_778
10
5.3556852
20
0.646301
11
4.7322852
21
0.646301
0
LINE
8
DEFAULT_255_2_778
10
4.7322852
20
0.646301
11
4.7322852
21
5.704601
0
LINE
8
DEFAULT_255_2_778
10
4.7322852
20
5.704601
11
5.3556852
21
5.704601
0
LINE
8
DEFAULT_255_2_778
10
5.3556852
20
5.704601
11
5.3556852
21
0.646301
0
LINE
8
DEFAULT_255_2_778
10
5.3556852
20
6.551201
11
4.7322852
21
6.551201
0
LINE
8
DEFAULT_255_2_778
10
4.7322852
20
6.551201
11
4.7322852
21
7.174301
0
LINE
8
DEFAULT_255_2_778
10
4.7322852
20
7.174301
11
5.3556852
21
7.174301
0
LINE
8
DEFAULT_255_2_778
10
5.3556852
20
7.174301
11
5.3556852
21
6.551201
0
LINE
8
DEFAULT_255_2_778
10
8.3083852
20
0.646301
11
6.2028852
21
0.646301
0
LINE
8
DEFAULT_255_2_778
10
6.2028852
20
0.646301
11
6.2028852
21
5.704601
0
LINE
8
DEFAULT_255_2_778
10
6.2028852
20
5.704601
11
8.2967852
21
5.704601
0
LINE
8
DEFAULT_255_2_778
10
8.2967852
20
5.704601
11
8.3083852
21
0.646301
0
LINE
8
DEFAULT_255_2_778
10
11.2611852
20
0.646301
11
9.1544852
21
0.646301
0
LINE
8
DEFAULT_255_2_778
10
9.1544852
20
0.646301
11
9.1544852
21
5.704601
0
LINE
8
DEFAULT_255_2_778
10
9.1544852
20
5.704601
11
11.2484852
21
5.704601
0
LINE
8
DEFAULT_255_2_778
10
11.2484852
20
5.704601
11
11.2484852
21
0.658201
0
LINE
8
DEFAULT_255_2_778
10
11.2484852
20
0.658201
11
11.2600852
21
0.658201
0
LINE
8
DEFAULT_255_2_778
10
11.2600852
20
0.658201
11
11.2611852
21
0.646301
0
LINE
8
DEFAULT_255_2_778
10
11.2611852
20
6.551201
11
6.2022852
21
6.551201
0
LINE
8
DEFAULT_255_2_778
10
6.2022852
20
6.551201
11
6.2022852
21
7.174301
0
LINE
8
DEFAULT_255_2_778
10
6.2022852
20
7.174301
11
11.2486852
21
7.174301
0
LINE
8
DEFAULT_255_2_778
10
11.2486852
20
7.174301
11
11.2611852
21
6.551201
0
LINE
8
DEFAULT_255_2_778
10
12.7314852
20
0.646301
11
12.1072852
21
0.646301
0
LINE
8
DEFAULT_255_2_778
10
12.1072852
20
0.646301
11
12.1072852
21
5.704601
0
LINE
8
DEFAULT_255_2_778
10
12.1072852
20
5.704601
11
12.7305852
21
5.704601
0
LINE
8
DEFAULT_255_2_778
10
12.7305852
20
5.704601
11
12.7314852
21
0.646301
0
LINE
8
DEFAULT_255_2_778
10
12.7314852
20
6.551201
11
12.1072852
21
6.551201
0
LINE
8
DEFAULT_255_2_778
10
12.1072852
20
6.551201
11
12.1072852
21
7.174301
0
LINE
8
DEFAULT_255_2_778
10
12.1072852
20
7.174301
11
12.7305852
21
7.174301
0
LINE
8
DEFAULT_255_2_778
10
12.7305852
20
7.174301
11
12.7314852
21
6.551201
0
LINE
8
DEFAULT_255_2_778
10
13.5902852
20
4.351501
11
15.7193852
21
0.657901
0
LINE
8
DEFAULT_255_2_778
10
15.7193852
20
0.657901
11
13.5902852
21
0.657901
0
LINE
8
DEFAULT_255_2_778
10
13.5902852
20
4.351501
11
13.5902852
21
4.351501
0
LINE
8
DEFAULT_255_2_778
10
8.7311852
20
12.750701
11
10.6017852
21
9.504201
0
LINE
8
DEFAULT_255_2_778
10
10.6017852
20
9.504201
11
6.8605852
21
9.504201
0
LINE
8
DEFAULT_255_2_778
10
6.8605852
20
9.504201
11
8.7311852
21
12.750701
0
LINE
8
DEFAULT_255_2_778
10
12.8599852
20
8.645401
11
12.7276852
21
8.480801
0
LINE
8
DEFAULT_255_2_778
10
12.7276852
20
8.480801
11
12.7276852
21
8.022101
0
LINE
8
DEFAULT_255_2_778
10
12.7276852
20
8.022101
11
4.7293852
21
8.022101
0
LINE
8
DEFAULT_255_2_778
10
4.7293852
20
8.022101
11
4.7293852
21
8.480801
0
LINE
8
DEFAULT_255_2_778
10
4.7293852
20
8.480801
11
4.5970852
21
8.645401
0
LINE
8
DEFAULT_255_2_778
10
4.5970852
20
8.645401
11
12.8599852
21
8.645401
0
ENDSEC
0
EOF