0
SECTION
2
HEADER
9
$MEASUREMENT
70
1
0
ENDSEC
0
SECTION
2
TABLES
0
TABLE
2
LTYPE
0
LTYPE
72
65
70
64
2
CONTINUOUS
3
______
73
0
40
0
0
ENDTAB
0
TABLE
2
LAYER
0
LAYER
2
DEFAULT_255_2_778
70
0
62
255
6
CONTINUOUS
0
ENDTAB
0
ENDSEC
0
SECTION
2
ENTITIES
0
ARC
8
DEFAULT_255_2_778
10
1.2167045
20
4.7179532
40
0.5888024
50
209.2212442
51
211.4562595
0
ARC
8
DEFAULT_255_2_778
10
2.1182835
20
5.2657696
40
1.6437641
50
211.3454841
51
213.9568274
0
ARC
8
DEFAULT_255_2_778
10
3.07745
20
5.9085449
40
2.7983881
50
213.9035064
51
216.3629208
0
ARC
8
DEFAULT_255_2_778
10
3.9991408
20
6.584771
40
3.9415384
50
216.3350293
51
218.5289876
0
ARC
8
DEFAULT_255_2_778
10
4.940276
20
7.3338836
40
5.1444121
50
218.5265666
51
220.8003051
0
ARC
8
DEFAULT_255_2_778
10
5.9620686
20
8.2152629
40
6.4938155
50
220.7961777
51
223.0564772
0
ARC
8
DEFAULT_255_2_778
10
6.9780988
20
9.1622593
40
7.882742
50
223.0440433
51
224.9733078
0
ARC
8
DEFAULT_255_2_778
10
8.0282497
20
10.2120432
40
9.3676202
50
224.9759516
51
227.0302996
0
ARC
8
DEFAULT_255_2_778
10
9.1958279
20
11.4650311
40
11.0802839
50
227.0288382
51
229.0468929
0
ARC
8
DEFAULT_255_2_778
10
10.4089048
20
12.8613419
40
12.9299431
50
229.0425847
51
230.8961283
0
ARC
8
DEFAULT_255_2_778
10
11.5907029
20
14.3131125
40
14.8019161
50
230.8906816
51
232.4958406
0
ARC
8
DEFAULT_255_2_778
10
12.8421357
20
15.9453744
40
16.8587005
50
232.4991679
51
234.2483505
0
ARC
8
DEFAULT_255_2_778
10
14.1207724
20
17.7176005
40
19.0440363
50
234.2416628
51
235.6533376
0
ARC
8
DEFAULT_255_2_778
10
15.3428477
20
19.5056063
40
21.209777
50
235.6527899
51
237.0227283
0
ARC
8
DEFAULT_255_2_778
10
10.5914834
20
12.1784667
40
12.4769407
50
237.0119245
51
239.0232803
0
ARC
8
DEFAULT_255_2_778
10
11.0353456
20
12.91615
40
13.3378644
50
239.0195045
51
240.6456254
0
ARC
8
DEFAULT_255_2_778
10
11.2676437
20
13.3253537
40
13.8084031
50
240.6378397
51
240.8604676
0
ARC
8
DEFAULT_255_2_778
10
11.7352686
20
14.1843851
40
14.7864201
50
240.8986529
51
244.3625868
0
ARC
8
DEFAULT_255_2_778
10
12.4446223
20
15.6522136
40
16.4166611
50
244.3471399
51
246.9331518
0
ARC
8
DEFAULT_255_2_778
10
12.8847697
20
16.6793266
40
17.5341066
50
246.9248878
51
248.9060349
0
ARC
8
DEFAULT_255_2_778
10
13.1034815
20
17.2424403
40
18.1382009
50
248.9016363
51
250.4521386
0
ARC
8
DEFAULT_255_2_778
10
13.1513511
20
17.3751062
40
18.2792372
50
250.4498779
51
251.684626
0
ARC
8
DEFAULT_255_2_778
10
13.0725554
20
17.1360412
40
18.0275216
50
251.6836039
51
252.6811702
0
ARC
8
DEFAULT_255_2_778
10
12.9044562
20
16.5966416
40
17.4625355
50
252.6808585
51
253.4965405
0
ARC
8
DEFAULT_255_2_778
10
12.67764
20
15.8310513
40
16.6640532
50
253.4965
51
254.170159
0
ARC
8
DEFAULT_255_2_778
10
12.3463888
20
14.659035
40
15.4461252
50
254.1663927
51
254.9979439
0
ARC
8
DEFAULT_255_2_778
10
11.8446028
20
12.7835291
40
13.504654
50
254.9945571
51
255.8085288
0
ARC
8
DEFAULT_255_2_778
10
11.2719987
20
10.5210824
40
11.1708716
50
255.810893
51
256.4098058
0
ARC
8
DEFAULT_255_2_778
10
10.6412111
20
7.9068386
40
8.4816038
50
256.4019858
51
257.0371702
0
ARC
8
DEFAULT_255_2_778
10
9.9341952
20
4.8349492
40
5.329402
50
257.0362601
51
257.5351835
0
ARC
8
DEFAULT_255_2_778
10
9.2400024
20
1.6904811
40
2.1092186
50
257.5114848
51
257.9405987
0
LINE
8
DEFAULT_255_2_778
10
7.4105325
20
7.7960097
11
9.1951325
21
7.5327097
0
LINE
8
DEFAULT_255_2_778
10
9.1951325
20
7.5327097
11
7.4105325
21
7.7960097
0
LINE
8
DEFAULT_255_2_778
10
8.7993325
20
-0.3721903
11
7.4108325
21
7.7902097
0
LINE
8
DEFAULT_255_2_778
10
7.4108325
20
7.7902097
11
1.0034325
21
8.7358097
0
LINE
8
DEFAULT_255_2_778
10
1.0034325
20
8.7358097
11
0.7028325
21
4.4305097
0
LINE
8
DEFAULT_255_2_778
10
9.4499522
20
8.6493579
11
11.4274522
21
8.6493579
0
LINE
8
DEFAULT_255_2_778
10
11.4274522
20
8.6493579
11
11.4274522
21
3.8122579
0
LINE
8
DEFAULT_255_2_778
10
11.4274522
20
3.8122579
11
9.4499522
21
3.8122579
0
LINE
8
DEFAULT_255_2_778
10
9.4499522
20
3.8122579
11
9.4499522
21
8.6493579
0
ARC
8
DEFAULT_255_2_778
10
8.8179267
20
6.2703217
40
1.701404
50
237.9533858
51
238.4853606
0
ARC
8
DEFAULT_255_2_778
10
9.9526756
20
8.1162551
40
3.8682271
50
238.4486076
51
239.0141064
0
ARC
8
DEFAULT_255_2_778
10
10.8567869
20
9.6220162
40
5.6245682
50
239.0153012
51
239.8409732
0
ARC
8
DEFAULT_255_2_778
10
11.4876197
20
10.7063993
40
6.8790945
50
239.8356116
51
240.8563431
0
ARC
8
DEFAULT_255_2_778
10
11.7452036
20
11.1663988
40
7.4063024
50
240.8489634
51
241.7173167
0
ARC
8
DEFAULT_255_2_778
10
11.7641259
20
11.2004609
40
7.445264
50
241.7132848
51
243.2159347
0
ARC
8
DEFAULT_255_2_778
10
11.5580891
20
10.7900529
40
6.9860421
50
243.2076469
51
245.0150464
0
ARC
8
DEFAULT_255_2_778
10
11.1778622
20
9.9689134
40
6.0811459
50
244.9944289
51
247.5974037
0
ARC
8
DEFAULT_255_2_778
10
10.5675003
20
8.4535429
40
4.4475456
50
247.4269772
51
253.6093001
0
ARC
8
DEFAULT_255_2_778
10
10.2511155
20
7.432856
40
3.3790958
50
253.872179
51
254.6961895
0
ARC
8
DEFAULT_255_2_778
10
11.7293015
20
12.7827647
40
8.929455
50
254.6080949
51
256.4436492
0
ARC
8
DEFAULT_255_2_778
10
12.4460094
20
15.8147608
40
12.0449849
50
256.5100751
51
259.4967624
0
ARC
8
DEFAULT_255_2_778
10
13.0046581
20
18.739658
40
15.0227196
50
259.4353364
51
260.84939
0
ARC
8
DEFAULT_255_2_778
10
13.1479494
20
19.6118685
40
15.9066181
50
260.8394486
51
261.8002709
0
ARC
8
DEFAULT_255_2_778
10
13.0628015
20
19.0147171
40
15.3034272
50
261.7969357
51
262.4667969
0
ARC
8
DEFAULT_255_2_778
10
12.8480539
20
17.3914611
40
13.6660277
50
262.4671493
51
262.9144864
0
ARC
8
DEFAULT_255_2_778
10
12.5299978
20
14.8244975
40
11.0794353
50
262.9092671
51
263.3633947
0
ARC
8
DEFAULT_255_2_778
10
12.104056
20
11.162076
40
7.3923283
50
263.3619615
51
263.704622
0
ARC
8
DEFAULT_255_2_778
10
11.6331883
20
6.8863657
40
3.0907688
50
263.6894034
51
263.9726256
0
LINE
8
DEFAULT_255_2_778
10
11.3086464
20
3.8126832
11
9.4512464
21
7.5126832
0
LINE
8
DEFAULT_255_2_778
10
9.4512464
20
7.5126832
11
9.4494464
21
7.4956832
0
LINE
8
DEFAULT_255_2_778
10
9.4494464
20
7.4956832
11
7.4113464
21
7.7962832
0
LINE
8
DEFAULT_255_2_778
10
7.4113464
20
7.7962832
11
7.9151464
21
4.8281832
0
ARC
8
DEFAULT_255_2_778
10
2.9790946
20
-0.6432169
40
11.9687005
50
29.082214
51
29.7413157
0
ARC
8
DEFAULT_255_2_778
10
-0.8364762
20
-2.8246707
40
16.3638477
50
29.7457013
51
30.4256731
0
ARC
8
DEFAULT_255_2_778
10
-6.1070575
20
-5.9189432
40
22.4756026
50
30.423179
51
30.9959988
0
ARC
8
DEFAULT_255_2_778
10
-13.4159891
20
-10.3118479
40
31.0030928
50
30.9990883
51
31.5751622
0
ARC
8
DEFAULT_255_2_778
10
-24.0669001
20
-16.8594279
40
43.505601
50
31.5767989
51
32.1257091
0
ARC
8
DEFAULT_255_2_778
10
-33.1932718
20
-22.5758728
40
54.2744584
50
32.1129912
51
32.2953622
0
ARC
8
DEFAULT_255_2_778
10
-43.4229251
20
-29.054659
40
66.3831485
50
32.3048663
51
32.7535024
0
ARC
8
DEFAULT_255_2_778
10
-54.2299859
20
-35.9943853
40
79.2265232
50
32.7458739
51
32.9383837
0
ARC
8
DEFAULT_255_2_778
10
-59.4739916
20
-39.3904657
40
85.4741592
50
32.9375936
51
33.0840729
0
ARC
8
DEFAULT_255_2_778
10
-62.5312237
20
-41.3820016
40
89.1228415
50
33.0839448
51
33.2511059
0
ARC
8
DEFAULT_255_2_778
10
-62.0925627
20
-41.0934142
40
88.5977649
50
33.2505777
51
33.3693431
0
ARC
8
DEFAULT_255_2_778
10
-57.5206002
20
-38.0813282
40
83.122776
50
33.3688015
51
33.4765146
0
ARC
8
DEFAULT_255_2_778
10
-49.448333
20
-32.7431052
40
73.4450635
50
33.4764736
51
33.5558769
0
ARC
8
DEFAULT_255_2_778
10
-39.3921487
20
-26.0730887
40
61.3779198
50
33.5559854
51
33.61148
0
ARC
8
DEFAULT_255_2_778
10
-26.3238913
20
-17.38529
40
45.6853358
50
33.609919
51
33.6812222
0
ARC
8
DEFAULT_255_2_778
10
-7.7095583
20
-4.9798556
40
23.3159774
50
33.6811619
51
33.7346203
0
ARC
8
DEFAULT_255_2_778
10
145.3547877
20
97.2587666
40
160.7531128
50
213.74112
51
213.7416497
0
LINE
8
DEFAULT_255_2_778
10
9.5653191
20
8.6498389
11
14.9975191
21
1.9106389
0
LINE
8
DEFAULT_255_2_778
10
14.9975191
20
1.9106389
11
13.4388191
21
5.1743389
0
LINE
8
DEFAULT_255_2_778
10
11.6796191
20
7.9698389
11
9.7494191
21
10.5191389
0
LINE
8
DEFAULT_255_2_778
10
9.7494191
20
10.5191389
11
9.5653191
21
8.6498389
0
ARC
8
DEFAULT_255_2_778
10
2.8658067
20
13.612546
40
1.5822658
50
151.9124218
51
157.4578129
0
ARC
8
DEFAULT_255_2_778
10
3.7813828
20
13.2291028
40
2.5748897
50
157.3877513
51
161.3061962
0
ARC
8
DEFAULT_255_2_778
10
5.1022846
20
12.7801788
40
3.9699925
50
161.2790925
51
164.3325128
0
ARC
8
DEFAULT_255_2_778
10
6.8030017
20
12.2990214
40
5.7374596
50
164.2926229
51
166.3946721
0
ARC
8
DEFAULT_255_2_778
10
9.068536
20
11.752006
40
8.068097
50
166.4036316
51
168.4389962
0
ARC
8
DEFAULT_255_2_778
10
12.3291402
20
11.0839621
40
11.3964332
50
168.4338227
51
170.173718
0
ARC
8
DEFAULT_255_2_778
10
16.7278244
20
10.3213069
40
15.8607433
50
170.1708972
51
171.6922439
0
ARC
8
DEFAULT_255_2_778
10
23.9063393
20
9.2855046
40
23.1135952
50
171.7227139
51
173.5376933
0
ARC
8
DEFAULT_255_2_778
10
33.8033696
20
8.1520051
40
33.075318
50
173.5162286
51
174.8318618
0
ARC
8
DEFAULT_255_2_778
10
41.0172915
20
7.4821448
40
40.3202567
50
174.8072555
51
175.3638357
0
ARC
8
DEFAULT_255_2_778
10
44.6661768
20
7.1844268
40
43.981267
50
175.3614758
51
175.7819548
0
ARC
8
DEFAULT_255_2_778
10
46.7920694
20
7.0266697
40
46.1130048
50
175.7807551
51
176.1068706
0
ARC
8
DEFAULT_255_2_778
10
47.5270484
20
6.9761947
40
46.8497148
50
176.1063122
51
176.3646494
0
ARC
8
DEFAULT_255_2_778
10
47.1524807
20
6.9996843
40
46.4744116
50
176.3642702
51
176.5721573
0
ARC
8
DEFAULT_255_2_778
10
45.8399041
20
7.0782591
40
45.1594851
50
176.5720982
51
176.7417587
0
ARC
8
DEFAULT_255_2_778
10
43.3479594
20
7.2194726
40
42.6635426
50
176.7408885
51
176.947609
0
ARC
8
DEFAULT_255_2_778
10
38.8266045
20
7.4602327
40
38.135782
50
176.9470989
51
177.1406035
0
ARC
8
DEFAULT_255_2_778
10
32.9109595
20
7.7559712
40
32.2127492
50
177.141079
51
177.2881977
0
ARC
8
DEFAULT_255_2_778
10
25.5730946
20
8.1028643
40
24.8666895
50
177.2866631
51
177.4408665
0
ARC
8
DEFAULT_255_2_778
10
16.5071654
20
8.5081048
40
15.7917077
50
177.441006
51
177.5613734
0
ARC
8
DEFAULT_255_2_778
10
7.0430562
20
8.9105666
40
6.3190452
50
177.5559952
51
177.6587272
0
ARC
8
DEFAULT_255_2_778
10
-14.0528837
20
-3.4119602
40
25.8540759
50
26.0470756
51
26.0896989
0
ARC
8
DEFAULT_255_2_778
10
-49.6425508
20
-20.8347011
40
65.479526
50
26.086144
51
26.1312461
0
ARC
8
DEFAULT_255_2_778
10
-77.2490967
20
-34.3760158
40
96.2283241
50
26.1303556
51
26.1755836
0
ARC
8
DEFAULT_255_2_778
10
-98.2893376
20
-44.7167543
40
119.6723555
50
26.1750642
51
26.2200718
0
ARC
8
DEFAULT_255_2_778
10
-114.0223201
20
-52.4640855
40
137.2093986
50
26.2196586
51
26.2643106
0
ARC
8
DEFAULT_255_2_778
10
-128.5516821
20
-59.6338813
40
153.4115074
50
26.264376
51
26.3312148
0
ARC
8
DEFAULT_255_2_778
10
-140.2726759
20
-65.4346733
40
166.489385
50
26.3312051
51
26.413642
0
ARC
8
DEFAULT_255_2_778
10
-146.1146637
20
-68.3358953
40
173.0121076
50
26.4134937
51
26.4987464
0
ARC
8
DEFAULT_255_2_778
10
-146.976712
20
-68.7652322
40
173.9751535
50
26.4986164
51
26.5801509
0
ARC
8
DEFAULT_255_2_778
10
-143.2834121
20
-66.9161231
40
169.8448183
50
26.5797761
51
26.7192589
0
ARC
8
DEFAULT_255_2_778
10
-134.6198352
20
-62.5543809
40
160.1452123
50
26.7190136
51
26.8613423
0
ARC
8
DEFAULT_255_2_778
10
-119.5075034
20
-54.8940113
40
143.2022553
50
26.859107
51
27.1122873
0
ARC
8
DEFAULT_255_2_778
10
-97.6201727
20
-43.683509
40
118.6109846
50
27.1104531
51
27.4276764
0
ARC
8
DEFAULT_255_2_778
10
-80.1096318
20
-34.6038829
40
98.8864161
50
27.4316414
51
27.6281429
0
ARC
8
DEFAULT_255_2_778
10
-66.9807115
20
-27.7289057
40
84.0663671
50
27.6262527
51
27.9026946
0
ARC
8
DEFAULT_255_2_778
10
-54.9437328
20
-21.3568716
40
70.4468342
50
27.9040912
51
28.147144
0
ARC
8
DEFAULT_255_2_778
10
-44.5751824
20
-15.8075295
40
58.6866457
50
28.1453507
51
28.465293
0
ARC
8
DEFAULT_255_2_778
10
-35.2832432
20
-10.7705549
40
48.1172915
50
28.4661841
51
28.7806456
0
ARC
8
DEFAULT_255_2_778
10
-27.5704715
20
-6.5329073
40
39.3170356
50
28.7794863
51
29.1496309
0
ARC
8
DEFAULT_255_2_778
10
-5.8511981
20
5.5750154
40
14.4508223
50
29.1687585
51
30.1148755
0
ARC
8
DEFAULT_255_2_778
10
-8.1221803
20
4.2560434
40
17.0770449
50
30.1199308
51
31.196873
0
ARC
8
DEFAULT_255_2_778
10
-11.2408726
20
2.3654085
40
20.7240627
50
31.2018873
51
32.3679808
0
ARC
8
DEFAULT_255_2_778
10
-17.1170398
20
-1.3855617
40
27.6953426
50
32.4141909
51
34.4002554
0
ARC
8
DEFAULT_255_2_778
10
-23.5676408
20
-5.7708137
40
35.4953527
50
34.3581563
51
35.2549667
0
ARC
8
DEFAULT_255_2_778
10
-27.3833608
20
-8.4637036
40
40.1656165
50
35.2499691
51
35.9110759
0
ARC
8
DEFAULT_255_2_778
10
-29.9191529
20
-10.2977683
40
43.2951583
50
35.9086216
51
36.4120169
0
ARC
8
DEFAULT_255_2_778
10
-31.2696047
20
-11.2926638
40
44.9725183
50
36.4108062
51
36.8036843
0
ARC
8
DEFAULT_255_2_778
10
-31.5835662
20
-11.5269198
40
45.3642422
50
36.8030284
51
37.1157472
0
ARC
8
DEFAULT_255_2_778
10
-31.1010732
20
-11.1615206
40
44.7590017
50
37.1154572
51
37.3679851
0
ARC
8
DEFAULT_255_2_778
10
-29.5567402
20
-9.9812318
40
42.8152821
50
37.3670025
51
37.6722966
0
ARC
8
DEFAULT_255_2_778
10
-26.5463028
20
-7.6563115
40
39.0116014
50
37.6716989
51
37.9366258
0
ARC
8
DEFAULT_255_2_778
10
-22.3383356
20
-4.3761092
40
33.6761806
50
37.9365359
51
38.1551491
0
ARC
8
DEFAULT_255_2_778
10
-17.7027188
20
-0.7348891
40
27.7814859
50
38.1564114
51
38.3101781
0
ARC
8
DEFAULT_255_2_778
10
-11.8695177
20
3.8752222
40
20.3464768
50
38.3065457
51
38.4964572
0
ARC
8
DEFAULT_255_2_778
10
-3.9814665
20
10.1501194
40
10.2670082
50
38.4909789
51
38.6593515
0
ARC
8
DEFAULT_255_2_778
10
2.4378932
20
15.2851067
40
2.0465295
50
38.6684584
51
38.7260164
0
ARC
8
DEFAULT_255_2_778
10
4.9953839
20
14.8976938
40
1.9247338
50
119.9495221
51
120.2185951
0
ARC
8
DEFAULT_255_2_778
10
6.4102961
20
12.4653692
40
4.7386595
50
120.1998775
51
120.4934549
0
ARC
8
DEFAULT_255_2_778
10
7.8429663
20
10.0334504
40
7.5612066
50
120.496946
51
120.9390415
0
ARC
8
DEFAULT_255_2_778
10
9.1473939
20
7.8562149
40
10.0992936
50
120.9359429
51
121.4468402
0
ARC
8
DEFAULT_255_2_778
10
10.1070151
20
6.2860206
40
11.9395062
50
121.4444154
51
122.0143078
0
ARC
8
DEFAULT_255_2_778
10
10.6739351
20
5.3781526
40
13.0098436
50
122.0117156
51
122.5579347
0
ARC
8
DEFAULT_255_2_778
10
10.9661301
20
4.9203347
40
13.5529598
50
122.5575127
51
123.3515868
0
ARC
8
DEFAULT_255_2_778
10
10.9553526
20
4.9355473
40
13.5343273
50
123.3488814
51
124.32607
0
ARC
8
DEFAULT_255_2_778
10
10.5786125
20
5.4853662
40
12.8678194
50
124.3212446
51
125.5986513
0
ARC
8
DEFAULT_255_2_778
10
9.7530855
20
6.6334864
40
11.4537244
50
125.5840303
51
127.5226826
0
ARC
8
DEFAULT_255_2_778
10
8.9787601
20
7.6486901
40
10.1769322
50
127.546377
51
128.3004349
0
ARC
8
DEFAULT_255_2_778
10
7.1502768
20
9.8935277
40
7.2821115
50
127.9571886
51
135.2631335
0
ARC
8
DEFAULT_255_2_778
10
5.0449505
20
12.0153151
40
4.2932505
50
135.6016708
51
140.1862154
0
ARC
8
DEFAULT_255_2_778
10
4.106807
20
12.7990877
40
3.0707898
50
140.2114165
51
144.9220814
0
ARC
8
DEFAULT_255_2_778
10
3.5827465
20
13.1721166
40
2.4275414
50
145.0189418
51
147.6005162
0
ARC
8
DEFAULT_255_2_778
10
3.2924113
20
13.3563066
40
2.0837092
50
147.599155
51
150.4092118
0
ARC
8
DEFAULT_255_2_778
10
3.1168086
20
13.4572261
40
1.8811757
50
150.4410104
51
151.4561933
0
LINE
8
DEFAULT_255_2_778
10
0.7292859
20
9.1687093
11
9.1752859
21
7.9408093
0
ARC
8
DEFAULT_255_2_778
10
2.1824035
20
11.5264588
40
3.6292549
50
101.3208868
51
103.6017016
0
ARC
8
DEFAULT_255_2_778
10
2.7524898
20
9.1790649
40
6.0448821
50
103.6212153
51
105.7822213
0
ARC
8
DEFAULT_255_2_778
10
3.2667577
20
7.3163206
40
7.9772855
50
105.6978209
51
105.9374049
0
ARC
8
DEFAULT_255_2_778
10
3.7524107
20
5.6375243
40
9.7249085
50
105.9728131
51
107.2302493
0
ARC
8
DEFAULT_255_2_778
10
4.6349326
20
2.7849669
40
12.7108631
50
107.2210244
51
108.253819
0
ARC
8
DEFAULT_255_2_778
10
5.1519421
20
1.2068653
40
14.3714937
50
108.2406167
51
108.8299519
0
ARC
8
DEFAULT_255_2_778
10
5.0913954
20
1.3823486
40
14.18586
50
108.827257
51
109.1954067
0
ARC
8
DEFAULT_255_2_778
10
4.513305
20
3.0402169
40
12.4300938
50
109.1914515
51
109.5463039
0
ARC
8
DEFAULT_255_2_778
10
3.3211294
20
6.3973457
40
8.867567
50
109.5444783
51
109.8005858
0
ARC
8
DEFAULT_255_2_778
10
1.6477797
20
11.0431132
40
3.9296267
50
109.7907525
51
109.9938012
0
ARC
8
DEFAULT_255_2_778
10
3.2992019
20
13.3644839
40
2.0813886
50
146.029716
51
151.5042852
0
ARC
8
DEFAULT_255_2_778
10
3.6282934
20
13.149551
40
2.474416
50
145.3799975
51
146.1601812
0
ARC
8
DEFAULT_255_2_778
10
4.3033367
20
12.6603274
40
3.3079331
50
137.8834727
51
145.0493847
0
ARC
8
DEFAULT_255_2_778
10
5.8347669
20
11.2883711
40
5.3640189
50
133.2494833
51
137.9833045
0
LINE
8
DEFAULT_255_2_778
10
2.1594677
20
15.1956999
11
1.4699677
21
15.0850999
0
LINE
8
DEFAULT_255_2_778
10
0.3041677
20
14.7358999
11
1.4699677
21
14.3574999
0
ARC
8
DEFAULT_255_2_778
10
2.3867099
20
15.2087889
40
2.1352795
50
192.7549589
51
193.1558615
0
ARC
8
DEFAULT_255_2_778
10
5.2829347
20
15.8848731
40
5.1093689
50
193.1464085
51
193.8251763
0
ARC
8
DEFAULT_255_2_778
10
7.0507552
20
16.3183655
40
6.9295623
50
193.8127336
51
194.7127218
0
ARC
8
DEFAULT_255_2_778
10
7.3720218
20
16.4011383
40
7.2613174
50
194.7006169
51
195.9876155
0
ARC
8
DEFAULT_255_2_778
10
6.0723438
20
16.0203293
40
5.9070288
50
195.9089513
51
199.030983
0
ARC
8
DEFAULT_255_2_778
10
4.9797592
20
15.6544063
40
4.7548535
50
199.1556614
51
199.2202612
0
ARC
8
DEFAULT_255_2_778
10
3.935832
20
15.2803403
40
3.6459847
50
199.070121
51
202.9007249
0
ARC
8
DEFAULT_255_2_778
10
2.9110046
20
14.8689606
40
2.5419285
50
203.347971
51
206.5494323
0
ARC
8
DEFAULT_255_2_778
10
5.114336
20
15.9692796
40
5.004726
50
206.5433281
51
209.08734
0
ARC
8
DEFAULT_255_2_778
10
7.3318747
20
17.1858252
40
7.534017
50
208.9738371
51
209.6694999
0
ARC
8
DEFAULT_255_2_778
10
8.9374371
20
18.10169
40
9.3824321
50
209.6758705
51
210.5083081
0
ARC
8
DEFAULT_255_2_778
10
11.448075
20
19.5847266
40
12.2983698
50
210.5230286
51
211.6449106
0
ARC
8
DEFAULT_255_2_778
10
13.2289593
20
20.6762481
40
14.3871364
50
211.6245312
51
212.0618462
0
ARC
8
DEFAULT_255_2_778
10
13.536336
20
20.8681552
40
14.7495016
50
212.0597892
51
212.4355215
0
ARC
8
DEFAULT_255_2_778
10
12.332502
20
11.077405
40
11.4007312
50
167.9201417
51
170.5092254
0
ARC
8
DEFAULT_255_2_778
10
7.6846456
20
12.0758623
40
6.646842
50
164.4723403
51
167.9517682
0
ARC
8
DEFAULT_255_2_778
10
4.7813027
20
12.8867311
40
3.6323969
50
159.5975155
51
164.5360333
0
ARC
8
DEFAULT_255_2_778
10
3.1096375
20
13.5118155
40
1.8476908
50
152.5533435
51
159.6938682
0
LINE
8
DEFAULT_255_2_778
10
1.4699222
20
14.3576579
11
0.3041222
21
14.7373579
0
ARC
8
DEFAULT_255_2_778
10
-27.3055809
20
-6.370795
40
39.0072246
50
28.8681489
51
29.1325607
0
ARC
8
DEFAULT_255_2_778
10
-34.292491
20
-10.2198553
40
46.9842023
50
28.5165087
51
28.8650998
0
ARC
8
DEFAULT_255_2_778
10
-43.0052304
20
-14.9561681
40
56.9010809
50
28.2528266
51
28.5186589
0
ARC
8
DEFAULT_255_2_778
10
-54.1964266
20
-20.9661294
40
69.6039348
50
27.9142604
51
28.2499285
0
ARC
8
DEFAULT_255_2_778
10
-68.6117517
20
-28.605567
40
85.9184253
50
27.637592
51
27.9156284
0
ARC
8
DEFAULT_255_2_778
10
-82.1444484
20
-35.6959762
40
101.1961139
50
27.4524586
51
27.6397874
0
ARC
8
DEFAULT_255_2_778
10
-104.726107
20
-47.4036081
40
126.6323005
50
27.0171175
51
27.4428902
0
ARC
8
DEFAULT_255_2_778
10
-128.9750018
20
-59.7918378
40
153.8623717
50
26.8444559
51
27.0249712
0
ARC
8
DEFAULT_255_2_778
10
-141.1791678
20
-65.9707929
40
167.5415949
50
26.7086416
51
26.8451568
0
ARC
8
DEFAULT_255_2_778
10
-148.0949476
20
-69.4517019
40
175.2839936
50
26.6029836
51
26.7090291
0
ARC
8
DEFAULT_255_2_778
10
-150.6053722
20
-70.7094134
40
178.091852
50
26.5191431
51
26.6031047
0
ARC
8
DEFAULT_255_2_778
10
-148.6924605
20
-69.755065
40
175.9540933
50
26.4513883
51
26.5191991
0
ARC
8
DEFAULT_255_2_778
10
-144.529603
20
-67.6841524
40
171.3045705
50
26.3962324
51
26.4514493
0
ARC
8
DEFAULT_255_2_778
10
-135.3007637
20
-63.1046838
40
161.0019976
50
26.3289509
51
26.3965546
0
ARC
8
DEFAULT_255_2_778
10
-119.6192366
20
-55.3454943
40
143.5058462
50
26.265858
51
26.3292964
0
ARC
8
DEFAULT_255_2_778
10
-99.1961884
20
-45.2673068
40
120.7315018
50
26.2176076
51
26.266017
0
ARC
8
DEFAULT_255_2_778
10
-74.338338
20
-33.0278345
40
93.023788
50
26.1676688
51
26.2184898
0
ARC
8
DEFAULT_255_2_778
10
-45.1628976
20
-18.6922061
40
60.516611
50
26.1289753
51
26.1676894
0
ARC
8
DEFAULT_255_2_778
10
-13.8625897
20
-3.3389888
40
25.6535852
50
26.09835
51
26.1295331
0
ARC
8
DEFAULT_255_2_778
10
1.2969108
20
5.665963
40
9.8679747
50
33.7664023
51
33.8519302
0
ARC
8
DEFAULT_255_2_778
10
-9.5292463
20
-1.5936427
40
22.9028338
50
33.8475813
51
33.9464071
0
ARC
8
DEFAULT_255_2_778
10
-18.7656487
20
-7.8096724
40
34.0361241
50
33.9443959
51
34.0424699
0
ARC
8
DEFAULT_255_2_778
10
-25.5949149
20
-12.4225876
40
42.2773535
50
34.0415133
51
34.1393015
0
ARC
8
DEFAULT_255_2_778
10
-32.0657789
20
-16.8106476
40
50.0957389
50
34.1397553
51
34.2863802
0
ARC
8
DEFAULT_255_2_778
10
-37.1924429
20
-20.3050663
40
56.3000635
50
34.2855655
51
34.4291053
0
ARC
8
DEFAULT_255_2_778
10
-40.5482774
20
-22.6053331
40
60.3685833
50
34.4290851
51
34.6178485
0
ARC
8
DEFAULT_255_2_778
10
-42.1206834
20
-23.6901339
40
62.2788853
50
34.6173544
51
34.7984459
0
ARC
8
DEFAULT_255_2_778
10
-42.1182129
20
-23.6876646
40
62.2754474
50
34.7978774
51
35.0613256
0
ARC
8
DEFAULT_255_2_778
10
-40.2755194
20
-22.3933596
40
60.0236161
50
35.0604696
51
35.3850929
0
ARC
8
DEFAULT_255_2_778
10
-36.4365177
20
-19.6645459
40
55.313589
50
35.3833362
51
35.809165
0
ARC
8
DEFAULT_255_2_778
10
-29.645825
20
-14.7556094
40
46.9343831
50
35.7995788
51
36.5728477
0
ARC
8
DEFAULT_255_2_778
10
-24.6353602
20
-11.0520878
40
40.7037582
50
36.5885558
51
36.7183662
0
ARC
8
DEFAULT_255_2_778
10
-20.1594874
20
-7.7002476
40
35.1119664
50
36.7008451
51
37.5600103
0
ARC
8
DEFAULT_255_2_778
10
-13.2828452
20
-2.4101313
40
26.4359341
50
37.5565212
51
38.5647857
0
ARC
8
DEFAULT_255_2_778
10
-7.9438565
20
1.8456397
40
19.6083148
50
38.5668825
51
39.6262567
0
ARC
8
DEFAULT_255_2_778
10
-4.1642317
20
4.97428
40
14.7017935
50
39.6294263
51
40.7187591
0
ARC
8
DEFAULT_255_2_778
10
-1.3386363
20
7.407571
40
10.972867
50
40.7136715
51
42.0144976
0
ARC
8
DEFAULT_255_2_778
10
0.8322442
20
9.3636225
40
8.0507342
50
42.0124511
51
43.485758
0
ARC
8
DEFAULT_255_2_778
10
2.5216749
20
10.9684443
40
5.7205787
50
43.4682456
51
45.4319415
0
ARC
8
DEFAULT_255_2_778
10
3.824898
20
12.2931337
40
3.8623026
50
45.4145855
51
47.9178932
0
ARC
8
DEFAULT_255_2_778
10
4.7351551
20
13.3026707
40
2.5029896
50
47.894837
51
51.107995
0
ARC
8
DEFAULT_255_2_778
10
5.080586
20
13.723847
40
1.9582998
50
51.2373757
51
51.492303
0
ARC
8
DEFAULT_255_2_778
10
4.9489027
20
13.5760215
40
2.1559936
50
51.1998075
51
53.6834487
0
ARC
8
DEFAULT_255_2_778
10
4.0825389
20
12.3980265
40
3.618272
50
53.6768597
51
55.723135
0
ARC
8
DEFAULT_255_2_778
10
2.7910774
20
10.5057295
40
5.9092673
50
55.7091673
51
57.308109
0
ARC
8
DEFAULT_255_2_778
10
1.2634677
20
8.1343334
40
8.7300997
50
57.2767675
51
58.2418539
0
ARC
8
DEFAULT_255_2_778
10
-0.7339749
20
4.9017074
40
12.5300524
50
58.2558614
51
59.3372132
0
ARC
8
DEFAULT_255_2_778
10
-3.4677207
20
0.2974039
40
17.8847672
50
59.3263182
51
60.1244057
0
ARC
8
DEFAULT_255_2_778
10
-6.2885159
20
-4.6062965
40
23.5419001
50
60.1163418
51
60.6845642
0
ARC
8
DEFAULT_255_2_778
10
-10.3088726
20
-11.7851278
40
31.7698295
50
60.7014828
51
61.5578445
0
ARC
8
DEFAULT_255_2_778
10
-13.9751327
20
-18.5284962
40
39.4453988
50
61.5403212
51
61.9273514
0
ARC
8
DEFAULT_255_2_778
10
-15.3073081
20
-21.0227218
40
42.273092
50
61.9250641
51
62.1865639
0
ARC
8
DEFAULT_255_2_778
10
-15.2667273
20
-20.9443867
40
42.1848723
50
62.18567
51
62.3992232
0
ARC
8
DEFAULT_255_2_778
10
-13.8777434
20
-18.2868671
40
39.1862582
50
62.3987313
51
62.5666316
0
ARC
8
DEFAULT_255_2_778
10
-11.5424628
20
-13.7885504
40
34.1178869
50
62.5670043
51
62.6810421
0
ARC
8
DEFAULT_255_2_778
10
-8.2873395
20
-7.4852179
40
27.0236762
50
62.679326
51
62.7970152
0
ARC
8
DEFAULT_255_2_778
10
-4.0345402
20
0.7891653
40
17.7203585
50
62.7964375
51
62.8862374
0
ARC
8
DEFAULT_255_2_778
10
0.6055869
20
9.8521498
40
7.5385871
50
62.8836416
51
62.956247
0
ARC
8
DEFAULT_255_2_778
10
-0.8613362
20
12.6420989
40
6.2734967
50
38.5798482
51
38.7223316
0
ARC
8
DEFAULT_255_2_778
10
-8.1107103
20
6.855611
40
15.5491025
50
38.4356338
51
38.590109
0
ARC
8
DEFAULT_255_2_778
10
-14.06287
20
2.1305939
40
23.148707
50
38.2849129
51
38.4382767
0
ARC
8
DEFAULT_255_2_778
10
-18.657475
20
-1.4969433
40
29.002716
50
38.1343711
51
38.2863097
0
ARC
8
DEFAULT_255_2_778
10
-23.0629961
20
-4.9548675
40
34.6032388
50
37.9065512
51
38.1334397
0
ARC
8
DEFAULT_255_2_778
10
-26.9594097
20
-7.9894109
40
39.541912
50
37.6480861
51
37.9071829
0
ARC
8
DEFAULT_255_2_778
10
-29.6192755
20
-10.042022
40
42.9016886
50
37.3623098
51
37.6488053
0
ARC
8
DEFAULT_255_2_778
10
-30.9996015
20
-11.0965559
40
44.638738
50
37.090929
51
37.3629557
0
ARC
8
DEFAULT_255_2_778
10
-31.3976971
20
-11.3979362
40
45.1380476
50
36.6997839
51
37.091336
0
ARC
8
DEFAULT_255_2_778
10
-30.6964755
20
-10.8762593
40
44.2640577
50
36.2251905
51
36.700815
0
ARC
8
DEFAULT_255_2_778
10
-28.7186097
20
-9.4292085
40
41.8133626
50
35.6150793
51
36.227251
0
ARC
8
DEFAULT_255_2_778
10
-25.1661109
20
-6.8893178
40
37.4462954
50
34.7116469
51
35.6211284
0
ARC
8
DEFAULT_255_2_778
10
-22.0371456
20
-4.7145572
40
33.6357879
50
34.3537931
51
34.7015353
0
ARC
8
DEFAULT_255_2_778
10
-17.0000999
20
-1.3025054
40
27.551946
50
32.40373
51
34.4068805
0
ARC
8
DEFAULT_255_2_778
10
-11.3389545
20
2.3126794
40
20.8349769
50
31.3195375
51
32.3526606
0
ARC
8
DEFAULT_255_2_778
10
-8.4735224
20
4.0570821
40
17.480332
50
30.3103678
51
31.317146
0
ARC
8
DEFAULT_255_2_778
10
-6.0769967
20
5.4577877
40
14.7044879
50
29.2167518
51
30.3113526
0
ARC
8
DEFAULT_255_2_778
10
-5.0658074
20
6.0280207
40
13.5436041
50
29.121354
51
29.19936
0
LINE
8
DEFAULT_255_2_778
10
9.1753621
20
7.9463646
11
9.5002621
21
11.1506646
0
ARC
8
DEFAULT_255_2_778
10
6.3903392
20
15.4990503
40
0.6108457
50
88.1128794
51
88.2935514
0
ARC
8
DEFAULT_255_2_778
10
6.3547163
20
14.3029191
40
1.8075073
50
88.2939362
51
88.601453
0
ARC
8
DEFAULT_255_2_778
10
6.3268549
20
13.171651
40
2.9391183
50
88.5967286
51
88.940533
0
ARC
8
DEFAULT_255_2_778
10
6.3110096
20
12.3280881
40
3.7828301
50
88.9368215
51
89.3093289
0
ARC
8
DEFAULT_255_2_778
10
6.3038437
20
11.752171
40
4.3587918
50
89.3063955
51
89.6405396
0
ARC
8
DEFAULT_255_2_778
10
6.3018181
20
11.4326603
40
4.6783089
50
89.6402815
51
90.0015028
0
ARC
8
DEFAULT_255_2_778
10
6.3019915
20
11.1818347
40
4.9291345
50
90.0034428
51
91.0134155
0
ARC
8
DEFAULT_255_2_778
10
6.2964654
20
11.4208562
40
4.6900528
50
90.9975605
51
92.6880156
0
ARC
8
DEFAULT_255_2_778
10
6.2442593
20
12.4452898
40
3.6643003
50
92.6238251
51
95.7543535
0
ARC
8
DEFAULT_255_2_778
10
6.0914033
20
13.9027293
40
2.198887
50
95.5991187
51
101.1372385
0
ARC
8
DEFAULT_255_2_778
10
5.9452128
20
14.6855522
40
1.4025902
50
101.4547475
51
103.3458666
0
ARC
8
DEFAULT_255_2_778
10
6.0775653
20
14.3651769
40
1.7457257
50
105.1456004
51
117.8455551
0
LINE
8
DEFAULT_255_2_778
10
6.0458547
20
15.4404648
11
6.4104547
21
16.1095648
0
LINE
8
DEFAULT_255_2_778
10
5.2621547
20
15.9087648
11
6.0458547
21
15.4406648
0
ARC
8
DEFAULT_255_2_778
10
4.5913191
20
13.1396594
40
2.724147
50
45.9533744
51
50.9845248
0
ARC
8
DEFAULT_255_2_778
10
2.4641449
20
10.9214449
40
5.7974617
50
43.2715666
51
46.0842358
0
ARC
8
DEFAULT_255_2_778
10
5.6131133
20
15.2428103
40
1.0652162
50
5.3135708
51
12.5254166
0
ARC
8
DEFAULT_255_2_778
10
5.1064848
20
15.1364946
40
1.5828556
50
12.3050254
51
15.4738863
0
ARC
8
DEFAULT_255_2_778
10
4.3218189
20
14.909688
40
2.3996088
50
15.6944443
51
21.4359097
0
ARC
8
DEFAULT_255_2_778
10
3.6640746
20
14.6637585
40
3.1017535
50
21.2241891
51
21.8268096
0
ARC
8
DEFAULT_255_2_778
10
3.378125
20
14.5477703
40
3.4103288
50
21.8496
51
23.9581738
0
ARC
8
DEFAULT_255_2_778
10
3.2224415
20
14.4798703
40
3.5801712
50
23.9394749
51
25.4802556
0
ARC
8
DEFAULT_255_2_778
10
3.5741424
20
14.6480293
40
3.190337
50
25.4712578
51
26.5135488
0
ARC
8
DEFAULT_255_2_778
10
4.3598148
20
15.0402865
40
2.3121874
50
26.5068208
51
27.2518804
0
ARC
8
DEFAULT_255_2_778
10
5.5060423
20
15.6314055
40
1.0225137
50
27.21574
51
27.8103803
0
LINE
8
DEFAULT_255_2_778
10
6.6853521
20
14.8953561
11
6.6737521
21
15.3414561
0
LINE
8
DEFAULT_255_2_778
10
6.4104521
20
16.1084561
11
6.0458521
21
15.4401561
0
LINE
8
DEFAULT_255_2_778
10
6.0458521
20
15.4401561
11
6.3062521
21
15.2557561
0
ENDSEC
0
EOF