0
SECTION
2
HEADER
9
$MEASUREMENT
70
1
0
ENDSEC
0
SECTION
2
TABLES
0
TABLE
2
LTYPE
0
LTYPE
72
65
70
64
2
CONTINUOUS
3
______
73
0
40
0
0
ENDTAB
0
TABLE
2
LAYER
0
LAYER
2
DEFAULT_255_2_778
70
0
62
255
6
CONTINUOUS
0
ENDTAB
0
ENDSEC
0
SECTION
2
ENTITIES
0
ARC
8
DEFAULT_255_2_778
10
34.4419091
20
7.433497
40
7.5559285
50
350.5755668
51
0.0536495
0
ARC
8
DEFAULT_255_2_778
10
34.9229603
20
7.3523514
40
7.0680831
50
339.4955118
51
350.5859411
0
ARC
8
DEFAULT_255_2_778
10
35.3707343
20
7.1814762
40
6.5888242
50
325.1132438
51
339.5233625
0
ARC
8
DEFAULT_255_2_778
10
35.7990556
20
6.8635032
40
6.0556333
50
291.7502353
51
325.2631832
0
ARC
8
DEFAULT_255_2_778
10
35.7693761
20
6.9749391
40
6.1701492
50
279.9797994
51
291.6227638
0
ARC
8
DEFAULT_255_2_778
10
35.6947913
20
7.4000161
40
6.60172
50
270.7062999
51
279.9779775
0
ARC
8
DEFAULT_255_2_778
10
35.6831032
20
7.7188075
40
6.9206355
50
269.9994293
51
270.7705235
0
ARC
8
DEFAULT_255_2_778
10
35.6770067
20
7.4099571
40
6.6117878
50
259.4174391
51
270.0522333
0
ARC
8
DEFAULT_255_2_778
10
35.6262215
20
7.1351517
40
6.3323296
50
245.4608047
51
259.4124881
0
ARC
8
DEFAULT_255_2_778
10
35.6250263
20
7.1039107
40
6.3034252
50
206.1395179
51
245.3527502
0
ARC
8
DEFAULT_255_2_778
10
35.8902371
20
7.2498316
40
6.6058132
50
193.4455109
51
206.2622995
0
ARC
8
DEFAULT_255_2_778
10
36.1996641
20
7.3242212
40
6.9240562
50
183.3000152
51
193.448842
0
ARC
8
DEFAULT_255_2_778
10
36.4847218
20
7.3458425
40
7.2098877
50
179.9934073
51
183.3411502
0
ARC
8
DEFAULT_255_2_778
10
36.1179927
20
7.3526471
40
6.843161
50
170.1251052
51
180.050027
0
ARC
8
DEFAULT_255_2_778
10
35.8056083
20
7.4068842
40
6.5261033
50
157.4003258
51
170.1238802
0
ARC
8
DEFAULT_255_2_778
10
35.687111
20
7.4507299
40
6.3998576
50
118.3199003
51
157.3550395
0
ARC
8
DEFAULT_255_2_778
10
35.8092905
20
7.2411006
40
6.6423632
50
104.9837628
51
118.3898493
0
ARC
8
DEFAULT_255_2_778
10
35.8870001
20
6.9524803
40
6.9412617
50
94.6168039
51
104.9874445
0
ARC
8
DEFAULT_255_2_778
10
35.9156605
20
6.6511173
40
7.243955
50
89.9875521
51
94.6508958
0
ARC
8
DEFAULT_255_2_778
10
35.9749425
20
6.3475219
40
7.5477708
50
58.916171
51
90.4380723
0
ARC
8
DEFAULT_255_2_778
10
36.0855314
20
6.6068323
40
7.2687036
50
51.6546577
51
58.6074111
0
ARC
8
DEFAULT_255_2_778
10
36.2633277
20
6.7026594
40
8.0487229
50
53.7868973
51
80.4604339
0
ARC
8
DEFAULT_255_2_778
10
35.93706
20
5.1425667
40
9.6415208
50
80.0848358
51
90.102366
0
ARC
8
DEFAULT_255_2_778
10
35.9139612
20
6.4169689
40
8.3671052
50
89.9597829
51
98.756857
0
ARC
8
DEFAULT_255_2_778
10
35.8534705
20
6.8072717
40
7.9721429
50
98.7542318
51
109.2030757
0
ARC
8
DEFAULT_255_2_778
10
35.7471033
20
7.1092474
40
7.6519834
50
109.1946611
51
122.6352997
0
ARC
8
DEFAULT_255_2_778
10
35.5347152
20
7.4104017
40
7.2838551
50
122.5059263
51
159.0227759
0
ARC
8
DEFAULT_255_2_778
10
35.5851525
20
7.4058271
40
7.3326002
50
159.1304901
51
170.9230043
0
ARC
8
DEFAULT_255_2_778
10
35.9051389
20
7.3549457
40
7.6566067
50
170.9247799
51
180.0424565
0
ARC
8
DEFAULT_255_2_778
10
36.116384
20
7.3432361
40
7.867852
50
179.9560444
51
189.0908978
0
ARC
8
DEFAULT_255_2_778
10
35.7649853
20
7.287125
40
7.5120017
50
189.0917756
51
200.4999275
0
ARC
8
DEFAULT_255_2_778
10
35.5863929
20
7.2214024
40
7.3217026
50
200.507625
51
216.819532
0
ARC
8
DEFAULT_255_2_778
10
35.6037748
20
7.2429726
40
7.3485475
50
216.8729452
51
244.8279437
0
ARC
8
DEFAULT_255_2_778
10
35.6999512
20
7.4369473
40
7.5650101
50
244.7935725
51
257.4872229
0
ARC
8
DEFAULT_255_2_778
10
35.7634784
20
7.7228559
40
7.8578914
50
257.4866831
51
267.5139574
0
ARC
8
DEFAULT_255_2_778
10
35.7792455
20
7.9623345
40
8.0978304
50
267.476
51
269.3213692
0
ARC
8
DEFAULT_255_2_778
10
35.6917686
20
7.8855664
40
8.0204987
50
269.9397482
51
277.3932744
0
ARC
8
DEFAULT_255_2_778
10
35.7783624
20
7.2208948
40
7.3502102
50
277.3905889
51
286.2017752
0
ARC
8
DEFAULT_255_2_778
10
35.9122442
20
6.7613557
40
6.8715659
50
286.1989096
51
297.9066478
0
ARC
8
DEFAULT_255_2_778
10
35.8985738
20
6.7315504
40
6.8516744
50
298.1243232
51
330.4136192
0
ARC
8
DEFAULT_255_2_778
10
35.1624731
20
7.1932589
40
7.7198522
50
330.1310778
51
340.9537519
0
ARC
8
DEFAULT_255_2_778
10
34.4938298
20
7.4261168
40
8.4278801
50
340.94076
51
350.1355519
0
ARC
8
DEFAULT_255_2_778
10
33.7526899
20
7.5568905
40
9.1804668
50
350.1238825
51
358.0795653
0
ARC
8
DEFAULT_255_2_778
10
33.2540657
20
7.5823656
40
9.6796687
50
358.0277661
51
0.00359
0
ARC
8
DEFAULT_255_2_778
10
35.9296399
20
6.1972876
40
4.8480003
50
71.6592362
51
90.1466147
0
ARC
8
DEFAULT_255_2_778
10
35.9230549
20
6.224743
40
4.8240347
50
52.41582
51
71.4823882
0
ARC
8
DEFAULT_255_2_778
10
35.6970118
20
5.9140374
40
5.2081359
50
46.4502607
51
52.5299889
0
ARC
8
DEFAULT_255_2_778
10
36.1727352
20
6.6436538
40
5.2896669
50
48.0506871
51
67.0494069
0
ARC
8
DEFAULT_255_2_778
10
35.9654331
20
6.1791004
40
5.7982899
50
66.9531049
51
81.4710761
0
ARC
8
DEFAULT_255_2_778
10
35.9217982
20
5.9266332
40
6.0544392
50
81.4170469
51
90.0185858
0
ARC
8
DEFAULT_255_2_778
10
35.9132865
20
7.0663389
40
4.9147375
50
89.923666
51
101.7594277
0
ARC
8
DEFAULT_255_2_778
10
35.8532315
20
7.3536762
40
4.6211916
50
101.7565217
51
117.5168862
0
ARC
8
DEFAULT_255_2_778
10
35.7924817
20
7.4760945
40
4.4845556
50
117.55114
51
159.7851634
0
ARC
8
DEFAULT_255_2_778
10
36.0172751
20
7.387268
40
4.7261992
50
159.7163082
51
173.4608303
0
ARC
8
DEFAULT_255_2_778
10
36.2844111
20
7.3523334
40
4.9955775
50
173.4116808
51
180.0259353
0
ARC
8
DEFAULT_255_2_778
10
36.6333425
20
7.3436465
40
5.3445121
50
179.9311145
51
190.6883376
0
ARC
8
DEFAULT_255_2_778
10
36.2739806
20
7.2750168
40
4.9786565
50
190.6792534
51
203.4417172
0
ARC
8
DEFAULT_255_2_778
10
35.9633881
20
7.1371678
40
4.638861
50
203.4057379
51
220.4431205
0
ARC
8
DEFAULT_255_2_778
10
35.6750263
20
6.8736689
40
4.2484946
50
220.2613585
51
258.0581385
0
ARC
8
DEFAULT_255_2_778
10
35.6816537
20
6.9606407
40
4.334971
50
258.2102959
51
270.0605419
0
ARC
8
DEFAULT_255_2_778
10
35.696074
20
7.8743052
40
5.2486423
50
269.8925861
51
278.5711524
0
ARC
8
DEFAULT_255_2_778
10
35.8052454
20
7.1614558
40
4.527484
50
278.5495021
51
289.0920851
0
ARC
8
DEFAULT_255_2_778
10
36.0033642
20
6.5974457
40
3.9296966
50
289.0521274
51
303.4162698
0
ARC
8
DEFAULT_255_2_778
10
36.2014386
20
6.2926936
40
3.5662405
50
303.4564576
51
338.5755738
0
ARC
8
DEFAULT_255_2_778
10
35.7651722
20
6.4738879
40
4.0385573
50
338.4433894
51
350.5375047
0
ARC
8
DEFAULT_255_2_778
10
35.2873119
20
6.5610351
40
4.5242488
50
350.443787
51
356.400215
0
ARC
8
DEFAULT_255_2_778
10
36.1893997
20
6.2465617
40
2.6344709
50
323.2785652
51
340.9795325
0
ARC
8
DEFAULT_255_2_778
10
36.1282562
20
6.3244211
40
2.7301571
50
292.4926267
51
322.7360802
0
ARC
8
DEFAULT_255_2_778
10
35.8160035
20
7.0137508
40
3.4865935
50
279.242348
51
292.8999448
0
ARC
8
DEFAULT_255_2_778
10
35.6951543
20
7.7087012
40
4.1919386
50
269.8780807
51
279.3470984
0
ARC
8
DEFAULT_255_2_778
10
35.6813836
20
6.6844916
40
3.1677232
50
251.5528047
51
270.0877363
0
ARC
8
DEFAULT_255_2_778
10
35.760181
20
6.8394121
40
3.3397164
50
217.2932454
51
251.1114324
0
ARC
8
DEFAULT_255_2_778
10
36.1539198
20
7.1692995
40
3.8529042
50
201.3659045
51
217.6483044
0
ARC
8
DEFAULT_255_2_778
10
36.4870482
20
7.3031889
40
4.2119179
50
188.2091525
51
201.4110853
0
ARC
8
DEFAULT_255_2_778
10
36.7795589
20
7.3493591
40
4.5080255
50
179.9604347
51
188.2591058
0
ARC
8
DEFAULT_255_2_778
10
36.2587594
20
7.3594061
40
3.9872311
50
167.3926912
51
180.0996412
0
ARC
8
DEFAULT_255_2_778
10
35.9692641
20
7.4247725
40
3.6904487
50
150.2804309
51
167.4020501
0
ARC
8
DEFAULT_255_2_778
10
35.8342478
20
7.5000587
40
3.5358689
50
106.8767548
51
150.2552852
0
ARC
8
DEFAULT_255_2_778
10
35.9070024
20
7.2755041
40
3.7718767
50
92.5274332
51
106.9440453
0
ARC
8
DEFAULT_255_2_778
10
35.9225231
20
7.0716054
40
3.9762667
50
89.9955168
51
92.6212984
0
LINE
8
DEFAULT_255_2_778
10
17.2527343
20
2.4354721
11
16.1769343
21
0.2393721
0
LINE
8
DEFAULT_255_2_778
10
16.1769343
20
0.2393721
11
17.2527343
21
0.2393721
0
LINE
8
DEFAULT_255_2_778
10
17.2527343
20
0.2393721
11
17.9075343
21
1.5490721
0
LINE
8
DEFAULT_255_2_778
10
17.9075343
20
1.5490721
11
23.1934343
21
1.5490721
0
LINE
8
DEFAULT_255_2_778
10
23.1934343
20
1.5490721
11
23.8014343
21
0.2393721
0
LINE
8
DEFAULT_255_2_778
10
23.8014343
20
0.2393721
11
24.9238343
21
0.2393721
0
LINE
8
DEFAULT_255_2_778
10
24.9238343
20
0.2393721
11
23.8480343
21
2.4354721
0
LINE
8
DEFAULT_255_2_778
10
23.8480343
20
2.4354721
11
17.2527343
21
2.4354721
0
LINE
8
DEFAULT_255_2_778
10
20.4803343
20
15.2055721
11
12.9492343
21
0.2367721
0
LINE
8
DEFAULT_255_2_778
10
12.9492343
20
0.2367721
11
14.0719343
21
0.2367721
0
LINE
8
DEFAULT_255_2_778
10
14.0719343
20
0.2367721
11
20.5740343
21
13.3812721
0
LINE
8
DEFAULT_255_2_778
10
20.5740343
20
13.3812721
11
27.0761343
21
0.2367721
0
LINE
8
DEFAULT_255_2_778
10
27.0761343
20
0.2367721
11
28.2456343
21
0.2367721
0
LINE
8
DEFAULT_255_2_778
10
28.2456343
20
0.2367721
11
20.6674343
21
15.2055721
0
LINE
8
DEFAULT_255_2_778
10
20.6674343
20
15.2055721
11
20.4803343
21
15.2055721
0
LINE
8
DEFAULT_255_2_778
10
0.9742343
20
11.7440721
11
0.9742343
21
10.8084721
0
LINE
8
DEFAULT_255_2_778
10
0.9742343
20
10.8084721
11
5.6520343
21
10.8084721
0
LINE
8
DEFAULT_255_2_778
10
5.6520343
20
10.8084721
11
0.1323343
21
0.4240721
0
LINE
8
DEFAULT_255_2_778
10
0.1323343
20
0.4240721
11
0.1323343
21
0.2370721
0
LINE
8
DEFAULT_255_2_778
10
0.1323343
20
0.2370721
11
11.6866343
21
0.2370721
0
LINE
8
DEFAULT_255_2_778
10
11.6866343
20
0.2370721
11
11.6866343
21
1.1260721
0
LINE
8
DEFAULT_255_2_778
10
11.6866343
20
1.1260721
11
1.5822343
21
1.1260721
0
LINE
8
DEFAULT_255_2_778
10
1.5822343
20
1.1260721
11
7.2422343
21
11.7448721
0
LINE
8
DEFAULT_255_2_778
10
7.2422343
20
11.7448721
11
0.9716343
21
11.7448721
0
LINE
8
DEFAULT_255_2_778
10
0.9716343
20
13.5217721
11
10.2801343
21
13.5217721
0
LINE
8
DEFAULT_255_2_778
10
10.2801343
20
13.5217721
11
4.6228343
21
2.9032721
0
LINE
8
DEFAULT_255_2_778
10
4.6228343
20
2.9032721
11
11.6866343
21
2.9032721
0
LINE
8
DEFAULT_255_2_778
10
11.6866343
20
2.9032721
11
11.6866343
21
3.8390721
0
LINE
8
DEFAULT_255_2_778
10
11.6866343
20
3.8390721
11
6.1667343
21
3.8390721
0
LINE
8
DEFAULT_255_2_778
10
6.1667343
20
3.8390721
11
11.7335343
21
14.2702721
0
LINE
8
DEFAULT_255_2_778
10
11.7335343
20
14.2702721
11
11.7335343
21
14.4567721
0
LINE
8
DEFAULT_255_2_778
10
11.7335343
20
14.4567721
11
0.9742343
21
14.4567721
0
LINE
8
DEFAULT_255_2_778
10
0.9742343
20
14.4567721
11
0.9742343
21
13.5212721
0
LINE
8
DEFAULT_255_2_778
10
20.5740343
20
7.5807721
11
21.7903343
21
4.8211721
0
LINE
8
DEFAULT_255_2_778
10
21.7903343
20
4.8211721
11
19.3112343
21
4.8211721
0
LINE
8
DEFAULT_255_2_778
10
19.3112343
20
4.8211721
11
20.5740343
21
7.5807721
0
LINE
8
DEFAULT_255_2_778
10
20.5740343
20
7.5807721
11
20.5740343
21
7.5807721
0
LINE
8
DEFAULT_255_2_778
10
18.0012343
20
4.0724721
11
23.0997343
21
4.0724721
0
LINE
8
DEFAULT_255_2_778
10
23.0997343
20
4.0724721
11
20.5740343
21
9.2648721
0
LINE
8
DEFAULT_255_2_778
10
20.5740343
20
9.2648721
11
18.0012343
21
4.0726721
0
LINE
8
DEFAULT_255_2_778
10
18.0012343
20
4.0726721
11
18.0012343
21
4.0724721
0
LINE
8
DEFAULT_255_2_778
10
42.9334343
20
8.6571721
11
34.5136343
21
8.6571721
0
LINE
8
DEFAULT_255_2_778
10
34.5136343
20
8.6571721
11
34.5136343
21
7.7681721
0
LINE
8
DEFAULT_255_2_778
10
34.5136343
20
7.7681721
11
41.9978343
21
7.7681721
0
LINE
8
DEFAULT_255_2_778
10
41.9978343
20
7.7681721
11
41.9978343
21
7.4405721
0
LINE
8
DEFAULT_255_2_778
10
40.5950343
20
12.3075721
11
41.0184343
21
13.1965721
0
LINE
8
DEFAULT_255_2_778
10
42.9337343
20
7.5829721
11
42.9337343
21
8.6597721
0
LINE
8
DEFAULT_255_2_778
10
63.3754343
20
11.7440721
11
63.3754343
21
0.2367721
0
LINE
8
DEFAULT_255_2_778
10
63.3754343
20
0.2367721
11
64.3578343
21
0.2367721
0
LINE
8
DEFAULT_255_2_778
10
64.3578343
20
0.2367721
11
64.3578343
21
10.8081721
0
LINE
8
DEFAULT_255_2_778
10
64.3578343
20
10.8081721
11
67.8656343
21
10.8081721
0
LINE
8
DEFAULT_255_2_778
10
67.8656343
20
10.8081721
11
67.8656343
21
11.7437721
0
LINE
8
DEFAULT_255_2_778
10
67.8656343
20
11.7437721
11
63.3751343
21
11.7437721
0
LINE
8
DEFAULT_255_2_778
10
56.9198343
20
10.8081721
11
60.4282343
21
10.8081721
0
LINE
8
DEFAULT_255_2_778
10
60.4282343
20
10.8081721
11
60.4282343
21
0.2364721
0
LINE
8
DEFAULT_255_2_778
10
60.4282343
20
0.2364721
11
61.4106343
21
0.2364721
0
LINE
8
DEFAULT_255_2_778
10
61.4106343
20
0.2364721
11
61.4106343
21
11.7440721
0
LINE
8
DEFAULT_255_2_778
10
61.4106343
20
11.7440721
11
56.9198343
21
11.7440721
0
LINE
8
DEFAULT_255_2_778
10
56.9198343
20
11.7440721
11
56.9198343
21
10.8084721
0
LINE
8
DEFAULT_255_2_778
10
56.9198343
20
14.4596721
11
67.8656343
21
14.4596721
0
LINE
8
DEFAULT_255_2_778
10
67.8656343
20
14.4596721
11
67.8656343
21
13.5241721
0
LINE
8
DEFAULT_255_2_778
10
67.8656343
20
13.5241721
11
56.9198343
21
13.5241721
0
LINE
8
DEFAULT_255_2_778
10
56.9198343
20
13.5241721
11
56.9198343
21
14.4567721
0
LINE
8
DEFAULT_255_2_778
10
56.9198343
20
14.4567721
11
56.9198343
21
14.4596721
0
LINE
8
DEFAULT_255_2_778
10
39.2853343
20
9.6887721
11
39.7087343
21
10.5777721
0
LINE
8
DEFAULT_255_2_778
10
39.8026343
20
6.2769721
11
34.5168343
21
6.2769721
0
LINE
8
DEFAULT_255_2_778
10
34.5168343
20
6.2769721
11
34.5168343
21
5.3879721
0
LINE
8
DEFAULT_255_2_778
10
34.5168343
20
5.3879721
11
38.6800343
21
5.3879721
0
LINE
8
DEFAULT_255_2_778
10
50.3709343
20
15.2055721
11
42.8398343
21
0.2367721
0
LINE
8
DEFAULT_255_2_778
10
42.8398343
20
0.2367721
11
43.9624343
21
0.2367721
0
LINE
8
DEFAULT_255_2_778
10
43.9624343
20
0.2367721
11
50.4645343
21
13.3812721
0
LINE
8
DEFAULT_255_2_778
10
50.4645343
20
13.3812721
11
56.9667343
21
0.2367721
0
LINE
8
DEFAULT_255_2_778
10
56.9667343
20
0.2367721
11
58.1361343
21
0.2367721
0
LINE
8
DEFAULT_255_2_778
10
58.1361343
20
0.2367721
11
50.5582343
21
15.2055721
0
LINE
8
DEFAULT_255_2_778
10
50.5582343
20
15.2055721
11
50.3711343
21
15.2055721
0
LINE
8
DEFAULT_255_2_778
10
47.1432343
20
2.4354721
11
46.0674343
21
0.2393721
0
LINE
8
DEFAULT_255_2_778
10
46.0674343
20
0.2393721
11
47.1432343
21
0.2393721
0
LINE
8
DEFAULT_255_2_778
10
47.1432343
20
0.2393721
11
47.7980343
21
1.5490721
0
LINE
8
DEFAULT_255_2_778
10
47.7980343
20
1.5490721
11
53.0839343
21
1.5490721
0
LINE
8
DEFAULT_255_2_778
10
53.0839343
20
1.5490721
11
53.6919343
21
0.2393721
0
LINE
8
DEFAULT_255_2_778
10
53.6919343
20
0.2393721
11
54.8145343
21
0.2393721
0
LINE
8
DEFAULT_255_2_778
10
54.8145343
20
0.2393721
11
53.7387343
21
2.4354721
0
LINE
8
DEFAULT_255_2_778
10
53.7387343
20
2.4354721
11
47.1435343
21
2.4354721
0
LINE
8
DEFAULT_255_2_778
10
50.4645343
20
7.5807721
11
51.6808343
21
4.8211721
0
LINE
8
DEFAULT_255_2_778
10
51.6808343
20
4.8211721
11
49.2017343
21
4.8211721
0
LINE
8
DEFAULT_255_2_778
10
49.2017343
20
4.8211721
11
50.4645343
21
7.5807721
0
LINE
8
DEFAULT_255_2_778
10
50.4645343
20
7.5807721
11
50.4645343
21
7.5807721
0
LINE
8
DEFAULT_255_2_778
10
47.8917343
20
4.0724721
11
52.9902343
21
4.0724721
0
LINE
8
DEFAULT_255_2_778
10
52.9902343
20
4.0724721
11
50.4643343
21
9.2645721
0
LINE
8
DEFAULT_255_2_778
10
50.4643343
20
9.2645721
11
47.8914343
21
4.0724721
0
LINE
8
DEFAULT_255_2_778
10
47.8914343
20
4.0724721
11
47.8917343
21
4.0724721
0
ENDSEC
0
EOF