0
SECTION
2
HEADER
9
$MEASUREMENT
70
1
0
ENDSEC
0
SECTION
2
TABLES
0
TABLE
2
LTYPE
0
LTYPE
72
65
70
64
2
CONTINUOUS
3
______
73
0
40
0
0
ENDTAB
0
TABLE
2
LAYER
0
LAYER
2
DEFAULT_255_2_778
70
0
62
255
6
CONTINUOUS
0
LAYER
2
DEFAULT_255_1_388
70
0
62
255
6
CONTINUOUS
0
ENDTAB
0
ENDSEC
0
SECTION
2
ENTITIES
0
LINE
8
DEFAULT_255_2_778
10
8.4667
20
7.3752103
11
8.4667
21
0.5622103
0
LINE
8
DEFAULT_255_1_388
10
9.3334985
20
4.7831148
11
9.3334985
21
3.4612
0
LINE
8
DEFAULT_255_1_388
10
9.3334985
20
3.4612
11
9.1654355
21
3.4612
0
LINE
8
DEFAULT_255_1_388
10
9.1654355
20
3.4612
11
9.1654355
21
4.575295
0
LINE
8
DEFAULT_255_1_388
10
9.1654355
20
4.575295
11
8.828406
21
4.4515066
0
LINE
8
DEFAULT_255_1_388
10
8.828406
20
4.4515066
11
8.828406
21
4.6033055
0
LINE
8
DEFAULT_255_1_388
10
8.828406
20
4.6033055
11
9.3072951
21
4.7831148
0
LINE
8
DEFAULT_255_1_388
10
9.3072951
20
4.7831148
11
9.3334985
21
4.7831148
0
LINE
8
DEFAULT_255_2_778
10
9.1281417
20
6.7468249
11
7.8052417
21
6.7468249
0
LINE
8
DEFAULT_255_2_778
10
9.1281417
20
1.1906249
11
7.8052417
21
1.1906249
0
LINE
8
DEFAULT_255_2_778
10
8.4667
20
6.7467832
11
8.4667
21
7.4082832
0
LINE
8
DEFAULT_255_2_778
10
8.4667
20
1.1905832
11
8.4667
21
0.5290832
0
ARC
8
DEFAULT_255_2_778
10
9.1544728
20
-2.4885622
40
0.9011001
50
75.4857061
51
90.8010449
0
ARC
8
DEFAULT_255_2_778
10
9.2551849
20
-2.1029919
40
0.5025953
50
51.4829098
51
75.5843882
0
ARC
8
DEFAULT_255_2_778
10
9.3022558
20
-2.0259489
40
0.4131522
50
2.4057572
51
49.936571
0
ARC
8
DEFAULT_255_2_778
10
9.0501502
20
-2.0643388
40
0.6672253
50
359.930328
51
4.7914194
0
ARC
8
DEFAULT_255_2_778
10
9.2985927
20
-2.073521
40
0.418866
50
323.3333833
51
1.145107
0
ARC
8
DEFAULT_255_2_778
10
9.2446744
20
-2.0210553
40
0.4935445
50
288.8427067
51
322.1856081
0
ARC
8
DEFAULT_255_2_778
10
9.1620048
20
-1.9372772
40
0.424679
50
268.2148226
51
296.7950236
0
ARC
8
DEFAULT_255_2_778
10
9.2094629
20
-2.0498667
40
0.302901
50
298.3828201
51
310.2501406
0
ARC
8
DEFAULT_255_2_778
10
9.2321345
20
-2.0756855
40
0.2685473
50
310.1175482
51
2.2483523
0
ARC
8
DEFAULT_255_2_778
10
9.2050848
20
-2.050672
40
0.2957449
50
357.1939748
51
38.7185358
0
ARC
8
DEFAULT_255_2_778
10
9.2463267
20
-2.0284799
40
0.2498298
50
40.6641051
51
49.1683612
0
ARC
8
DEFAULT_255_2_778
10
9.1941572
20
-2.1061957
40
0.3429302
50
51.0634207
51
85.05529
0
ARC
8
DEFAULT_255_2_778
10
9.1457067
20
-2.3967103
40
0.6369635
50
82.9652974
51
89.8139424
0
LINE
8
DEFAULT_255_2_778
10
5.9250751
20
-1.5875501
11
6.2081751
21
-2.6744501
0
LINE
8
DEFAULT_255_2_778
10
6.2081751
20
-2.6744501
11
6.2425751
21
-2.8837501
0
LINE
8
DEFAULT_255_2_778
10
6.2425751
20
-2.8837501
11
6.2931751
21
-2.6950501
0
LINE
8
DEFAULT_255_2_778
10
6.2931751
20
-2.6950501
11
6.6479751
21
-1.5875501
0
LINE
8
DEFAULT_255_2_778
10
6.6479751
20
-1.5875501
11
6.8474751
21
-1.5875501
0
LINE
8
DEFAULT_255_2_778
10
6.8474751
20
-1.5875501
11
7.1934751
21
-2.6953501
0
LINE
8
DEFAULT_255_2_778
10
7.1934751
20
-2.6953501
11
7.2427751
21
-2.8871501
0
LINE
8
DEFAULT_255_2_778
10
7.2427751
20
-2.8871501
11
7.2808751
21
-2.6733501
0
LINE
8
DEFAULT_255_2_778
10
7.2808751
20
-2.6733501
11
7.5591751
21
-1.5875501
0
LINE
8
DEFAULT_255_2_778
10
7.5591751
20
-1.5875501
11
7.7967751
21
-1.5875501
0
LINE
8
DEFAULT_255_2_778
10
7.7967751
20
-1.5875501
11
7.3620751
21
-3.1750501
0
LINE
8
DEFAULT_255_2_778
10
7.3620751
20
-3.1750501
11
7.1466751
21
-3.1750501
0
LINE
8
DEFAULT_255_2_778
10
7.1466751
20
-3.1750501
11
6.7773751
21
-2.0182501
0
LINE
8
DEFAULT_255_2_778
10
6.7773751
20
-2.0182501
11
6.7489751
21
-1.8973501
0
LINE
8
DEFAULT_255_2_778
10
6.7489751
20
-1.8973501
11
6.7206751
21
-2.0182501
0
LINE
8
DEFAULT_255_2_778
10
6.7206751
20
-2.0182501
11
6.3375751
21
-3.1750501
0
LINE
8
DEFAULT_255_2_778
10
6.3375751
20
-3.1750501
11
6.1222751
21
-3.1750501
0
LINE
8
DEFAULT_255_2_778
10
6.1222751
20
-3.1750501
11
5.6885751
21
-1.5875501
0
LINE
8
DEFAULT_255_2_778
10
5.6885751
20
-1.5875501
11
5.9250751
21
-1.5875501
0
LINE
8
DEFAULT_255_2_778
10
5.9250751
20
-1.5875501
11
5.9250751
21
-1.5875501
0
LINE
8
DEFAULT_255_2_778
10
8.3804751
20
-1.5875501
11
8.3804751
21
-3.1750501
0
LINE
8
DEFAULT_255_2_778
10
8.3804751
20
-3.1750501
11
8.0697751
21
-3.1750501
0
LINE
8
DEFAULT_255_2_778
10
8.0697751
20
-3.1750501
11
8.0697751
21
-1.5875501
0
LINE
8
DEFAULT_255_2_778
10
8.0697751
20
-1.5875501
11
8.3804751
21
-1.5875501
0
LINE
8
DEFAULT_255_2_778
10
8.3804751
20
-1.5875501
11
8.3804751
21
-1.5875501
0
LINE
8
DEFAULT_255_2_778
10
9.5575751
20
-3.1750501
11
9.2016751
21
-2.5329501
0
LINE
8
DEFAULT_255_2_778
10
9.2016751
20
-2.5329501
11
8.8164751
21
-2.5329501
0
LINE
8
DEFAULT_255_2_778
10
8.8164751
20
-2.5329501
11
8.8164751
21
-3.1750501
0
LINE
8
DEFAULT_255_2_778
10
8.8164751
20
-3.1750501
11
8.5989751
21
-3.1750501
0
LINE
8
DEFAULT_255_2_778
10
8.5989751
20
-3.1750501
11
8.5989751
21
-1.5875501
0
LINE
8
DEFAULT_255_2_778
10
8.5989751
20
-1.5875501
11
9.1418751
21
-1.5875501
0
LINE
8
DEFAULT_255_2_778
10
9.4040751
20
-2.4881501
11
9.7893751
21
-3.1620501
0
LINE
8
DEFAULT_255_2_778
10
9.7893751
20
-3.1620501
11
9.7893751
21
-3.1750501
0
LINE
8
DEFAULT_255_2_778
10
9.7893751
20
-3.1750501
11
9.5572751
21
-3.1750501
0
LINE
8
DEFAULT_255_2_778
10
9.5572751
20
-3.1750501
11
9.5575751
21
-3.1750501
0
LINE
8
DEFAULT_255_2_778
10
8.8164751
20
-1.7597501
11
8.8164751
21
-2.3617501
0
LINE
8
DEFAULT_255_2_778
10
8.8164751
20
-2.3617501
11
9.1487751
21
-2.3617501
0
LINE
8
DEFAULT_255_2_778
10
9.1477751
20
-1.7597501
11
8.8164751
21
-1.7597501
0
LINE
8
DEFAULT_255_2_778
10
8.8164751
20
-1.7597501
11
8.8164751
21
-1.7597501
0
LINE
8
DEFAULT_255_2_778
10
10.8635751
20
-2.2701501
11
10.8635751
21
-2.4413501
0
LINE
8
DEFAULT_255_2_778
10
10.8635751
20
-2.4413501
11
10.1414751
21
-2.4413501
0
LINE
8
DEFAULT_255_2_778
10
10.1414751
20
-2.4413501
11
10.1414751
21
-3.0038501
0
LINE
8
DEFAULT_255_2_778
10
10.1414751
20
-3.0038501
11
10.9802751
21
-3.0038501
0
LINE
8
DEFAULT_255_2_778
10
10.9802751
20
-3.0038501
11
10.9802751
21
-3.1750501
0
LINE
8
DEFAULT_255_2_778
10
10.9802751
20
-3.1750501
11
9.9218751
21
-3.1750501
0
LINE
8
DEFAULT_255_2_778
10
9.9218751
20
-3.1750501
11
9.9218751
21
-1.5875501
0
LINE
8
DEFAULT_255_2_778
10
9.9218751
20
-1.5875501
11
10.9688751
21
-1.5875501
0
LINE
8
DEFAULT_255_2_778
10
10.9688751
20
-1.5875501
11
10.9688751
21
-1.7597501
0
LINE
8
DEFAULT_255_2_778
10
10.9688751
20
-1.7597501
11
10.1414751
21
-1.7597501
0
LINE
8
DEFAULT_255_2_778
10
10.1414751
20
-1.7597501
11
10.1414751
21
-2.2701501
0
LINE
8
DEFAULT_255_2_778
10
10.1414751
20
-2.2701501
11
10.8635751
21
-2.2701501
0
LINE
8
DEFAULT_255_2_778
10
10.8635751
20
-2.2701501
11
10.8635751
21
-2.2701501
0
LINE
8
DEFAULT_255_2_778
10
11.2447751
20
4.7624499
11
11.2447751
21
4.5907499
0
LINE
8
DEFAULT_255_2_778
10
11.2447751
20
4.5907499
11
10.6949751
21
4.5907499
0
LINE
8
DEFAULT_255_2_778
10
10.6949751
20
4.5907499
11
10.6949751
21
3.1810499
0
LINE
8
DEFAULT_255_2_778
10
10.6949751
20
3.1810499
11
10.4706751
21
3.1810499
0
LINE
8
DEFAULT_255_2_778
10
10.4706751
20
3.1810499
11
10.4706751
21
4.5907499
0
LINE
8
DEFAULT_255_2_778
10
10.4706751
20
4.5907499
11
9.9218751
21
4.5907499
0
LINE
8
DEFAULT_255_2_778
10
9.9218751
20
4.5907499
11
9.9218751
21
4.7624499
0
LINE
8
DEFAULT_255_2_778
10
9.9218751
20
4.7624499
11
11.2447751
21
4.7624499
0
LINE
8
DEFAULT_255_2_778
10
11.2447751
20
4.7624499
11
11.2447751
21
4.7624499
0
ENDSEC
0
EOF