0
SECTION
2
HEADER
9
$MEASUREMENT
70
1
0
ENDSEC
0
SECTION
2
TABLES
0
TABLE
2
LTYPE
0
LTYPE
72
65
70
64
2
CONTINUOUS
3
______
73
0
40
0
0
ENDTAB
0
TABLE
2
LAYER
0
LAYER
2
DEFAULT_255_2_778
70
0
62
255
6
CONTINUOUS
0
ENDTAB
0
ENDSEC
0
SECTION
2
ENTITIES
0
ARC
8
DEFAULT_255_2_778
10
8.5396989
20
5.1011652
40
2.3078131
50
80.5714632
51
88.5278332
0
ARC
8
DEFAULT_255_2_778
10
8.6968885
20
6.0224909
40
1.3731896
50
68.6488571
51
80.7440781
0
ARC
8
DEFAULT_255_2_778
10
8.913156
20
6.5591754
40
0.7946232
50
46.3798958
51
69.083415
0
ARC
8
DEFAULT_255_2_778
10
8.9965166
20
6.6701446
40
0.656981
50
5.034436
51
44.9662844
0
ARC
8
DEFAULT_255_2_778
10
8.6755595
20
6.6165055
40
0.9817322
50
359.8839233
51
6.5092193
0
ARC
8
DEFAULT_255_2_778
10
8.836138
20
6.6009689
40
0.8212634
50
339.3869178
51
0.9451984
0
ARC
8
DEFAULT_255_2_778
10
8.9984079
20
6.5554309
40
0.6535114
50
296.0111297
51
338.1150776
0
ARC
8
DEFAULT_255_2_778
10
8.7643488
20
6.9898844
40
1.1467757
50
282.4883681
51
297.0015953
0
ARC
8
DEFAULT_255_2_778
10
8.5819645
20
7.7741362
40
1.9519294
50
273.8160221
51
282.7373284
0
ARC
8
DEFAULT_255_2_778
10
8.5154673
20
8.5392964
40
2.7198625
50
271.7597332
51
274.140985
0
LINE
8
DEFAULT_255_2_778
10
8.5989897
20
5.8207165
11
8.5989897
21
2.1166165
0
LINE
8
DEFAULT_255_2_778
10
8.5989897
20
2.1166165
11
11.8400897
21
2.1166165
0
LINE
8
DEFAULT_255_2_778
10
5.0270897
20
11.1124165
11
8.5989897
21
11.1124165
0
LINE
8
DEFAULT_255_2_778
10
8.5989897
20
11.1124165
11
8.5989897
21
7.4082165
0
LINE
8
DEFAULT_255_2_778
10
5.1594
20
10.4510583
11
5.1594
21
11.7739583
0
LINE
8
DEFAULT_255_2_778
10
5.1593793
20
11.1124457
11
4.4978793
21
11.1124457
0
LINE
8
DEFAULT_255_2_778
10
11.7738793
20
1.4551457
11
11.7738793
21
2.7780457
0
LINE
8
DEFAULT_255_2_778
10
12.4354708
20
2.1166
11
11.7739708
21
2.1166
0
ARC
8
DEFAULT_255_2_778
10
9.0222443
20
-1.0321054
40
0.89991
50
75.4701339
51
90.8013475
0
ARC
8
DEFAULT_255_2_778
10
9.1227809
20
-0.6475667
40
0.5024474
50
51.4567559
51
75.5666375
0
ARC
8
DEFAULT_255_2_778
10
9.1702499
20
-0.5706352
40
0.4128397
50
2.4008372
51
49.9564529
0
ARC
8
DEFAULT_255_2_778
10
8.9178899
20
-0.6090713
40
0.667169
50
359.9302568
51
4.7916248
0
ARC
8
DEFAULT_255_2_778
10
9.1665506
20
-0.6183423
40
0.4185933
50
323.3205975
51
1.1578927
0
ARC
8
DEFAULT_255_2_778
10
9.1123734
20
-0.5661912
40
0.4932854
50
288.8633303
51
322.2214342
0
ARC
8
DEFAULT_255_2_778
10
9.0296881
20
-0.4820106
40
0.424679
50
268.2148226
51
296.7950236
0
ARC
8
DEFAULT_255_2_778
10
9.0771462
20
-0.5946001
40
0.302901
50
298.3828201
51
310.2501406
0
ARC
8
DEFAULT_255_2_778
10
9.0998178
20
-0.6204189
40
0.2685473
50
310.1175482
51
2.2483523
0
ARC
8
DEFAULT_255_2_778
10
9.0727681
20
-0.5954053
40
0.2957449
50
357.1939748
51
38.7185358
0
ARC
8
DEFAULT_255_2_778
10
9.11401
20
-0.5732133
40
0.2498298
50
40.6641051
51
49.1683612
0
ARC
8
DEFAULT_255_2_778
10
9.062325
20
-0.6500616
40
0.3419511
50
51.0352179
51
85.041522
0
ARC
8
DEFAULT_255_2_778
10
9.0137963
20
-0.9409569
40
0.6363755
50
82.9519067
51
89.8503558
0
LINE
8
DEFAULT_255_2_778
10
6.0285584
20
-0.1322835
11
6.2772584
21
-1.2191835
0
LINE
8
DEFAULT_255_2_778
10
6.2772584
20
-1.2191835
11
6.3076584
21
-1.4284835
0
LINE
8
DEFAULT_255_2_778
10
6.3076584
20
-1.4284835
11
6.3521584
21
-1.2398835
0
LINE
8
DEFAULT_255_2_778
10
6.3521584
20
-1.2398835
11
6.6635584
21
-0.1322835
0
LINE
8
DEFAULT_255_2_778
10
6.6635584
20
-0.1322835
11
6.8387584
21
-0.1322835
0
LINE
8
DEFAULT_255_2_778
10
6.8387584
20
-0.1322835
11
7.1427584
21
-1.2400835
0
LINE
8
DEFAULT_255_2_778
10
7.1427584
20
-1.2400835
11
7.1860584
21
-1.4319835
0
LINE
8
DEFAULT_255_2_778
10
7.1860584
20
-1.4319835
11
7.2197584
21
-1.2181835
0
LINE
8
DEFAULT_255_2_778
10
7.2197584
20
-1.2181835
11
7.4641584
21
-0.1322835
0
LINE
8
DEFAULT_255_2_778
10
7.4641584
20
-0.1322835
11
7.6729584
21
-0.1322835
0
LINE
8
DEFAULT_255_2_778
10
7.6729584
20
-0.1322835
11
7.2911584
21
-1.7197835
0
LINE
8
DEFAULT_255_2_778
10
7.2911584
20
-1.7197835
11
7.1019584
21
-1.7197835
0
LINE
8
DEFAULT_255_2_778
10
7.1019584
20
-1.7197835
11
6.7773584
21
-0.5630835
0
LINE
8
DEFAULT_255_2_778
10
6.7773584
20
-0.5630835
11
6.7524584
21
-0.4421835
0
LINE
8
DEFAULT_255_2_778
10
6.7524584
20
-0.4421835
11
6.7275584
21
-0.5630835
0
LINE
8
DEFAULT_255_2_778
10
6.7275584
20
-0.5630835
11
6.3910584
21
-1.7197835
0
LINE
8
DEFAULT_255_2_778
10
6.3910584
20
-1.7197835
11
6.2015584
21
-1.7197835
0
LINE
8
DEFAULT_255_2_778
10
6.2015584
20
-1.7197835
11
5.8208584
21
-0.1322835
0
LINE
8
DEFAULT_255_2_778
10
5.8208584
20
-0.1322835
11
6.0285584
21
-0.1322835
0
LINE
8
DEFAULT_255_2_778
10
6.0285584
20
-0.1322835
11
6.0285584
21
-0.1322835
0
LINE
8
DEFAULT_255_2_778
10
8.2020584
20
-0.1322835
11
8.2020584
21
-1.7197835
0
LINE
8
DEFAULT_255_2_778
10
8.2020584
20
-1.7197835
11
7.9375584
21
-1.7197835
0
LINE
8
DEFAULT_255_2_778
10
7.9375584
20
-1.7197835
11
7.9375584
21
-0.1322835
0
LINE
8
DEFAULT_255_2_778
10
7.9375584
20
-0.1322835
11
8.2020584
21
-0.1322835
0
LINE
8
DEFAULT_255_2_778
10
8.2020584
20
-0.1322835
11
8.2020584
21
-0.1322835
0
LINE
8
DEFAULT_255_2_778
10
9.4252584
20
-1.7197835
11
9.0694584
21
-1.0776835
0
LINE
8
DEFAULT_255_2_778
10
9.0694584
20
-1.0776835
11
8.6841584
21
-1.0776835
0
LINE
8
DEFAULT_255_2_778
10
8.6841584
20
-1.0776835
11
8.6841584
21
-1.7197835
0
LINE
8
DEFAULT_255_2_778
10
8.6841584
20
-1.7197835
11
8.4666584
21
-1.7197835
0
LINE
8
DEFAULT_255_2_778
10
8.4666584
20
-1.7197835
11
8.4666584
21
-0.1322835
0
LINE
8
DEFAULT_255_2_778
10
8.4666584
20
-0.1322835
11
9.0096584
21
-0.1322835
0
LINE
8
DEFAULT_255_2_778
10
9.2718584
20
-1.0329835
11
9.6570584
21
-1.7068835
0
LINE
8
DEFAULT_255_2_778
10
9.6570584
20
-1.7068835
11
9.6570584
21
-1.7197835
0
LINE
8
DEFAULT_255_2_778
10
9.6570584
20
-1.7197835
11
9.4250584
21
-1.7197835
0
LINE
8
DEFAULT_255_2_778
10
9.4250584
20
-1.7197835
11
9.4252584
21
-1.7197835
0
LINE
8
DEFAULT_255_2_778
10
8.6841584
20
-0.3045835
11
8.6841584
21
-0.9064835
0
LINE
8
DEFAULT_255_2_778
10
8.6841584
20
-0.9064835
11
9.0164584
21
-0.9064835
0
LINE
8
DEFAULT_255_2_778
10
9.0154584
20
-0.3045835
11
8.6841584
21
-0.3045835
0
LINE
8
DEFAULT_255_2_778
10
8.6841584
20
-0.3045835
11
8.6841584
21
-0.3045835
0
LINE
8
DEFAULT_255_2_778
10
10.7312584
20
-0.7799835
11
10.7312584
21
-0.9511835
0
LINE
8
DEFAULT_255_2_778
10
10.7312584
20
-0.9511835
11
10.0092584
21
-0.9511835
0
LINE
8
DEFAULT_255_2_778
10
10.0092584
20
-0.9511835
11
10.0092584
21
-1.5485835
0
LINE
8
DEFAULT_255_2_778
10
10.0092584
20
-1.5485835
11
10.8479584
21
-1.5485835
0
LINE
8
DEFAULT_255_2_778
10
10.8479584
20
-1.5485835
11
10.8479584
21
-1.7197835
0
LINE
8
DEFAULT_255_2_778
10
10.8479584
20
-1.7197835
11
9.7895584
21
-1.7197835
0
LINE
8
DEFAULT_255_2_778
10
9.7895584
20
-1.7197835
11
9.7895584
21
-0.1322835
0
LINE
8
DEFAULT_255_2_778
10
9.7895584
20
-0.1322835
11
10.8365584
21
-0.1322835
0
LINE
8
DEFAULT_255_2_778
10
10.8365584
20
-0.1322835
11
10.8365584
21
-0.3045835
0
LINE
8
DEFAULT_255_2_778
10
10.8365584
20
-0.3045835
11
10.0092584
21
-0.3045835
0
LINE
8
DEFAULT_255_2_778
10
10.0092584
20
-0.3045835
11
10.0092584
21
-0.7799835
0
LINE
8
DEFAULT_255_2_778
10
10.0092584
20
-0.7799835
11
10.7309584
21
-0.7799835
0
LINE
8
DEFAULT_255_2_778
10
10.7309584
20
-0.7799835
11
10.7312584
21
-0.7799835
0
LINE
8
DEFAULT_255_2_778
10
7.1437584
20
7.2760165
11
7.1437584
21
7.1043165
0
LINE
8
DEFAULT_255_2_778
10
7.1437584
20
7.1043165
11
6.5939584
21
7.1043165
0
LINE
8
DEFAULT_255_2_778
10
6.5939584
20
7.1043165
11
6.5939584
21
5.6946165
0
LINE
8
DEFAULT_255_2_778
10
6.5939584
20
5.6946165
11
6.3695584
21
5.6946165
0
LINE
8
DEFAULT_255_2_778
10
6.3695584
20
5.6946165
11
6.3695584
21
7.1043165
0
LINE
8
DEFAULT_255_2_778
10
6.3695584
20
7.1043165
11
5.8208584
21
7.1043165
0
LINE
8
DEFAULT_255_2_778
10
5.8208584
20
7.1043165
11
5.8208584
21
7.2760165
0
LINE
8
DEFAULT_255_2_778
10
5.8208584
20
7.2760165
11
7.1437584
21
7.2760165
0
LINE
8
DEFAULT_255_2_778
10
7.1437584
20
7.2760165
11
7.1437584
21
7.2760165
0
ENDSEC
0
EOF