0
SECTION
2
HEADER
9
$MEASUREMENT
70
1
0
ENDSEC
0
SECTION
2
TABLES
0
TABLE
2
LTYPE
0
LTYPE
72
65
70
64
2
CONTINUOUS
3
______
73
0
40
0
0
ENDTAB
0
TABLE
2
LAYER
0
LAYER
2
DEFAULT_255_2_778
70
0
62
255
6
CONTINUOUS
0
LAYER
2
DEFAULT_255_1_234
70
0
62
255
6
CONTINUOUS
0
ENDTAB
0
ENDSEC
0
SECTION
2
ENTITIES
0
LINE
8
DEFAULT_255_2_778
10
2.7781417
20
-3.1763
11
7.2760417
21
-3.1763
0
LINE
8
DEFAULT_255_2_778
10
16.0072417
20
-3.1763
11
11.5093417
21
-3.1763
0
LINE
8
DEFAULT_255_2_778
10
7.2760334
20
-2.38255
11
11.5093334
21
-2.38255
0
LINE
8
DEFAULT_255_2_778
10
11.5093334
20
-2.38255
11
11.5093334
21
-3.97005
0
LINE
8
DEFAULT_255_2_778
10
11.5093334
20
-3.97005
11
7.2760334
21
-3.97005
0
LINE
8
DEFAULT_255_2_778
10
7.2760334
20
-3.97005
11
7.2760334
21
-2.38255
0
LINE
8
DEFAULT_255_2_778
10
8.0698
20
-2.38255
11
8.0698
21
-3.97005
0
LINE
8
DEFAULT_255_2_778
10
10.7156
20
-2.38255
11
10.7156
21
-3.97005
0
LINE
8
DEFAULT_255_1_234
10
4.4810137
20
-1.0650567
11
4.4810137
21
-2.2401
0
LINE
8
DEFAULT_255_1_234
10
4.4810137
20
-2.2401
11
4.3316234
21
-2.2401
0
LINE
8
DEFAULT_255_1_234
10
4.3316234
20
-2.2401
11
4.3316234
21
-1.2497867
0
LINE
8
DEFAULT_255_1_234
10
4.3316234
20
-1.2497867
11
4.0320396
21
-1.3598215
0
LINE
8
DEFAULT_255_1_234
10
4.0320396
20
-1.3598215
11
4.0320396
21
-1.2248883
0
LINE
8
DEFAULT_255_1_234
10
4.0320396
20
-1.2248883
11
4.4577217
21
-1.0650567
0
LINE
8
DEFAULT_255_1_234
10
4.4577217
20
-1.0650567
11
4.4810137
21
-1.0650567
0
LINE
8
DEFAULT_255_1_234
10
13.7629119
20
-2.1188208
11
13.7629119
21
-2.2401
0
LINE
8
DEFAULT_255_1_234
10
13.7629119
20
-2.2401
11
12.996684
21
-2.2401
0
LINE
8
DEFAULT_255_1_234
10
12.996684
20
-2.2401
11
12.996684
21
-2.1332779
0
LINE
8
DEFAULT_255_1_234
10
12.996684
20
-2.1332779
11
13.4014836
21
-1.6835005
0
LINE
8
DEFAULT_255_1_234
10
13.1227823
20
-1.4152405
11
12.9741952
21
-1.4152405
0
LINE
8
DEFAULT_255_1_234
10
13.4890296
20
-1.7790782
11
13.1757918
21
-2.1188208
0
LINE
8
DEFAULT_255_1_234
10
13.1757918
20
-2.1188208
11
13.7629119
21
-2.1188208
0
ARC
8
DEFAULT_255_1_234
10
12.052467
20
-0.4905473
40
1.8008286
50
318.5132453
51
320.7828378
0
ARC
8
DEFAULT_255_1_234
10
12.5811644
20
-0.9208574
40
1.1191493
50
320.7372736
51
323.9737074
0
ARC
8
DEFAULT_255_1_234
10
12.9731501
20
-1.2048639
40
0.6350923
50
323.8961724
51
328.6421089
0
ARC
8
DEFAULT_255_1_234
10
13.1778096
20
-1.3310969
40
0.3946393
50
328.8299013
51
331.789948
0
ARC
8
DEFAULT_255_1_234
10
13.2775274
20
-1.3825491
40
0.2824501
50
331.4255242
51
352.9364833
0
ARC
8
DEFAULT_255_1_234
10
13.2911775
20
-1.3856024
40
0.2685315
50
353.2248685
51
0.0169286
0
ARC
8
DEFAULT_255_1_234
10
13.3121652
20
-1.383305
40
0.2475536
50
359.4866256
51
15.9339782
0
ARC
8
DEFAULT_255_1_234
10
13.3628637
20
-1.3696714
40
0.1950618
50
16.1714718
51
43.5284424
0
ARC
8
DEFAULT_255_1_234
10
13.3705946
20
-1.3619427
40
0.184134
50
43.4415429
51
83.1661404
0
ARC
8
DEFAULT_255_1_234
10
13.3571864
20
-1.4356229
40
0.258926
50
82.160215
51
90.1505798
0
ARC
8
DEFAULT_255_1_234
10
13.3540291
20
-1.4893135
40
0.3126255
50
89.5460705
51
102.5418777
0
ARC
8
DEFAULT_255_1_234
10
13.3297377
20
-1.3862335
40
0.2067346
50
102.1739365
51
129.2061916
0
ARC
8
DEFAULT_255_1_234
10
13.3218449
20
-1.3737906
40
0.1921118
50
129.7279328
51
135.7542026
0
ARC
8
DEFAULT_255_1_234
10
13.3339977
20
-1.3834955
40
0.2075944
50
136.175737
51
166.3674722
0
ARC
8
DEFAULT_255_1_234
10
13.4346896
20
-1.4104818
40
0.3118201
50
165.9092917
51
178.8683903
0
ARC
8
DEFAULT_255_1_234
10
13.5211757
20
-1.4151821
40
0.3983935
50
178.438168
51
180.0083905
0
ARC
8
DEFAULT_255_1_234
10
13.3810359
20
-1.4112769
40
0.4068601
50
163.2878735
51
180.5581814
0
ARC
8
DEFAULT_255_1_234
10
13.3008621
20
-1.389216
40
0.3237344
50
133.454115
51
162.9470031
0
ARC
8
DEFAULT_255_1_234
10
13.3187162
20
-1.4082
40
0.349795
50
100.7869394
51
133.4384016
0
ARC
8
DEFAULT_255_1_234
10
13.3534934
20
-1.5630681
40
0.5084616
50
89.6605301
51
101.3704185
0
ARC
8
DEFAULT_255_1_234
10
13.3601273
20
-1.5569504
40
0.502348
50
78.2171172
51
90.4130393
0
ARC
8
DEFAULT_255_1_234
10
13.3956351
20
-1.3945363
40
0.3361092
50
55.9268222
51
78.4888551
0
ARC
8
DEFAULT_255_1_234
10
13.4152791
20
-1.3606676
40
0.2970617
50
47.9292255
51
55.4054003
0
ARC
8
DEFAULT_255_1_234
10
13.4254352
20
-1.3503498
40
0.2825983
50
4.3347696
51
48.0560701
0
ARC
8
DEFAULT_255_1_234
10
13.3158745
20
-1.3673399
40
0.393225
50
359.925209
51
5.5967654
0
ARC
8
DEFAULT_255_1_234
10
13.3587637
20
-1.3617184
40
0.3503892
50
337.8914096
51
358.9967724
0
ARC
8
DEFAULT_255_1_234
10
13.0874049
20
-1.2570294
40
0.6412172
50
326.9135351
51
338.3505194
0
ARC
8
DEFAULT_255_1_234
10
12.6888353
20
-1.0015716
40
1.1146189
50
319.6472867
51
327.095818
0
ARC
8
DEFAULT_255_1_234
10
12.3055356
20
-0.6854
40
1.6114559
50
317.2586784
51
319.9046139
0
ENDSEC
0
EOF