0
SECTION
2
HEADER
9
$MEASUREMENT
70
1
0
ENDSEC
0
SECTION
2
TABLES
0
TABLE
2
LTYPE
0
LTYPE
72
65
70
64
2
CONTINUOUS
3
______
73
0
40
0
0
ENDTAB
0
TABLE
2
LAYER
0
LAYER
2
DEFAULT_255_1_234
70
0
62
255
6
CONTINUOUS
0
LAYER
2
DEFAULT_255_2_778
70
0
62
255
6
CONTINUOUS
0
LAYER
2
DEFAULT_255_1_604
70
0
62
255
6
CONTINUOUS
0
ENDTAB
0
ENDSEC
0
SECTION
2
ENTITIES
0
LINE
8
DEFAULT_255_1_234
10
4.3013299
20
-2.2599789
11
4.5832439
21
-2.7081499
0
LINE
8
DEFAULT_255_1_234
10
4.5832439
20
-2.7081499
11
4.8635516
21
-2.2599789
0
LINE
8
DEFAULT_255_1_234
10
4.8635516
20
-2.2599789
11
5.0450689
21
-2.2599789
0
LINE
8
DEFAULT_255_1_234
10
5.0450689
20
-2.2599789
11
4.6756089
21
-2.8398704
0
LINE
8
DEFAULT_255_1_234
10
4.6756089
20
-2.8398704
11
5.0539038
21
-3.4294
0
LINE
8
DEFAULT_255_1_234
10
5.0539038
20
-3.4294
11
4.8707802
21
-3.4294
0
LINE
8
DEFAULT_255_1_234
10
4.8707802
20
-3.4294
11
4.5832439
21
-2.9731973
0
LINE
8
DEFAULT_255_1_234
10
4.5832439
20
-2.9731973
11
4.2941014
21
-3.4294
0
LINE
8
DEFAULT_255_1_234
10
4.2941014
20
-3.4294
11
4.1117809
21
-3.4294
0
LINE
8
DEFAULT_255_1_234
10
4.1117809
20
-3.4294
11
4.490879
21
-2.8398704
0
LINE
8
DEFAULT_255_1_234
10
4.490879
20
-2.8398704
11
4.1206158
21
-2.2599789
0
LINE
8
DEFAULT_255_1_234
10
4.1206158
20
-2.2599789
11
4.3013299
21
-2.2599789
0
LINE
8
DEFAULT_255_1_234
10
5.6827889
20
-2.2543567
11
5.6827889
21
-3.4294
0
LINE
8
DEFAULT_255_1_234
10
5.6827889
20
-3.4294
11
5.5333986
21
-3.4294
0
LINE
8
DEFAULT_255_1_234
10
5.5333986
20
-3.4294
11
5.5333986
21
-2.4390867
0
LINE
8
DEFAULT_255_1_234
10
5.5333986
20
-2.4390867
11
5.2338147
21
-2.5491215
0
LINE
8
DEFAULT_255_1_234
10
5.2338147
20
-2.5491215
11
5.2338147
21
-2.4141883
0
LINE
8
DEFAULT_255_1_234
10
5.2338147
20
-2.4141883
11
5.6594969
21
-2.2543567
0
LINE
8
DEFAULT_255_1_234
10
5.6594969
20
-2.2543567
11
5.6827889
21
-2.2543567
0
LINE
8
DEFAULT_255_1_234
10
11.9327299
20
-2.2599789
11
12.2146439
21
-2.7081499
0
LINE
8
DEFAULT_255_1_234
10
12.2146439
20
-2.7081499
11
12.4949516
21
-2.2599789
0
LINE
8
DEFAULT_255_1_234
10
12.4949516
20
-2.2599789
11
12.6764689
21
-2.2599789
0
LINE
8
DEFAULT_255_1_234
10
12.6764689
20
-2.2599789
11
12.3070089
21
-2.8398704
0
LINE
8
DEFAULT_255_1_234
10
12.3070089
20
-2.8398704
11
12.6853038
21
-3.4294
0
LINE
8
DEFAULT_255_1_234
10
12.6853038
20
-3.4294
11
12.5021802
21
-3.4294
0
LINE
8
DEFAULT_255_1_234
10
12.5021802
20
-3.4294
11
12.2146439
21
-2.9731973
0
LINE
8
DEFAULT_255_1_234
10
12.2146439
20
-2.9731973
11
11.9255014
21
-3.4294
0
LINE
8
DEFAULT_255_1_234
10
11.9255014
20
-3.4294
11
11.7431809
21
-3.4294
0
LINE
8
DEFAULT_255_1_234
10
11.7431809
20
-3.4294
11
12.122279
21
-2.8398704
0
LINE
8
DEFAULT_255_1_234
10
12.122279
20
-2.8398704
11
11.7520158
21
-2.2599789
0
LINE
8
DEFAULT_255_1_234
10
11.7520158
20
-2.2599789
11
11.9327299
21
-2.2599789
0
LINE
8
DEFAULT_255_1_234
10
13.5920871
20
-3.3081208
11
13.5920871
21
-3.4294
0
LINE
8
DEFAULT_255_1_234
10
13.5920871
20
-3.4294
11
12.8258592
21
-3.4294
0
LINE
8
DEFAULT_255_1_234
10
12.8258592
20
-3.4294
11
12.8258592
21
-3.3225779
0
LINE
8
DEFAULT_255_1_234
10
12.8258592
20
-3.3225779
11
13.2306588
21
-2.8728005
0
LINE
8
DEFAULT_255_1_234
10
12.9519575
20
-2.6045405
11
12.8033704
21
-2.6045405
0
LINE
8
DEFAULT_255_1_234
10
13.3182048
20
-2.9683782
11
13.004967
21
-3.3081208
0
LINE
8
DEFAULT_255_1_234
10
13.004967
20
-3.3081208
11
13.5920871
21
-3.3081208
0
ARC
8
DEFAULT_255_1_234
10
11.8816422
20
-1.6798473
40
1.8008286
50
318.5132453
51
320.7828378
0
ARC
8
DEFAULT_255_1_234
10
12.4103396
20
-2.1101574
40
1.1191493
50
320.7372736
51
323.9737074
0
ARC
8
DEFAULT_255_1_234
10
12.8023252
20
-2.3941639
40
0.6350923
50
323.8961724
51
328.6421089
0
ARC
8
DEFAULT_255_1_234
10
13.0069848
20
-2.5203969
40
0.3946393
50
328.8299013
51
331.789948
0
ARC
8
DEFAULT_255_1_234
10
13.1067026
20
-2.5718491
40
0.2824501
50
331.4255242
51
352.9364833
0
ARC
8
DEFAULT_255_1_234
10
13.1203527
20
-2.5749024
40
0.2685315
50
353.2248685
51
0.0169286
0
ARC
8
DEFAULT_255_1_234
10
13.1413404
20
-2.572605
40
0.2475536
50
359.4866256
51
15.9339782
0
ARC
8
DEFAULT_255_1_234
10
13.1920389
20
-2.5589714
40
0.1950618
50
16.1714718
51
43.5284424
0
ARC
8
DEFAULT_255_1_234
10
13.1997698
20
-2.5512427
40
0.184134
50
43.4415429
51
83.1661404
0
ARC
8
DEFAULT_255_1_234
10
13.1863616
20
-2.6249229
40
0.258926
50
82.160215
51
90.1505798
0
ARC
8
DEFAULT_255_1_234
10
13.1832043
20
-2.6786135
40
0.3126255
50
89.5460705
51
102.5418777
0
ARC
8
DEFAULT_255_1_234
10
13.1589129
20
-2.5755335
40
0.2067346
50
102.1739365
51
129.2061916
0
ARC
8
DEFAULT_255_1_234
10
13.1510201
20
-2.5630906
40
0.1921118
50
129.7279328
51
135.7542026
0
ARC
8
DEFAULT_255_1_234
10
13.1631729
20
-2.5727955
40
0.2075944
50
136.175737
51
166.3674722
0
ARC
8
DEFAULT_255_1_234
10
13.2638648
20
-2.5997818
40
0.3118201
50
165.9092917
51
178.8683903
0
ARC
8
DEFAULT_255_1_234
10
13.3503509
20
-2.6044821
40
0.3983935
50
178.438168
51
180.0083905
0
ARC
8
DEFAULT_255_1_234
10
13.2102111
20
-2.6005769
40
0.4068601
50
163.2878735
51
180.5581814
0
ARC
8
DEFAULT_255_1_234
10
13.1300373
20
-2.578516
40
0.3237344
50
133.454115
51
162.9470031
0
ARC
8
DEFAULT_255_1_234
10
13.1478914
20
-2.5975
40
0.349795
50
100.7869394
51
133.4384016
0
ARC
8
DEFAULT_255_1_234
10
13.1826686
20
-2.7523681
40
0.5084616
50
89.6605301
51
101.3704185
0
ARC
8
DEFAULT_255_1_234
10
13.1893024
20
-2.7462504
40
0.502348
50
78.2171172
51
90.4130393
0
ARC
8
DEFAULT_255_1_234
10
13.2248103
20
-2.5838363
40
0.3361092
50
55.9268222
51
78.4888551
0
ARC
8
DEFAULT_255_1_234
10
13.2444543
20
-2.5499676
40
0.2970617
50
47.9292255
51
55.4054003
0
ARC
8
DEFAULT_255_1_234
10
13.2546103
20
-2.5396498
40
0.2825983
50
4.3347696
51
48.0560701
0
ARC
8
DEFAULT_255_1_234
10
13.1450497
20
-2.5566399
40
0.393225
50
359.925209
51
5.5967654
0
ARC
8
DEFAULT_255_1_234
10
13.1879389
20
-2.5510184
40
0.3503892
50
337.8914096
51
358.9967724
0
ARC
8
DEFAULT_255_1_234
10
12.9165801
20
-2.4463294
40
0.6412172
50
326.9135351
51
338.3505194
0
ARC
8
DEFAULT_255_1_234
10
12.5180105
20
-2.1908716
40
1.1146189
50
319.6472867
51
327.095818
0
ARC
8
DEFAULT_255_1_234
10
12.1347108
20
-1.8747
40
1.6114559
50
317.2586784
51
319.9046139
0
ARC
8
DEFAULT_255_2_778
10
9.3963161
20
0.9294506
40
2.1202856
50
157.5383779
51
180.0941479
0
ARC
8
DEFAULT_255_2_778
10
9.3878009
20
0.9305034
40
2.1120155
50
100.3425508
51
157.476512
0
ARC
8
DEFAULT_255_2_778
10
9.3916278
20
0.8972567
40
2.1454102
50
89.970475
51
100.2836865
0
ARC
8
DEFAULT_255_2_778
10
9.3962098
20
0.9226328
40
2.1200367
50
67.5370438
51
90.093952
0
ARC
8
DEFAULT_255_2_778
10
9.3971469
20
0.9309021
40
2.1120381
50
10.3423567
51
67.4748233
0
ARC
8
DEFAULT_255_2_778
10
9.3638989
20
0.9270711
40
2.1454347
50
359.9705048
51
10.2835977
0
ARC
8
DEFAULT_255_2_778
10
9.3892706
20
0.9224921
40
2.1200657
50
337.537312
51
0.0939001
0
ARC
8
DEFAULT_255_2_778
10
9.3975833
20
0.9215165
40
2.112012
50
280.3440181
51
337.4756066
0
ARC
8
DEFAULT_255_2_778
10
9.3938362
20
0.9544854
40
2.145119
50
269.9705448
51
280.2843594
0
ARC
8
DEFAULT_255_2_778
10
9.3892512
20
0.9296784
40
2.1203146
50
247.5386461
51
270.094096
0
ARC
8
DEFAULT_255_2_778
10
9.38816
20
0.9211197
40
2.1119895
50
190.3442122
51
247.4772953
0
ARC
8
DEFAULT_255_2_778
10
9.4211276
20
0.9248627
40
2.1450945
50
179.970515
51
190.2844482
0
LINE
8
DEFAULT_255_2_778
10
7.2760334
20
0.9259666
11
7.2760334
21
0.9259666
0
ARC
8
DEFAULT_255_2_778
10
7.4068733
20
-4.3642897
40
0.6600579
50
89.8746978
51
180.1166401
0
ARC
8
DEFAULT_255_2_778
10
7.4098241
20
-4.3642259
40
0.6599942
50
359.8778081
51
90.1308454
0
ARC
8
DEFAULT_255_2_778
10
8.7297881
20
-4.3642047
40
0.6599728
50
89.8759594
51
180.1240406
0
ARC
8
DEFAULT_255_2_778
10
8.7327242
20
-4.3642259
40
0.6599942
50
359.8778051
51
90.1308527
0
ARC
8
DEFAULT_255_2_778
10
10.0526881
20
-4.3642047
40
0.6599728
50
89.8759594
51
180.1240406
0
ARC
8
DEFAULT_255_2_778
10
10.0556242
20
-4.3642259
40
0.6599942
50
359.8778051
51
90.1308527
0
ARC
8
DEFAULT_255_2_778
10
11.3756096
20
-4.364226
40
0.6599943
50
89.8691534
51
180.1221863
0
ARC
8
DEFAULT_255_2_778
10
11.3785456
20
-4.3642047
40
0.6599728
50
359.8759594
51
90.1240406
0
ARC
8
DEFAULT_255_2_778
10
11.3785456
20
-2.3827622
40
0.6599728
50
269.8759594
51
0.1240406
0
ARC
8
DEFAULT_255_2_778
10
11.3756097
20
-2.3827408
40
0.6599944
50
179.877826
51
270.130838
0
ARC
8
DEFAULT_255_2_778
10
10.0556242
20
-2.382741
40
0.6599942
50
269.8691473
51
0.1221949
0
ARC
8
DEFAULT_255_2_778
10
10.0526881
20
-2.3827622
40
0.6599728
50
179.8759594
51
270.1240406
0
ARC
8
DEFAULT_255_2_778
10
8.732724
20
-2.3827409
40
0.6599943
50
269.8691577
51
0.1221845
0
ARC
8
DEFAULT_255_2_778
10
8.7297881
20
-2.3827622
40
0.6599728
50
179.8759594
51
270.1240406
0
ARC
8
DEFAULT_255_2_778
10
7.409824
20
-2.3827409
40
0.6599944
50
269.8691607
51
0.1221832
0
ARC
8
DEFAULT_255_2_778
10
7.4068733
20
-2.3826772
40
0.6600579
50
179.8833599
51
270.1253022
0
LINE
8
DEFAULT_255_2_778
10
7.2760169
20
3.0426666
11
7.8946169
21
2.4240666
0
LINE
8
DEFAULT_255_2_778
10
11.5093169
20
3.0426666
11
10.8908169
21
2.4240666
0
LINE
8
DEFAULT_255_2_778
10
11.5093169
20
-1.1906334
11
10.8908169
21
-0.5720334
0
LINE
8
DEFAULT_255_2_778
10
7.2760169
20
-1.1906334
11
7.8946169
21
-0.5720334
0
LINE
8
DEFAULT_255_2_778
10
2.7781169
20
-4.3656334
11
6.7468169
21
-4.3656334
0
LINE
8
DEFAULT_255_2_778
10
12.0385169
20
-4.3656334
11
16.0073169
21
-4.3656334
0
LINE
8
DEFAULT_255_2_778
10
11.5093169
20
0.9259666
11
12.7000169
21
0.9259666
0
LINE
8
DEFAULT_255_2_778
10
12.7000169
20
0.9259666
11
12.7000169
21
-2.3813334
0
LINE
8
DEFAULT_255_2_778
10
12.7000169
20
-2.3813334
11
12.0385169
21
-2.3813334
0
LINE
8
DEFAULT_255_2_778
10
6.7468169
20
-2.3813334
11
6.0854169
21
-2.3813334
0
LINE
8
DEFAULT_255_2_778
10
6.0854169
20
-2.3813334
11
6.0854169
21
0.9259666
0
LINE
8
DEFAULT_255_2_778
10
6.0854169
20
0.9259666
11
7.2760169
21
0.9259666
0
LINE
8
DEFAULT_255_1_604
10
9.4339502
20
1.1043666
11
9.4339502
21
0.5468215
0
LINE
8
DEFAULT_255_1_604
10
8.2624792
20
1.0344124
11
8.2624792
21
1.1670121
0
LINE
8
DEFAULT_255_1_604
10
9.4339502
20
1.4217705
11
9.2334846
21
1.4217705
0
LINE
8
DEFAULT_255_1_604
10
8.4639889
20
1.1722325
11
8.4639889
21
1.0479856
0
LINE
8
DEFAULT_255_1_604
10
9.2345287
20
0.6000702
11
9.2345287
21
0.9414882
0
LINE
8
DEFAULT_255_1_604
10
9.2345287
20
0.9414882
11
8.8826697
21
0.9414882
0
LINE
8
DEFAULT_255_1_604
10
8.8826697
20
0.9414882
11
8.8826697
21
1.1043666
0
LINE
8
DEFAULT_255_1_604
10
8.8826697
20
1.1043666
11
9.4339502
21
1.1043666
0
ARC
8
DEFAULT_255_1_604
10
9.065868
20
0.8059468
40
0.4501449
50
295.843772
51
324.8549251
0
ARC
8
DEFAULT_255_1_604
10
9.0118338
20
0.9037463
40
0.5617497
50
291.5690297
51
296.4554989
0
ARC
8
DEFAULT_255_1_604
10
8.9453893
20
1.0812627
40
0.75127
50
278.6623134
51
291.3045985
0
ARC
8
DEFAULT_255_1_604
10
8.9012546
20
1.3605238
40
1.0339938
50
270.0200686
51
278.749399
0
ARC
8
DEFAULT_255_1_604
10
8.8962017
20
1.5689175
40
1.2423993
50
270.0019001
51
270.2497271
0
ARC
8
DEFAULT_255_1_604
10
8.8913273
20
1.0008269
40
0.6743267
50
253.5785658
51
270.4176708
0
ARC
8
DEFAULT_255_1_604
10
8.8687941
20
0.9135644
40
0.5842614
50
238.8205162
51
253.2789676
0
ARC
8
DEFAULT_255_1_604
10
8.8662439
20
0.906932
40
0.5772681
50
206.7883847
51
238.6962562
0
ARC
8
DEFAULT_255_1_604
10
8.9678795
20
0.9677953
40
0.6954789
50
206.1142471
51
207.4906786
0
ARC
8
DEFAULT_255_1_604
10
9.0444501
20
1.0003035
40
0.778555
50
188.6921631
51
205.7820599
0
ARC
8
DEFAULT_255_1_604
10
9.285776
20
1.0413473
40
1.0233203
50
180.3882909
51
188.9218307
0
ARC
8
DEFAULT_255_1_604
10
9.4453524
20
1.1743657
40
1.1828961
50
170.2023572
51
180.3561883
0
ARC
8
DEFAULT_255_1_604
10
9.0341335
20
1.2479121
40
0.7651637
50
154.285735
51
170.3893391
0
ARC
8
DEFAULT_255_1_604
10
8.867509
20
1.3241804
40
0.5819595
50
139.8401778
51
153.9332441
0
ARC
8
DEFAULT_255_1_604
10
8.8208049
20
1.3615712
40
0.5221542
50
98.4190579
51
139.670685
0
ARC
8
DEFAULT_255_1_604
10
8.8701391
20
1.1217157
40
0.7667702
50
89.7658313
51
99.4416906
0
ARC
8
DEFAULT_255_1_604
10
8.8786235
20
1.1302246
40
0.7582738
50
78.055085
51
90.4042998
0
ARC
8
DEFAULT_255_1_604
10
8.9312063
20
1.3666497
40
0.5160911
50
54.6380336
51
78.3338634
0
ARC
8
DEFAULT_255_1_604
10
8.9559797
20
1.4083575
40
0.4677571
50
50.0309623
51
54.1560234
0
ARC
8
DEFAULT_255_1_604
10
8.9419759
20
1.3957856
40
0.4863952
50
18.1091908
51
49.7180339
0
ARC
8
DEFAULT_255_1_604
10
8.7525821
20
1.3264049
40
0.6880095
50
7.9674717
51
18.6983846
0
ARC
8
DEFAULT_255_1_604
10
8.7721633
20
1.342454
40
0.4680902
50
9.755669
51
27.3216396
0
ARC
8
DEFAULT_255_1_604
10
8.9187267
20
1.4156936
40
0.3042689
50
27.7361269
51
84.5258321
0
ARC
8
DEFAULT_255_1_604
10
8.8761351
20
1.2020457
40
0.5214707
50
82.1061406
51
90.1997623
0
ARC
8
DEFAULT_255_1_604
10
8.8696653
20
1.2680621
40
0.4554746
50
89.4148417
51
105.5823291
0
ARC
8
DEFAULT_255_1_604
10
8.8362571
20
1.3896892
40
0.3293438
50
105.6678373
51
144.2649329
0
ARC
8
DEFAULT_255_1_604
10
8.9523813
20
1.3070632
40
0.4718621
50
144.3561512
51
162.8562292
0
ARC
8
DEFAULT_255_1_604
10
9.2232971
20
1.2200599
40
0.7563937
50
162.6077996
51
173.677917
0
ARC
8
DEFAULT_255_1_604
10
9.6212287
20
1.1716885
40
1.1572398
50
173.4670983
51
179.9730647
0
ARC
8
DEFAULT_255_1_604
10
9.3731386
20
1.0425199
40
0.9091661
50
179.6555512
51
190.0079629
0
ARC
8
DEFAULT_255_1_604
10
9.0720567
20
0.9872915
40
0.6030712
50
189.811818
51
206.6794917
0
ARC
8
DEFAULT_255_1_604
10
8.9621974
20
0.9360724
40
0.4819241
50
207.1028444
51
217.7076648
0
ARC
8
DEFAULT_255_1_604
10
8.8797604
20
0.8643354
40
0.3728817
50
216.7345162
51
265.681226
0
ARC
8
DEFAULT_255_1_604
10
8.8967654
20
0.9819188
40
0.4914785
50
264.7366595
51
270.0608134
0
ARC
8
DEFAULT_255_1_604
10
8.8997886
20
1.3510999
40
0.860663
50
269.8334622
51
276.0539179
0
ARC
8
DEFAULT_255_1_604
10
8.926696
20
1.1039209
40
0.612025
50
275.9894355
51
284.4614862
0
ARC
8
DEFAULT_255_1_604
10
8.9525474
20
0.9952604
40
0.5003558
50
284.7023541
51
286.4957307
0
ARC
8
DEFAULT_255_1_604
10
9.0053496
20
0.8252539
40
0.3223624
50
286.0768614
51
304.2627331
0
ARC
8
DEFAULT_255_1_604
10
9.0226996
20
0.7968626
40
0.2891347
50
304.5886854
51
317.1074523
0
ENDSEC
0
EOF