0
SECTION
2
HEADER
9
$MEASUREMENT
70
1
0
ENDSEC
0
SECTION
2
TABLES
0
TABLE
2
LTYPE
0
LTYPE
72
65
70
64
2
CONTINUOUS
3
______
73
0
40
0
0
ENDTAB
0
TABLE
2
LAYER
0
LAYER
2
DEFAULT_255_1_234
70
0
62
255
6
CONTINUOUS
0
LAYER
2
DEFAULT_255_2_778
70
0
62
255
6
CONTINUOUS
0
LAYER
2
DEFAULT_255_2_778_3
70
0
62
255
6
CONTINUOUS
0
LAYER
2
DEFAULT_255_1_604
70
0
62
255
6
CONTINUOUS
0
ENDTAB
0
ENDSEC
0
SECTION
2
ENTITIES
0
LINE
8
DEFAULT_255_1_234
10
4.5386137
20
3.9633433
11
4.5386137
21
2.7883
0
LINE
8
DEFAULT_255_1_234
10
4.5386137
20
2.7883
11
4.3892234
21
2.7883
0
LINE
8
DEFAULT_255_1_234
10
4.3892234
20
2.7883
11
4.3892234
21
3.7786133
0
LINE
8
DEFAULT_255_1_234
10
4.3892234
20
3.7786133
11
4.0896396
21
3.6685785
0
LINE
8
DEFAULT_255_1_234
10
4.0896396
20
3.6685785
11
4.0896396
21
3.8035117
0
LINE
8
DEFAULT_255_1_234
10
4.0896396
20
3.8035117
11
4.5153217
21
3.9633433
0
LINE
8
DEFAULT_255_1_234
10
4.5153217
20
3.9633433
11
4.5386137
21
3.9633433
0
LINE
8
DEFAULT_255_1_234
10
5.4622636
20
3.9633433
11
5.4622636
21
2.7883
0
LINE
8
DEFAULT_255_1_234
10
5.4622636
20
2.7883
11
5.3128733
21
2.7883
0
LINE
8
DEFAULT_255_1_234
10
5.3128733
20
2.7883
11
5.3128733
21
3.7786133
0
LINE
8
DEFAULT_255_1_234
10
5.3128733
20
3.7786133
11
5.0132895
21
3.6685785
0
LINE
8
DEFAULT_255_1_234
10
5.0132895
20
3.6685785
11
5.0132895
21
3.8035117
0
LINE
8
DEFAULT_255_1_234
10
5.0132895
20
3.8035117
11
5.4389716
21
3.9633433
0
LINE
8
DEFAULT_255_1_234
10
5.4389716
20
3.9633433
11
5.4622636
21
3.9633433
0
LINE
8
DEFAULT_255_1_234
10
4.5475137
20
-1.3283567
11
4.5475137
21
-2.5034
0
LINE
8
DEFAULT_255_1_234
10
4.5475137
20
-2.5034
11
4.3981234
21
-2.5034
0
LINE
8
DEFAULT_255_1_234
10
4.3981234
20
-2.5034
11
4.3981234
21
-1.5130867
0
LINE
8
DEFAULT_255_1_234
10
4.3981234
20
-1.5130867
11
4.0985396
21
-1.6231215
0
LINE
8
DEFAULT_255_1_234
10
4.0985396
20
-1.6231215
11
4.0985396
21
-1.4881883
0
LINE
8
DEFAULT_255_1_234
10
4.0985396
20
-1.4881883
11
4.5242217
21
-1.3283567
0
LINE
8
DEFAULT_255_1_234
10
4.5242217
20
-1.3283567
11
4.5475137
21
-1.3283567
0
LINE
8
DEFAULT_255_1_234
10
5.1988877
20
-1.9676831
11
5.1988877
21
-1.8464038
0
LINE
8
DEFAULT_255_1_234
10
5.1988877
20
-1.8464038
11
5.3105289
21
-1.8464038
0
LINE
8
DEFAULT_255_1_234
10
5.1201767
20
-1.6407913
11
4.9715895
21
-1.6407913
0
LINE
8
DEFAULT_255_1_234
10
4.9611482
20
-2.1949812
11
5.1105386
21
-2.1949812
0
LINE
8
DEFAULT_255_1_234
10
5.3105289
20
-1.9676831
11
5.1988877
21
-1.9676831
0
ARC
8
DEFAULT_255_1_234
10
5.3076155
20
-1.5071287
40
0.3392876
50
270.4919872
51
281.8951556
0
ARC
8
DEFAULT_255_1_234
10
5.3317417
20
-1.6173298
40
0.2264817
50
281.6691735
51
301.2943132
0
ARC
8
DEFAULT_255_1_234
10
5.3487627
20
-1.6484696
40
0.1910381
50
301.7833094
51
311.7545298
0
ARC
8
DEFAULT_255_1_234
10
5.3579203
20
-1.6586252
40
0.1773635
50
311.7323931
51
354.2802411
0
ARC
8
DEFAULT_255_1_234
10
5.2852828
20
-1.6461278
40
0.2509385
50
353.0937916
51
0.1181479
0
ARC
8
DEFAULT_255_1_234
10
5.2391613
20
-1.6413614
40
0.2970898
50
359.1805295
51
15.0453146
0
ARC
8
DEFAULT_255_1_234
10
5.373745
20
-1.6021008
40
0.1569564
50
13.9577229
51
77.6713066
0
ARC
8
DEFAULT_255_1_234
10
5.3350979
20
-1.7406051
40
0.3006298
50
76.1116566
51
90.7026153
0
ARC
8
DEFAULT_255_1_234
10
5.3291817
20
-1.7132455
40
0.2732568
50
89.5324876
51
103.531937
0
ARC
8
DEFAULT_255_1_234
10
5.3091261
20
-1.6333116
40
0.1908508
50
103.2931773
51
133.5619022
0
ARC
8
DEFAULT_255_1_234
10
5.304675
20
-1.6273625
40
0.1834746
50
133.8349307
51
173.5344437
0
ARC
8
DEFAULT_255_1_234
10
5.3769793
20
-1.6401787
40
0.2568033
50
172.5096846
51
180.1366907
0
ARC
8
DEFAULT_255_1_234
10
5.2818687
20
-1.6367378
40
0.3103056
50
155.3484492
51
180.7484736
0
ARC
8
DEFAULT_255_1_234
10
5.2769776
20
-1.6396154
40
0.3070957
50
131.5744599
51
154.4798489
0
ARC
8
DEFAULT_255_1_234
10
5.3082923
20
-1.671269
40
0.3515643
50
96.9875458
51
131.9690667
0
ARC
8
DEFAULT_255_1_234
10
5.3302403
20
-1.7958364
40
0.4779224
50
89.8596053
51
97.7825159
0
ARC
8
DEFAULT_255_1_234
10
5.3350466
20
-1.8220384
40
0.5041361
50
78.3655447
51
90.4131539
0
ARC
8
DEFAULT_255_1_234
10
5.3708384
20
-1.6561113
40
0.3344039
50
56.6229102
51
78.638727
0
ARC
8
DEFAULT_255_1_234
10
5.3923328
20
-1.6185195
40
0.2912001
50
47.0253525
51
56.0854072
0
ARC
8
DEFAULT_255_1_234
10
5.3943108
20
-1.6145777
40
0.2869704
50
10.9208013
51
46.7778124
0
ARC
8
DEFAULT_255_1_234
10
5.2579174
20
-1.6461143
40
0.426899
50
359.6364486
51
11.6087304
0
ARC
8
DEFAULT_255_1_234
10
5.4414018
20
-1.6476248
40
0.243409
50
332.3549906
51
359.7179418
0
ARC
8
DEFAULT_255_1_234
10
5.376362
20
-1.6167858
40
0.3153459
50
325.2333722
51
332.8745602
0
ARC
8
DEFAULT_255_1_234
10
5.3916244
20
-1.6274172
40
0.2967456
50
292.9802137
51
325.2392345
0
ARC
8
DEFAULT_255_1_234
10
5.3641617
20
-1.5740137
40
0.3566604
50
292.5402179
51
293.6924929
0
ARC
8
DEFAULT_255_1_234
10
5.4034213
20
-2.2194909
40
0.3307468
50
57.6435486
51
72.8625112
0
ARC
8
DEFAULT_255_1_234
10
5.4388713
20
-2.1620451
40
0.2632492
50
36.7248896
51
57.4697979
0
ARC
8
DEFAULT_255_1_234
10
5.4377346
20
-2.160778
40
0.2634081
50
8.0545065
51
36.356114
0
ARC
8
DEFAULT_255_1_234
10
5.3514531
20
-2.1762826
40
0.3510261
50
359.8320645
51
8.5869982
0
ARC
8
DEFAULT_255_1_234
10
5.3139307
20
-2.1810899
40
0.3885653
50
343.9829931
51
0.5571613
0
ARC
8
DEFAULT_255_1_234
10
5.4025504
20
-2.2053562
40
0.2966924
50
311.6359546
51
343.7651759
0
ARC
8
DEFAULT_255_1_234
10
5.3647074
20
-2.1626898
40
0.3537231
50
279.7829875
51
311.6255694
0
ARC
8
DEFAULT_255_1_234
10
5.334585
20
-2.018972
40
0.5004971
50
269.7286406
51
280.3856417
0
ARC
8
DEFAULT_255_1_234
10
5.3283922
20
-2.0231004
40
0.4963778
50
256.6828919
51
270.4412052
0
ARC
8
DEFAULT_255_1_234
10
5.2945218
20
-2.1615606
40
0.3538406
50
229.4223008
51
256.8556159
0
ARC
8
DEFAULT_255_1_234
10
5.2530611
20
-2.2082264
40
0.2914296
50
181.818294
51
229.6455059
0
ARC
8
DEFAULT_255_1_234
10
5.3570567
20
-2.1951504
40
0.3959084
50
179.9755256
51
183.2323064
0
ARC
8
DEFAULT_255_1_234
10
5.3398313
20
-2.1971963
40
0.2293034
50
179.4465117
51
196.2869258
0
ARC
8
DEFAULT_255_1_234
10
5.2910721
20
-2.2105349
40
0.1787621
50
196.5661473
51
227.705904
0
ARC
8
DEFAULT_255_1_234
10
5.3074816
20
-2.1921845
40
0.2033784
50
227.7652068
51
257.8762805
0
ARC
8
DEFAULT_255_1_234
10
5.3299786
20
-2.0978844
40
0.3003081
50
257.4584385
51
270.426602
0
ARC
8
DEFAULT_255_1_234
10
5.3345352
20
-2.0689004
40
0.329292
50
269.5962073
51
280.8789248
0
ARC
8
DEFAULT_255_1_234
10
5.3574881
20
-2.1835315
40
0.2123908
50
280.6346389
51
299.8595945
0
ARC
8
DEFAULT_255_1_234
10
5.3765788
20
-2.2197788
40
0.171457
50
300.3576302
51
314.5517981
0
ARC
8
DEFAULT_255_1_234
10
5.3682848
20
-2.2137081
40
0.1816095
50
315.0728369
51
345.0431014
0
ARC
8
DEFAULT_255_1_234
10
5.2759662
20
-2.1868159
40
0.2777492
50
344.5986631
51
357.9269593
0
ARC
8
DEFAULT_255_1_234
10
5.1863989
20
-2.1806724
40
0.3674917
50
357.4748886
51
0.0231117
0
ARC
8
DEFAULT_255_1_234
10
5.2887098
20
-2.1782321
40
0.2651907
50
359.5047933
51
13.4239635
0
ARC
8
DEFAULT_255_1_234
10
5.3753741
20
-2.1560522
40
0.1757509
50
12.9498199
51
48.7551375
0
ARC
8
DEFAULT_255_1_234
10
5.3571475
20
-2.18096
40
0.2065134
50
49.5088623
51
72.1836453
0
ARC
8
DEFAULT_255_1_234
10
5.3213628
20
-2.2871709
40
0.3185836
50
71.9010081
51
84.3554254
0
ARC
8
DEFAULT_255_1_234
10
5.305226
20
-2.4232674
40
0.4556151
50
84.0193428
51
89.333121
0
LINE
8
DEFAULT_255_1_234
10
25.7754293
20
2.7883
11
25.6637881
21
3.0935061
0
LINE
8
DEFAULT_255_1_234
10
25.6637881
20
3.0935061
11
25.1738521
21
3.0935061
0
LINE
8
DEFAULT_255_1_234
10
25.1738521
20
3.0935061
11
25.0638173
21
2.7883
0
LINE
8
DEFAULT_255_1_234
10
25.0638173
20
2.7883
11
24.9047889
21
2.7883
0
LINE
8
DEFAULT_255_1_234
10
24.9047889
20
2.7883
11
25.3513535
21
3.9577211
0
LINE
8
DEFAULT_255_1_234
10
25.3513535
20
3.9577211
11
25.4862867
21
3.9577211
0
LINE
8
DEFAULT_255_1_234
10
25.4862867
20
3.9577211
11
25.9336545
21
2.7883
0
LINE
8
DEFAULT_255_1_234
10
25.9336545
20
2.7883
11
25.7754293
21
2.7883
0
LINE
8
DEFAULT_255_1_234
10
25.4188201
20
3.7673689
11
25.2204362
21
3.2204075
0
LINE
8
DEFAULT_255_1_234
10
25.2204362
20
3.2204075
11
25.6180072
21
3.2204075
0
LINE
8
DEFAULT_255_1_234
10
25.6180072
20
3.2204075
11
25.4188201
21
3.7673689
0
LINE
8
DEFAULT_255_1_234
10
26.8187521
20
2.9095792
11
26.8187521
21
2.7883
0
LINE
8
DEFAULT_255_1_234
10
26.8187521
20
2.7883
11
26.0525243
21
2.7883
0
LINE
8
DEFAULT_255_1_234
10
26.0525243
20
2.7883
11
26.0525243
21
2.8951221
0
LINE
8
DEFAULT_255_1_234
10
26.0525243
20
2.8951221
11
26.4573239
21
3.3448995
0
LINE
8
DEFAULT_255_1_234
10
26.1786226
20
3.6131595
11
26.0300354
21
3.6131595
0
LINE
8
DEFAULT_255_1_234
10
26.5448698
20
3.2493218
11
26.231632
21
2.9095792
0
LINE
8
DEFAULT_255_1_234
10
26.231632
20
2.9095792
11
26.8187521
21
2.9095792
0
ARC
8
DEFAULT_255_1_234
10
25.1083072
20
4.5378527
40
1.8008286
50
318.5132453
51
320.7828378
0
ARC
8
DEFAULT_255_1_234
10
25.6370047
20
4.1075426
40
1.1191493
50
320.7372736
51
323.9737074
0
ARC
8
DEFAULT_255_1_234
10
26.0289903
20
3.8235361
40
0.6350923
50
323.8961724
51
328.6421089
0
ARC
8
DEFAULT_255_1_234
10
26.2336498
20
3.6973031
40
0.3946393
50
328.8299013
51
331.789948
0
ARC
8
DEFAULT_255_1_234
10
26.3333677
20
3.6458509
40
0.2824501
50
331.4255242
51
352.9364833
0
ARC
8
DEFAULT_255_1_234
10
26.3470177
20
3.6427976
40
0.2685315
50
353.2248685
51
0.0169286
0
ARC
8
DEFAULT_255_1_234
10
26.3680054
20
3.645095
40
0.2475536
50
359.4866256
51
15.9339782
0
ARC
8
DEFAULT_255_1_234
10
26.418704
20
3.6587286
40
0.1950618
50
16.1714718
51
43.5284424
0
ARC
8
DEFAULT_255_1_234
10
26.4264348
20
3.6664573
40
0.184134
50
43.4415429
51
83.1661404
0
ARC
8
DEFAULT_255_1_234
10
26.4130266
20
3.5927771
40
0.258926
50
82.160215
51
90.1505798
0
ARC
8
DEFAULT_255_1_234
10
26.4098694
20
3.5390865
40
0.3126255
50
89.5460705
51
102.5418777
0
ARC
8
DEFAULT_255_1_234
10
26.385578
20
3.6421665
40
0.2067346
50
102.1739365
51
129.2061916
0
ARC
8
DEFAULT_255_1_234
10
26.3776852
20
3.6546094
40
0.1921118
50
129.7279328
51
135.7542026
0
ARC
8
DEFAULT_255_1_234
10
26.3898379
20
3.6449045
40
0.2075944
50
136.175737
51
166.3674722
0
ARC
8
DEFAULT_255_1_234
10
26.4905298
20
3.6179182
40
0.3118201
50
165.9092917
51
178.8683903
0
ARC
8
DEFAULT_255_1_234
10
26.577016
20
3.6132179
40
0.3983935
50
178.438168
51
180.0083905
0
ARC
8
DEFAULT_255_1_234
10
26.4368762
20
3.6171231
40
0.4068601
50
163.2878735
51
180.5581814
0
ARC
8
DEFAULT_255_1_234
10
26.3567023
20
3.639184
40
0.3237344
50
133.454115
51
162.9470031
0
ARC
8
DEFAULT_255_1_234
10
26.3745565
20
3.6202
40
0.349795
50
100.7869394
51
133.4384016
0
ARC
8
DEFAULT_255_1_234
10
26.4093336
20
3.4653319
40
0.5084616
50
89.6605301
51
101.3704185
0
ARC
8
DEFAULT_255_1_234
10
26.4159675
20
3.4714496
40
0.502348
50
78.2171172
51
90.4130393
0
ARC
8
DEFAULT_255_1_234
10
26.4514753
20
3.6338637
40
0.3361092
50
55.9268222
51
78.4888551
0
ARC
8
DEFAULT_255_1_234
10
26.4711193
20
3.6677324
40
0.2970617
50
47.9292255
51
55.4054003
0
ARC
8
DEFAULT_255_1_234
10
26.4812754
20
3.6780502
40
0.2825983
50
4.3347696
51
48.0560701
0
ARC
8
DEFAULT_255_1_234
10
26.3717148
20
3.6610601
40
0.393225
50
359.925209
51
5.5967654
0
ARC
8
DEFAULT_255_1_234
10
26.4146039
20
3.6666816
40
0.3503892
50
337.8914096
51
358.9967724
0
ARC
8
DEFAULT_255_1_234
10
26.1432451
20
3.7713706
40
0.6412172
50
326.9135351
51
338.3505194
0
ARC
8
DEFAULT_255_1_234
10
25.7446755
20
4.0268284
40
1.1146189
50
319.6472867
51
327.095818
0
ARC
8
DEFAULT_255_1_234
10
25.3613758
20
4.343
40
1.6114559
50
317.2586784
51
319.9046139
0
ARC
8
DEFAULT_255_2_778
10
22.6255161
20
1.8555506
40
2.1202856
50
157.5383779
51
180.0941479
0
ARC
8
DEFAULT_255_2_778
10
22.6170009
20
1.8566034
40
2.1120155
50
100.3425508
51
157.476512
0
ARC
8
DEFAULT_255_2_778
10
22.6208278
20
1.8233567
40
2.1454102
50
89.970475
51
100.2836865
0
ARC
8
DEFAULT_255_2_778
10
22.6254098
20
1.8487328
40
2.1200367
50
67.5370438
51
90.093952
0
ARC
8
DEFAULT_255_2_778
10
22.6263469
20
1.8570021
40
2.1120381
50
10.3423567
51
67.4748233
0
ARC
8
DEFAULT_255_2_778
10
22.5930989
20
1.8531711
40
2.1454347
50
359.9705048
51
10.2835977
0
ARC
8
DEFAULT_255_2_778
10
22.6184706
20
1.8485921
40
2.1200657
50
337.537312
51
0.0939001
0
ARC
8
DEFAULT_255_2_778
10
22.6267833
20
1.8476165
40
2.112012
50
280.3440181
51
337.4756066
0
ARC
8
DEFAULT_255_2_778
10
22.6230362
20
1.8805854
40
2.145119
50
269.9705448
51
280.2843594
0
ARC
8
DEFAULT_255_2_778
10
22.6184512
20
1.8557784
40
2.1203146
50
247.5386461
51
270.094096
0
ARC
8
DEFAULT_255_2_778
10
22.61736
20
1.8472197
40
2.1119895
50
190.3442122
51
247.4772953
0
ARC
8
DEFAULT_255_2_778
10
22.6503276
20
1.8509627
40
2.1450945
50
179.970515
51
190.2844482
0
LINE
8
DEFAULT_255_2_778
10
20.5052334
20
1.8520666
11
20.5052334
21
1.8520666
0
LINE
8
DEFAULT_255_2_778
10
20.505192
20
3.9687666
11
21.123792
21
3.3501666
0
LINE
8
DEFAULT_255_2_778
10
24.738492
20
3.9687666
11
24.119892
21
3.3501666
0
LINE
8
DEFAULT_255_2_778
10
24.738492
20
-0.2645334
11
24.119892
21
0.3540666
0
LINE
8
DEFAULT_255_2_778
10
20.505192
20
-0.2645334
11
21.123792
21
0.3540666
0
LINE
8
DEFAULT_255_2_778
10
2.778092
20
1.8520666
11
6.085392
21
1.8520666
0
ARC
8
DEFAULT_255_2_778
10
6.7454557
20
1.8535443
40
0.6600157
50
89.871003
51
180.128997
0
ARC
8
DEFAULT_255_2_778
10
6.748349
20
1.8535655
40
0.6599943
50
359.8691577
51
90.1221758
0
ARC
8
DEFAULT_255_2_778
10
6.7483705
20
1.8506295
40
0.6599728
50
269.8759594
51
0.1240406
0
ARC
8
DEFAULT_255_2_778
10
6.7454345
20
1.8506508
40
0.6599942
50
179.8778094
51
270.1308423
0
LINE
8
DEFAULT_255_2_778
10
6.0854417
20
1.8520583
11
6.0854417
21
1.8520583
0
ARC
8
DEFAULT_255_2_778
10
12.0370557
20
1.8535443
40
0.6600157
50
89.871003
51
180.128997
0
ARC
8
DEFAULT_255_2_778
10
12.039949
20
1.8535655
40
0.6599943
50
359.8691577
51
90.1221758
0
ARC
8
DEFAULT_255_2_778
10
12.0399705
20
1.8506295
40
0.6599728
50
269.8759594
51
0.1240406
0
ARC
8
DEFAULT_255_2_778
10
12.0370345
20
1.8506508
40
0.6599942
50
179.8778094
51
270.1308423
0
LINE
8
DEFAULT_255_2_778
10
11.3770417
20
1.8520583
11
11.3770417
21
1.8520583
0
LINE
8
DEFAULT_255_2_778
10
6.7468169
20
1.0583624
11
12.0385169
21
1.0583624
0
LINE
8
DEFAULT_255_2_778
10
9.3927169
20
2.5135624
11
9.3927169
21
1.1906624
0
LINE
8
DEFAULT_255_2_778
10
2.7781169
20
-3.4395376
11
6.0854169
21
-3.4395376
0
LINE
8
DEFAULT_255_2_778
10
16.0073169
20
1.8520624
11
16.0073169
21
-3.4395376
0
LINE
8
DEFAULT_255_2_778
10
16.0073169
20
-3.4395376
11
12.7000169
21
-3.4395376
0
ARC
8
DEFAULT_255_2_778
10
6.7454557
20
-3.4381557
40
0.6600157
50
89.871003
51
180.128997
0
ARC
8
DEFAULT_255_2_778
10
6.748349
20
-3.4381345
40
0.6599943
50
359.8691577
51
90.1221758
0
ARC
8
DEFAULT_255_2_778
10
6.7483705
20
-3.4410705
40
0.6599728
50
269.8759594
51
0.1240406
0
ARC
8
DEFAULT_255_2_778
10
6.7454345
20
-3.4410492
40
0.6599942
50
179.8778094
51
270.1308423
0
LINE
8
DEFAULT_255_2_778
10
6.0854417
20
-3.4396417
11
6.0854417
21
-3.4396417
0
ARC
8
DEFAULT_255_2_778
10
12.0370557
20
-3.4381557
40
0.6600157
50
89.871003
51
180.128997
0
ARC
8
DEFAULT_255_2_778
10
12.039949
20
-3.4381345
40
0.6599943
50
359.8691577
51
90.1221758
0
ARC
8
DEFAULT_255_2_778
10
12.0399705
20
-3.4410705
40
0.6599728
50
269.8759594
51
0.1240406
0
ARC
8
DEFAULT_255_2_778
10
12.0370345
20
-3.4410492
40
0.6599942
50
179.8778094
51
270.1308423
0
LINE
8
DEFAULT_255_2_778
10
11.3770417
20
-3.4396417
11
11.3770417
21
-3.4396417
0
LINE
8
DEFAULT_255_2_778
10
6.7468667
20
-2.1167
11
12.0385667
21
-2.1167
0
LINE
8
DEFAULT_255_2_778_3
10
9.3927
20
1.1906458
11
9.3927
21
-2.1166542
0
LINE
8
DEFAULT_255_2_778
10
20.5051711
20
1.8521
11
12.6999711
21
1.8521
0
LINE
8
DEFAULT_255_2_778
10
29.2364711
20
1.8521
11
24.7384711
21
1.8521
0
LINE
8
DEFAULT_255_1_604
10
22.6631502
20
2.0467666
11
22.6631502
21
1.4892215
0
LINE
8
DEFAULT_255_1_604
10
21.4916792
20
1.9768124
11
21.4916792
21
2.1094121
0
LINE
8
DEFAULT_255_1_604
10
22.6631502
20
2.3641705
11
22.4626846
21
2.3641705
0
LINE
8
DEFAULT_255_1_604
10
21.6931889
20
2.1146325
11
21.6931889
21
1.9903856
0
LINE
8
DEFAULT_255_1_604
10
22.4637287
20
1.5424702
11
22.4637287
21
1.8838882
0
LINE
8
DEFAULT_255_1_604
10
22.4637287
20
1.8838882
11
22.1118697
21
1.8838882
0
LINE
8
DEFAULT_255_1_604
10
22.1118697
20
1.8838882
11
22.1118697
21
2.0467666
0
LINE
8
DEFAULT_255_1_604
10
22.1118697
20
2.0467666
11
22.6631502
21
2.0467666
0
ARC
8
DEFAULT_255_1_604
10
22.295068
20
1.7483468
40
0.4501449
50
295.843772
51
324.8549251
0
ARC
8
DEFAULT_255_1_604
10
22.2410338
20
1.8461463
40
0.5617497
50
291.5690297
51
296.4554989
0
ARC
8
DEFAULT_255_1_604
10
22.1745893
20
2.0236627
40
0.75127
50
278.6623134
51
291.3045985
0
ARC
8
DEFAULT_255_1_604
10
22.1304546
20
2.3029238
40
1.0339938
50
270.0200686
51
278.749399
0
ARC
8
DEFAULT_255_1_604
10
22.1254017
20
2.5113175
40
1.2423993
50
270.0019001
51
270.2497271
0
ARC
8
DEFAULT_255_1_604
10
22.1205273
20
1.9432269
40
0.6743267
50
253.5785658
51
270.4176708
0
ARC
8
DEFAULT_255_1_604
10
22.0979941
20
1.8559644
40
0.5842614
50
238.8205162
51
253.2789676
0
ARC
8
DEFAULT_255_1_604
10
22.0954439
20
1.849332
40
0.5772681
50
206.7883847
51
238.6962562
0
ARC
8
DEFAULT_255_1_604
10
22.1970795
20
1.9101953
40
0.6954789
50
206.1142471
51
207.4906786
0
ARC
8
DEFAULT_255_1_604
10
22.2736501
20
1.9427035
40
0.778555
50
188.6921631
51
205.7820599
0
ARC
8
DEFAULT_255_1_604
10
22.514976
20
1.9837473
40
1.0233203
50
180.3882909
51
188.9218307
0
ARC
8
DEFAULT_255_1_604
10
22.6745524
20
2.1167657
40
1.1828961
50
170.2023572
51
180.3561883
0
ARC
8
DEFAULT_255_1_604
10
22.2633335
20
2.1903121
40
0.7651637
50
154.285735
51
170.3893391
0
ARC
8
DEFAULT_255_1_604
10
22.096709
20
2.2665804
40
0.5819595
50
139.8401778
51
153.9332441
0
ARC
8
DEFAULT_255_1_604
10
22.0500049
20
2.3039712
40
0.5221542
50
98.4190579
51
139.670685
0
ARC
8
DEFAULT_255_1_604
10
22.0993391
20
2.0641157
40
0.7667702
50
89.7658313
51
99.4416906
0
ARC
8
DEFAULT_255_1_604
10
22.1078235
20
2.0726246
40
0.7582738
50
78.055085
51
90.4042998
0
ARC
8
DEFAULT_255_1_604
10
22.1604063
20
2.3090497
40
0.5160911
50
54.6380336
51
78.3338634
0
ARC
8
DEFAULT_255_1_604
10
22.1851797
20
2.3507575
40
0.4677571
50
50.0309623
51
54.1560234
0
ARC
8
DEFAULT_255_1_604
10
22.1711759
20
2.3381856
40
0.4863952
50
18.1091908
51
49.7180339
0
ARC
8
DEFAULT_255_1_604
10
21.9817821
20
2.2688049
40
0.6880095
50
7.9674717
51
18.6983846
0
ARC
8
DEFAULT_255_1_604
10
22.0013633
20
2.284854
40
0.4680902
50
9.755669
51
27.3216396
0
ARC
8
DEFAULT_255_1_604
10
22.1479267
20
2.3580936
40
0.3042689
50
27.7361269
51
84.5258321
0
ARC
8
DEFAULT_255_1_604
10
22.1053351
20
2.1444457
40
0.5214707
50
82.1061406
51
90.1997623
0
ARC
8
DEFAULT_255_1_604
10
22.0988653
20
2.2104621
40
0.4554746
50
89.4148417
51
105.5823291
0
ARC
8
DEFAULT_255_1_604
10
22.0654571
20
2.3320892
40
0.3293438
50
105.6678373
51
144.2649329
0
ARC
8
DEFAULT_255_1_604
10
22.1815813
20
2.2494632
40
0.4718621
50
144.3561512
51
162.8562292
0
ARC
8
DEFAULT_255_1_604
10
22.4524971
20
2.1624599
40
0.7563937
50
162.6077996
51
173.677917
0
ARC
8
DEFAULT_255_1_604
10
22.8504287
20
2.1140885
40
1.1572398
50
173.4670983
51
179.9730647
0
ARC
8
DEFAULT_255_1_604
10
22.6023386
20
1.9849199
40
0.9091661
50
179.6555512
51
190.0079629
0
ARC
8
DEFAULT_255_1_604
10
22.3012567
20
1.9296915
40
0.6030712
50
189.811818
51
206.6794917
0
ARC
8
DEFAULT_255_1_604
10
22.1913974
20
1.8784724
40
0.4819241
50
207.1028444
51
217.7076648
0
ARC
8
DEFAULT_255_1_604
10
22.1089604
20
1.8067354
40
0.3728817
50
216.7345162
51
265.681226
0
ARC
8
DEFAULT_255_1_604
10
22.1259654
20
1.9243188
40
0.4914785
50
264.7366595
51
270.0608134
0
ARC
8
DEFAULT_255_1_604
10
22.1289886
20
2.2934999
40
0.860663
50
269.8334622
51
276.0539179
0
ARC
8
DEFAULT_255_1_604
10
22.155896
20
2.0463209
40
0.612025
50
275.9894355
51
284.4614862
0
ARC
8
DEFAULT_255_1_604
10
22.1817474
20
1.9376604
40
0.5003558
50
284.7023541
51
286.4957307
0
ARC
8
DEFAULT_255_1_604
10
22.2345496
20
1.7676539
40
0.3223624
50
286.0768614
51
304.2627331
0
ARC
8
DEFAULT_255_1_604
10
22.2518996
20
1.7392626
40
0.2891347
50
304.5886854
51
317.1074523
0
LINE
8
DEFAULT_255_2_778_3
10
5.4239253
20
4.4979082
11
25.2676253
21
4.4979082
0
LINE
8
DEFAULT_255_2_778_3
10
25.2676253
20
4.4979082
11
25.2676253
21
-4.7624918
0
LINE
8
DEFAULT_255_2_778_3
10
25.2676253
20
-4.7624918
11
5.4239253
21
-4.7624918
0
LINE
8
DEFAULT_255_2_778_3
10
5.4239253
20
-4.7624918
11
5.4239253
21
4.4979082
0
ENDSEC
0
EOF