0
SECTION
2
HEADER
9
$MEASUREMENT
70
1
0
ENDSEC
0
SECTION
2
TABLES
0
TABLE
2
LTYPE
0
LTYPE
72
65
70
64
2
CONTINUOUS
3
______
73
0
40
0
0
ENDTAB
0
TABLE
2
LAYER
0
LAYER
2
DEFAULT_255_1_234
70
0
62
255
6
CONTINUOUS
0
LAYER
2
DEFAULT_255_2_778
70
0
62
255
6
CONTINUOUS
0
LAYER
2
DEFAULT_255_2_778_3
70
0
62
255
6
CONTINUOUS
0
LAYER
2
DEFAULT_255_1_604
70
0
62
255
6
CONTINUOUS
0
ENDTAB
0
ENDSEC
0
SECTION
2
ENTITIES
0
LINE
8
DEFAULT_255_1_234
10
4.5386137
20
9.2547433
11
4.5386137
21
8.0797
0
LINE
8
DEFAULT_255_1_234
10
4.5386137
20
8.0797
11
4.3892234
21
8.0797
0
LINE
8
DEFAULT_255_1_234
10
4.3892234
20
8.0797
11
4.3892234
21
9.0700133
0
LINE
8
DEFAULT_255_1_234
10
4.3892234
20
9.0700133
11
4.0896396
21
8.9599785
0
LINE
8
DEFAULT_255_1_234
10
4.0896396
20
8.9599785
11
4.0896396
21
9.0949117
0
LINE
8
DEFAULT_255_1_234
10
4.0896396
20
9.0949117
11
4.5153217
21
9.2547433
0
LINE
8
DEFAULT_255_1_234
10
4.5153217
20
9.2547433
11
4.5386137
21
9.2547433
0
LINE
8
DEFAULT_255_1_234
10
5.4622636
20
9.2547433
11
5.4622636
21
8.0797
0
LINE
8
DEFAULT_255_1_234
10
5.4622636
20
8.0797
11
5.3128733
21
8.0797
0
LINE
8
DEFAULT_255_1_234
10
5.3128733
20
8.0797
11
5.3128733
21
9.0700133
0
LINE
8
DEFAULT_255_1_234
10
5.3128733
20
9.0700133
11
5.0132895
21
8.9599785
0
LINE
8
DEFAULT_255_1_234
10
5.0132895
20
8.9599785
11
5.0132895
21
9.0949117
0
LINE
8
DEFAULT_255_1_234
10
5.0132895
20
9.0949117
11
5.4389716
21
9.2547433
0
LINE
8
DEFAULT_255_1_234
10
5.4389716
20
9.2547433
11
5.4622636
21
9.2547433
0
LINE
8
DEFAULT_255_1_234
10
4.5475137
20
-1.3280567
11
4.5475137
21
-2.5031
0
LINE
8
DEFAULT_255_1_234
10
4.5475137
20
-2.5031
11
4.3981234
21
-2.5031
0
LINE
8
DEFAULT_255_1_234
10
4.3981234
20
-2.5031
11
4.3981234
21
-1.5127867
0
LINE
8
DEFAULT_255_1_234
10
4.3981234
20
-1.5127867
11
4.0985396
21
-1.6228215
0
LINE
8
DEFAULT_255_1_234
10
4.0985396
20
-1.6228215
11
4.0985396
21
-1.4878883
0
LINE
8
DEFAULT_255_1_234
10
4.0985396
20
-1.4878883
11
4.5242217
21
-1.3280567
0
LINE
8
DEFAULT_255_1_234
10
4.5242217
20
-1.3280567
11
4.5475137
21
-1.3280567
0
LINE
8
DEFAULT_255_1_234
10
5.1988877
20
-1.9673831
11
5.1988877
21
-1.8461038
0
LINE
8
DEFAULT_255_1_234
10
5.1988877
20
-1.8461038
11
5.3105289
21
-1.8461038
0
LINE
8
DEFAULT_255_1_234
10
5.1201767
20
-1.6404913
11
4.9715895
21
-1.6404913
0
LINE
8
DEFAULT_255_1_234
10
4.9611482
20
-2.1946813
11
5.1105386
21
-2.1946813
0
LINE
8
DEFAULT_255_1_234
10
5.3105289
20
-1.9673831
11
5.1988877
21
-1.9673831
0
ARC
8
DEFAULT_255_1_234
10
5.3076155
20
-1.5068287
40
0.3392876
50
270.4919872
51
281.8951556
0
ARC
8
DEFAULT_255_1_234
10
5.3317417
20
-1.6170298
40
0.2264817
50
281.6691735
51
301.2943132
0
ARC
8
DEFAULT_255_1_234
10
5.3487627
20
-1.6481696
40
0.1910381
50
301.7833094
51
311.7545298
0
ARC
8
DEFAULT_255_1_234
10
5.3579203
20
-1.6583252
40
0.1773635
50
311.7323931
51
354.2802411
0
ARC
8
DEFAULT_255_1_234
10
5.2852828
20
-1.6458278
40
0.2509385
50
353.0937916
51
0.1181479
0
ARC
8
DEFAULT_255_1_234
10
5.2391613
20
-1.6410614
40
0.2970898
50
359.1805295
51
15.0453146
0
ARC
8
DEFAULT_255_1_234
10
5.373745
20
-1.6018008
40
0.1569564
50
13.9577229
51
77.6713066
0
ARC
8
DEFAULT_255_1_234
10
5.3350979
20
-1.7403051
40
0.3006298
50
76.1116566
51
90.7026153
0
ARC
8
DEFAULT_255_1_234
10
5.3291817
20
-1.7129455
40
0.2732568
50
89.5324876
51
103.531937
0
ARC
8
DEFAULT_255_1_234
10
5.3091261
20
-1.6330116
40
0.1908508
50
103.2931773
51
133.5619022
0
ARC
8
DEFAULT_255_1_234
10
5.304675
20
-1.6270625
40
0.1834746
50
133.8349307
51
173.5344437
0
ARC
8
DEFAULT_255_1_234
10
5.3769793
20
-1.6398787
40
0.2568033
50
172.5096846
51
180.1366907
0
ARC
8
DEFAULT_255_1_234
10
5.2818687
20
-1.6364378
40
0.3103056
50
155.3484492
51
180.7484736
0
ARC
8
DEFAULT_255_1_234
10
5.2769776
20
-1.6393154
40
0.3070957
50
131.5744599
51
154.4798489
0
ARC
8
DEFAULT_255_1_234
10
5.3082923
20
-1.670969
40
0.3515643
50
96.9875458
51
131.9690667
0
ARC
8
DEFAULT_255_1_234
10
5.3302403
20
-1.7955364
40
0.4779224
50
89.8596053
51
97.7825159
0
ARC
8
DEFAULT_255_1_234
10
5.3350466
20
-1.8217384
40
0.5041361
50
78.3655447
51
90.4131539
0
ARC
8
DEFAULT_255_1_234
10
5.3708384
20
-1.6558113
40
0.3344039
50
56.6229102
51
78.638727
0
ARC
8
DEFAULT_255_1_234
10
5.3923328
20
-1.6182195
40
0.2912001
50
47.0253525
51
56.0854072
0
ARC
8
DEFAULT_255_1_234
10
5.3943108
20
-1.6142777
40
0.2869704
50
10.9208013
51
46.7778124
0
ARC
8
DEFAULT_255_1_234
10
5.2579174
20
-1.6458143
40
0.426899
50
359.6364486
51
11.6087304
0
ARC
8
DEFAULT_255_1_234
10
5.4414018
20
-1.6473248
40
0.243409
50
332.3549906
51
359.7179418
0
ARC
8
DEFAULT_255_1_234
10
5.376362
20
-1.6164858
40
0.3153459
50
325.2333722
51
332.8745602
0
ARC
8
DEFAULT_255_1_234
10
5.3916244
20
-1.6271172
40
0.2967456
50
292.9802137
51
325.2392345
0
ARC
8
DEFAULT_255_1_234
10
5.3641617
20
-1.5737137
40
0.3566604
50
292.5402179
51
293.6924929
0
ARC
8
DEFAULT_255_1_234
10
5.4034213
20
-2.2191909
40
0.3307468
50
57.6435486
51
72.8625112
0
ARC
8
DEFAULT_255_1_234
10
5.4388713
20
-2.1617451
40
0.2632492
50
36.7248896
51
57.4697979
0
ARC
8
DEFAULT_255_1_234
10
5.4377346
20
-2.160478
40
0.2634081
50
8.0545065
51
36.356114
0
ARC
8
DEFAULT_255_1_234
10
5.3514531
20
-2.1759826
40
0.3510261
50
359.8320645
51
8.5869982
0
ARC
8
DEFAULT_255_1_234
10
5.3139307
20
-2.1807899
40
0.3885653
50
343.9829931
51
0.5571613
0
ARC
8
DEFAULT_255_1_234
10
5.4025504
20
-2.2050562
40
0.2966924
50
311.6359546
51
343.7651759
0
ARC
8
DEFAULT_255_1_234
10
5.3647074
20
-2.1623898
40
0.3537231
50
279.7829875
51
311.6255694
0
ARC
8
DEFAULT_255_1_234
10
5.334585
20
-2.018672
40
0.5004971
50
269.7286406
51
280.3856417
0
ARC
8
DEFAULT_255_1_234
10
5.3283922
20
-2.0228004
40
0.4963778
50
256.6828919
51
270.4412052
0
ARC
8
DEFAULT_255_1_234
10
5.2945218
20
-2.1612606
40
0.3538406
50
229.4223008
51
256.8556159
0
ARC
8
DEFAULT_255_1_234
10
5.2530611
20
-2.2079264
40
0.2914296
50
181.818294
51
229.6455059
0
ARC
8
DEFAULT_255_1_234
10
5.3570567
20
-2.1948504
40
0.3959084
50
179.9755256
51
183.2323064
0
ARC
8
DEFAULT_255_1_234
10
5.3398313
20
-2.1968963
40
0.2293034
50
179.4465117
51
196.2869258
0
ARC
8
DEFAULT_255_1_234
10
5.2910721
20
-2.2102349
40
0.1787621
50
196.5661473
51
227.705904
0
ARC
8
DEFAULT_255_1_234
10
5.3074816
20
-2.1918845
40
0.2033784
50
227.7652068
51
257.8762805
0
ARC
8
DEFAULT_255_1_234
10
5.3299786
20
-2.0975844
40
0.3003081
50
257.4584385
51
270.426602
0
ARC
8
DEFAULT_255_1_234
10
5.3345352
20
-2.0686004
40
0.329292
50
269.5962073
51
280.8789248
0
ARC
8
DEFAULT_255_1_234
10
5.3574881
20
-2.1832315
40
0.2123908
50
280.6346389
51
299.8595945
0
ARC
8
DEFAULT_255_1_234
10
5.3765788
20
-2.2194788
40
0.171457
50
300.3576302
51
314.5517981
0
ARC
8
DEFAULT_255_1_234
10
5.3682848
20
-2.2134081
40
0.1816095
50
315.0728369
51
345.0431014
0
ARC
8
DEFAULT_255_1_234
10
5.2759662
20
-2.1865159
40
0.2777492
50
344.5986631
51
357.9269593
0
ARC
8
DEFAULT_255_1_234
10
5.1863989
20
-2.1803724
40
0.3674917
50
357.4748886
51
0.0231117
0
ARC
8
DEFAULT_255_1_234
10
5.2887098
20
-2.1779321
40
0.2651907
50
359.5047933
51
13.4239635
0
ARC
8
DEFAULT_255_1_234
10
5.3753741
20
-2.1557522
40
0.1757509
50
12.9498199
51
48.7551375
0
ARC
8
DEFAULT_255_1_234
10
5.3571475
20
-2.18066
40
0.2065134
50
49.5088623
51
72.1836453
0
ARC
8
DEFAULT_255_1_234
10
5.3213628
20
-2.2868709
40
0.3185836
50
71.9010081
51
84.3554254
0
ARC
8
DEFAULT_255_1_234
10
5.305226
20
-2.4229674
40
0.4556151
50
84.0193428
51
89.333121
0
LINE
8
DEFAULT_255_1_234
10
25.7754293
20
8.0797
11
25.6637881
21
8.3849061
0
LINE
8
DEFAULT_255_1_234
10
25.6637881
20
8.3849061
11
25.1738521
21
8.3849061
0
LINE
8
DEFAULT_255_1_234
10
25.1738521
20
8.3849061
11
25.0638173
21
8.0797
0
LINE
8
DEFAULT_255_1_234
10
25.0638173
20
8.0797
11
24.9047889
21
8.0797
0
LINE
8
DEFAULT_255_1_234
10
24.9047889
20
8.0797
11
25.3513535
21
9.2491211
0
LINE
8
DEFAULT_255_1_234
10
25.3513535
20
9.2491211
11
25.4862867
21
9.2491211
0
LINE
8
DEFAULT_255_1_234
10
25.4862867
20
9.2491211
11
25.9336545
21
8.0797
0
LINE
8
DEFAULT_255_1_234
10
25.9336545
20
8.0797
11
25.7754293
21
8.0797
0
LINE
8
DEFAULT_255_1_234
10
25.4188201
20
9.0587689
11
25.2204362
21
8.5118075
0
LINE
8
DEFAULT_255_1_234
10
25.2204362
20
8.5118075
11
25.6180072
21
8.5118075
0
LINE
8
DEFAULT_255_1_234
10
25.6180072
20
8.5118075
11
25.4188201
21
9.0587689
0
LINE
8
DEFAULT_255_1_234
10
26.8187521
20
8.2009792
11
26.8187521
21
8.0797
0
LINE
8
DEFAULT_255_1_234
10
26.8187521
20
8.0797
11
26.0525243
21
8.0797
0
LINE
8
DEFAULT_255_1_234
10
26.0525243
20
8.0797
11
26.0525243
21
8.1865221
0
LINE
8
DEFAULT_255_1_234
10
26.0525243
20
8.1865221
11
26.4573239
21
8.6362995
0
LINE
8
DEFAULT_255_1_234
10
26.1786226
20
8.9045595
11
26.0300354
21
8.9045595
0
LINE
8
DEFAULT_255_1_234
10
26.5448698
20
8.5407218
11
26.231632
21
8.2009792
0
LINE
8
DEFAULT_255_1_234
10
26.231632
20
8.2009792
11
26.8187521
21
8.2009792
0
ARC
8
DEFAULT_255_1_234
10
25.1083072
20
9.8292527
40
1.8008286
50
318.5132453
51
320.7828378
0
ARC
8
DEFAULT_255_1_234
10
25.6370047
20
9.3989426
40
1.1191493
50
320.7372736
51
323.9737074
0
ARC
8
DEFAULT_255_1_234
10
26.0289903
20
9.1149361
40
0.6350923
50
323.8961724
51
328.6421089
0
ARC
8
DEFAULT_255_1_234
10
26.2336498
20
8.9887031
40
0.3946393
50
328.8299013
51
331.789948
0
ARC
8
DEFAULT_255_1_234
10
26.3333677
20
8.9372509
40
0.2824501
50
331.4255242
51
352.9364833
0
ARC
8
DEFAULT_255_1_234
10
26.3470177
20
8.9341976
40
0.2685315
50
353.2248685
51
0.0169286
0
ARC
8
DEFAULT_255_1_234
10
26.3680054
20
8.936495
40
0.2475536
50
359.4866256
51
15.9339782
0
ARC
8
DEFAULT_255_1_234
10
26.418704
20
8.9501286
40
0.1950618
50
16.1714718
51
43.5284424
0
ARC
8
DEFAULT_255_1_234
10
26.4264348
20
8.9578573
40
0.184134
50
43.4415429
51
83.1661404
0
ARC
8
DEFAULT_255_1_234
10
26.4130266
20
8.8841771
40
0.258926
50
82.160215
51
90.1505798
0
ARC
8
DEFAULT_255_1_234
10
26.4098694
20
8.8304865
40
0.3126255
50
89.5460705
51
102.5418777
0
ARC
8
DEFAULT_255_1_234
10
26.385578
20
8.9335665
40
0.2067346
50
102.1739365
51
129.2061916
0
ARC
8
DEFAULT_255_1_234
10
26.3776852
20
8.9460094
40
0.1921118
50
129.7279328
51
135.7542026
0
ARC
8
DEFAULT_255_1_234
10
26.3898379
20
8.9363045
40
0.2075944
50
136.175737
51
166.3674722
0
ARC
8
DEFAULT_255_1_234
10
26.4905298
20
8.9093182
40
0.3118201
50
165.9092917
51
178.8683903
0
ARC
8
DEFAULT_255_1_234
10
26.577016
20
8.9046179
40
0.3983935
50
178.438168
51
180.0083905
0
ARC
8
DEFAULT_255_1_234
10
26.4368762
20
8.9085231
40
0.4068601
50
163.2878735
51
180.5581814
0
ARC
8
DEFAULT_255_1_234
10
26.3567023
20
8.930584
40
0.3237344
50
133.454115
51
162.9470031
0
ARC
8
DEFAULT_255_1_234
10
26.3745565
20
8.9116
40
0.349795
50
100.7869394
51
133.4384016
0
ARC
8
DEFAULT_255_1_234
10
26.4093336
20
8.7567319
40
0.5084616
50
89.6605301
51
101.3704185
0
ARC
8
DEFAULT_255_1_234
10
26.4159675
20
8.7628496
40
0.502348
50
78.2171172
51
90.4130393
0
ARC
8
DEFAULT_255_1_234
10
26.4514753
20
8.9252637
40
0.3361092
50
55.9268222
51
78.4888551
0
ARC
8
DEFAULT_255_1_234
10
26.4711193
20
8.9591324
40
0.2970617
50
47.9292255
51
55.4054003
0
ARC
8
DEFAULT_255_1_234
10
26.4812754
20
8.9694502
40
0.2825983
50
4.3347696
51
48.0560701
0
ARC
8
DEFAULT_255_1_234
10
26.3717148
20
8.9524601
40
0.393225
50
359.925209
51
5.5967654
0
ARC
8
DEFAULT_255_1_234
10
26.4146039
20
8.9580816
40
0.3503892
50
337.8914096
51
358.9967724
0
ARC
8
DEFAULT_255_1_234
10
26.1432451
20
9.0627706
40
0.6412172
50
326.9135351
51
338.3505194
0
ARC
8
DEFAULT_255_1_234
10
25.7446755
20
9.3182284
40
1.1146189
50
319.6472867
51
327.095818
0
ARC
8
DEFAULT_255_1_234
10
25.3613758
20
9.6344
40
1.6114559
50
317.2586784
51
319.9046139
0
LINE
8
DEFAULT_255_2_778
10
29.2364417
20
7.1438
11
24.7385417
21
7.1438
0
ARC
8
DEFAULT_255_2_778
10
22.6255161
20
7.1472506
40
2.1202856
50
157.5383779
51
180.0941479
0
ARC
8
DEFAULT_255_2_778
10
22.6170009
20
7.1483034
40
2.1120155
50
100.3425508
51
157.476512
0
ARC
8
DEFAULT_255_2_778
10
22.6208278
20
7.1150567
40
2.1454102
50
89.970475
51
100.2836865
0
ARC
8
DEFAULT_255_2_778
10
22.6254098
20
7.1404328
40
2.1200367
50
67.5370438
51
90.093952
0
ARC
8
DEFAULT_255_2_778
10
22.6263469
20
7.1487021
40
2.1120381
50
10.3423567
51
67.4748233
0
ARC
8
DEFAULT_255_2_778
10
22.5930989
20
7.1448711
40
2.1454347
50
359.9705048
51
10.2835977
0
ARC
8
DEFAULT_255_2_778
10
22.6184706
20
7.1402921
40
2.1200657
50
337.537312
51
0.0939001
0
ARC
8
DEFAULT_255_2_778
10
22.6267833
20
7.1393165
40
2.112012
50
280.3440181
51
337.4756066
0
ARC
8
DEFAULT_255_2_778
10
22.6230362
20
7.1722854
40
2.145119
50
269.9705448
51
280.2843594
0
ARC
8
DEFAULT_255_2_778
10
22.6184512
20
7.1474784
40
2.1203146
50
247.5386461
51
270.094096
0
ARC
8
DEFAULT_255_2_778
10
22.61736
20
7.1389197
40
2.1119895
50
190.3442122
51
247.4772953
0
ARC
8
DEFAULT_255_2_778
10
22.6503276
20
7.1426627
40
2.1450945
50
179.970515
51
190.2844482
0
LINE
8
DEFAULT_255_2_778
10
20.5052334
20
7.1437666
11
20.5052334
21
7.1437666
0
LINE
8
DEFAULT_255_2_778
10
20.505192
20
9.2604666
11
21.123792
21
8.6418666
0
LINE
8
DEFAULT_255_2_778
10
24.738492
20
9.2604666
11
24.119892
21
8.6418666
0
LINE
8
DEFAULT_255_2_778
10
24.738492
20
5.0271666
11
24.119892
21
5.6457666
0
LINE
8
DEFAULT_255_2_778
10
20.505192
20
5.0271666
11
21.123792
21
5.6457666
0
LINE
8
DEFAULT_255_2_778
10
2.778092
20
7.1437666
11
6.085392
21
7.1437666
0
ARC
8
DEFAULT_255_2_778
10
6.7454557
20
7.1452443
40
0.6600157
50
89.871003
51
180.128997
0
ARC
8
DEFAULT_255_2_778
10
6.748349
20
7.1452655
40
0.6599943
50
359.8691577
51
90.1221758
0
ARC
8
DEFAULT_255_2_778
10
6.7483705
20
7.1423295
40
0.6599728
50
269.8759594
51
0.1240406
0
ARC
8
DEFAULT_255_2_778
10
6.7454345
20
7.1423508
40
0.6599942
50
179.8778094
51
270.1308423
0
LINE
8
DEFAULT_255_2_778
10
6.0854417
20
7.1437583
11
6.0854417
21
7.1437583
0
ARC
8
DEFAULT_255_2_778
10
12.0370557
20
7.1452443
40
0.6600157
50
89.871003
51
180.128997
0
ARC
8
DEFAULT_255_2_778
10
12.039949
20
7.1452655
40
0.6599943
50
359.8691577
51
90.1221758
0
ARC
8
DEFAULT_255_2_778
10
12.0399705
20
7.1423295
40
0.6599728
50
269.8759594
51
0.1240406
0
ARC
8
DEFAULT_255_2_778
10
12.0370345
20
7.1423508
40
0.6599942
50
179.8778094
51
270.1308423
0
LINE
8
DEFAULT_255_2_778
10
11.3770417
20
7.1437583
11
11.3770417
21
7.1437583
0
LINE
8
DEFAULT_255_2_778
10
6.7468169
20
6.3499957
11
12.0385169
21
6.3499957
0
LINE
8
DEFAULT_255_2_778
10
9.3927169
20
7.8051957
11
9.3927169
21
6.4822957
0
LINE
8
DEFAULT_255_2_778
10
2.7781169
20
-3.4396043
11
6.0854169
21
-3.4396043
0
LINE
8
DEFAULT_255_2_778
10
16.0073169
20
7.1436957
11
16.0073169
21
-3.4396043
0
LINE
8
DEFAULT_255_2_778
10
16.0073169
20
-3.4396043
11
12.7000169
21
-3.4396043
0
ARC
8
DEFAULT_255_2_778
10
6.7454557
20
-3.4381557
40
0.6600157
50
89.871003
51
180.128997
0
ARC
8
DEFAULT_255_2_778
10
6.748349
20
-3.4381345
40
0.6599943
50
359.8691577
51
90.1221758
0
ARC
8
DEFAULT_255_2_778
10
6.7483705
20
-3.4410705
40
0.6599728
50
269.8759594
51
0.1240406
0
ARC
8
DEFAULT_255_2_778
10
6.7454345
20
-3.4410492
40
0.6599942
50
179.8778094
51
270.1308423
0
LINE
8
DEFAULT_255_2_778
10
6.0854417
20
-3.4396417
11
6.0854417
21
-3.4396417
0
ARC
8
DEFAULT_255_2_778
10
12.0370557
20
-3.4381557
40
0.6600157
50
89.871003
51
180.128997
0
ARC
8
DEFAULT_255_2_778
10
12.039949
20
-3.4381345
40
0.6599943
50
359.8691577
51
90.1221758
0
ARC
8
DEFAULT_255_2_778
10
12.0399705
20
-3.4410705
40
0.6599728
50
269.8759594
51
0.1240406
0
ARC
8
DEFAULT_255_2_778
10
12.0370345
20
-3.4410492
40
0.6599942
50
179.8778094
51
270.1308423
0
LINE
8
DEFAULT_255_2_778
10
11.3770417
20
-3.4396417
11
11.3770417
21
-3.4396417
0
LINE
8
DEFAULT_255_2_778
10
6.7468667
20
-2.1166
11
12.0385667
21
-2.1166
0
LINE
8
DEFAULT_255_2_778_3
10
9.3927
20
6.482279
11
9.3927
21
-2.116721
0
LINE
8
DEFAULT_255_2_778
10
20.5051959
20
7.1438
11
12.6999959
21
7.1438
0
LINE
8
DEFAULT_255_1_604
10
22.6631502
20
7.3384666
11
22.6631502
21
6.7809215
0
LINE
8
DEFAULT_255_1_604
10
21.4916792
20
7.2685124
11
21.4916792
21
7.4011121
0
LINE
8
DEFAULT_255_1_604
10
22.6631502
20
7.6558705
11
22.4626846
21
7.6558705
0
LINE
8
DEFAULT_255_1_604
10
21.6931889
20
7.4063325
11
21.6931889
21
7.2820856
0
LINE
8
DEFAULT_255_1_604
10
22.4637287
20
6.8341702
11
22.4637287
21
7.1755882
0
LINE
8
DEFAULT_255_1_604
10
22.4637287
20
7.1755882
11
22.1118697
21
7.1755882
0
LINE
8
DEFAULT_255_1_604
10
22.1118697
20
7.1755882
11
22.1118697
21
7.3384666
0
LINE
8
DEFAULT_255_1_604
10
22.1118697
20
7.3384666
11
22.6631502
21
7.3384666
0
ARC
8
DEFAULT_255_1_604
10
22.295068
20
7.0400468
40
0.4501449
50
295.843772
51
324.8549251
0
ARC
8
DEFAULT_255_1_604
10
22.2410338
20
7.1378463
40
0.5617497
50
291.5690297
51
296.4554989
0
ARC
8
DEFAULT_255_1_604
10
22.1745893
20
7.3153627
40
0.75127
50
278.6623134
51
291.3045985
0
ARC
8
DEFAULT_255_1_604
10
22.1304546
20
7.5946238
40
1.0339938
50
270.0200686
51
278.749399
0
ARC
8
DEFAULT_255_1_604
10
22.1254017
20
7.8030175
40
1.2423993
50
270.0019001
51
270.2497271
0
ARC
8
DEFAULT_255_1_604
10
22.1205273
20
7.2349269
40
0.6743267
50
253.5785658
51
270.4176708
0
ARC
8
DEFAULT_255_1_604
10
22.0979941
20
7.1476644
40
0.5842614
50
238.8205162
51
253.2789676
0
ARC
8
DEFAULT_255_1_604
10
22.0954439
20
7.141032
40
0.5772681
50
206.7883847
51
238.6962562
0
ARC
8
DEFAULT_255_1_604
10
22.1970795
20
7.2018953
40
0.6954789
50
206.1142471
51
207.4906786
0
ARC
8
DEFAULT_255_1_604
10
22.2736501
20
7.2344035
40
0.778555
50
188.6921631
51
205.7820599
0
ARC
8
DEFAULT_255_1_604
10
22.514976
20
7.2754473
40
1.0233203
50
180.3882909
51
188.9218307
0
ARC
8
DEFAULT_255_1_604
10
22.6745524
20
7.4084657
40
1.1828961
50
170.2023572
51
180.3561883
0
ARC
8
DEFAULT_255_1_604
10
22.2633335
20
7.4820121
40
0.7651637
50
154.285735
51
170.3893391
0
ARC
8
DEFAULT_255_1_604
10
22.096709
20
7.5582804
40
0.5819595
50
139.8401778
51
153.9332441
0
ARC
8
DEFAULT_255_1_604
10
22.0500049
20
7.5956712
40
0.5221542
50
98.4190579
51
139.670685
0
ARC
8
DEFAULT_255_1_604
10
22.0993391
20
7.3558157
40
0.7667702
50
89.7658313
51
99.4416906
0
ARC
8
DEFAULT_255_1_604
10
22.1078235
20
7.3643246
40
0.7582738
50
78.055085
51
90.4042998
0
ARC
8
DEFAULT_255_1_604
10
22.1604063
20
7.6007497
40
0.5160911
50
54.6380336
51
78.3338634
0
ARC
8
DEFAULT_255_1_604
10
22.1851797
20
7.6424575
40
0.4677571
50
50.0309623
51
54.1560234
0
ARC
8
DEFAULT_255_1_604
10
22.1711759
20
7.6298856
40
0.4863952
50
18.1091908
51
49.7180339
0
ARC
8
DEFAULT_255_1_604
10
21.9817821
20
7.5605049
40
0.6880095
50
7.9674717
51
18.6983846
0
ARC
8
DEFAULT_255_1_604
10
22.0013633
20
7.576554
40
0.4680902
50
9.755669
51
27.3216396
0
ARC
8
DEFAULT_255_1_604
10
22.1479267
20
7.6497936
40
0.3042689
50
27.7361269
51
84.5258321
0
ARC
8
DEFAULT_255_1_604
10
22.1053351
20
7.4361457
40
0.5214707
50
82.1061406
51
90.1997623
0
ARC
8
DEFAULT_255_1_604
10
22.0988653
20
7.5021621
40
0.4554746
50
89.4148417
51
105.5823291
0
ARC
8
DEFAULT_255_1_604
10
22.0654571
20
7.6237892
40
0.3293438
50
105.6678373
51
144.2649329
0
ARC
8
DEFAULT_255_1_604
10
22.1815813
20
7.5411632
40
0.4718621
50
144.3561512
51
162.8562292
0
ARC
8
DEFAULT_255_1_604
10
22.4524971
20
7.4541599
40
0.7563937
50
162.6077996
51
173.677917
0
ARC
8
DEFAULT_255_1_604
10
22.8504287
20
7.4057885
40
1.1572398
50
173.4670983
51
179.9730647
0
ARC
8
DEFAULT_255_1_604
10
22.6023386
20
7.2766199
40
0.9091661
50
179.6555512
51
190.0079629
0
ARC
8
DEFAULT_255_1_604
10
22.3012567
20
7.2213915
40
0.6030712
50
189.811818
51
206.6794917
0
ARC
8
DEFAULT_255_1_604
10
22.1913974
20
7.1701724
40
0.4819241
50
207.1028444
51
217.7076648
0
ARC
8
DEFAULT_255_1_604
10
22.1089604
20
7.0984354
40
0.3728817
50
216.7345162
51
265.681226
0
ARC
8
DEFAULT_255_1_604
10
22.1259654
20
7.2160188
40
0.4914785
50
264.7366595
51
270.0608134
0
ARC
8
DEFAULT_255_1_604
10
22.1289886
20
7.5851999
40
0.860663
50
269.8334622
51
276.0539179
0
ARC
8
DEFAULT_255_1_604
10
22.155896
20
7.3380209
40
0.612025
50
275.9894355
51
284.4614862
0
ARC
8
DEFAULT_255_1_604
10
22.1817474
20
7.2293604
40
0.5003558
50
284.7023541
51
286.4957307
0
ARC
8
DEFAULT_255_1_604
10
22.2345496
20
7.0593539
40
0.3223624
50
286.0768614
51
304.2627331
0
ARC
8
DEFAULT_255_1_604
10
22.2518996
20
7.0309626
40
0.2891347
50
304.5886854
51
317.1074523
0
LINE
8
DEFAULT_255_2_778_3
10
5.4239253
20
9.7896415
11
25.2676253
21
9.7896415
0
LINE
8
DEFAULT_255_2_778_3
10
25.2676253
20
9.7896415
11
25.2676253
21
-4.7624585
0
LINE
8
DEFAULT_255_2_778_3
10
25.2676253
20
-4.7624585
11
5.4239253
21
-4.7624585
0
LINE
8
DEFAULT_255_2_778_3
10
5.4239253
20
-4.7624585
11
5.4239253
21
9.7896415
0
ENDSEC
0
EOF