0
SECTION
2
HEADER
9
$MEASUREMENT
70
1
0
ENDSEC
0
SECTION
2
TABLES
0
TABLE
2
LTYPE
0
LTYPE
72
65
70
64
2
CONTINUOUS
3
______
73
0
40
0
0
ENDTAB
0
TABLE
2
LAYER
0
LAYER
2
DEFAULT_255_2_778
70
0
62
255
6
CONTINUOUS
0
LAYER
2
DEFAULT_255_1_234
70
0
62
255
6
CONTINUOUS
0
ENDTAB
0
ENDSEC
0
SECTION
2
ENTITIES
0
LINE
8
DEFAULT_255_2_778
10
2.7781667
20
-2.1167
11
8.0698667
21
-2.1167
0
LINE
8
DEFAULT_255_2_778
10
16.0073667
20
-2.1167
11
10.7156667
21
-2.1167
0
LINE
8
DEFAULT_255_2_778
10
8.0697834
20
-0.7937834
11
10.7155834
21
-0.7937834
0
LINE
8
DEFAULT_255_2_778
10
10.7155834
20
-0.7937834
11
10.7155834
21
-3.4395834
0
LINE
8
DEFAULT_255_2_778
10
10.7155834
20
-3.4395834
11
8.0697834
21
-3.4395834
0
LINE
8
DEFAULT_255_2_778
10
8.0697834
20
-3.4395834
11
8.0697834
21
-0.7937834
0
LINE
8
DEFAULT_255_2_778
10
8.0697834
20
-0.7937417
11
10.7155834
21
0.5291583
0
LINE
8
DEFAULT_255_1_234
10
4.9616293
20
-1.1805
11
4.8499881
21
-0.8752939
0
LINE
8
DEFAULT_255_1_234
10
4.8499881
20
-0.8752939
11
4.3600521
21
-0.8752939
0
LINE
8
DEFAULT_255_1_234
10
4.3600521
20
-0.8752939
11
4.2500173
21
-1.1805
0
LINE
8
DEFAULT_255_1_234
10
4.2500173
20
-1.1805
11
4.0909889
21
-1.1805
0
LINE
8
DEFAULT_255_1_234
10
4.0909889
20
-1.1805
11
4.5375535
21
-0.0110789
0
LINE
8
DEFAULT_255_1_234
10
4.5375535
20
-0.0110789
11
4.6724867
21
-0.0110789
0
LINE
8
DEFAULT_255_1_234
10
4.6724867
20
-0.0110789
11
5.1198545
21
-1.1805
0
LINE
8
DEFAULT_255_1_234
10
5.1198545
20
-1.1805
11
4.9616293
21
-1.1805
0
LINE
8
DEFAULT_255_1_234
10
4.6050201
20
-0.2014311
11
4.4066362
21
-0.7483925
0
LINE
8
DEFAULT_255_1_234
10
4.4066362
20
-0.7483925
11
4.8042072
21
-0.7483925
0
LINE
8
DEFAULT_255_1_234
10
4.8042072
20
-0.7483925
11
4.6050201
21
-0.2014311
0
LINE
8
DEFAULT_255_1_234
10
5.727054
20
-0.0054567
11
5.727054
21
-1.1805
0
LINE
8
DEFAULT_255_1_234
10
5.727054
20
-1.1805
11
5.5776636
21
-1.1805
0
LINE
8
DEFAULT_255_1_234
10
5.5776636
20
-1.1805
11
5.5776636
21
-0.1901867
0
LINE
8
DEFAULT_255_1_234
10
5.5776636
20
-0.1901867
11
5.2780798
21
-0.3002215
0
LINE
8
DEFAULT_255_1_234
10
5.2780798
20
-0.3002215
11
5.2780798
21
-0.1652883
0
LINE
8
DEFAULT_255_1_234
10
5.2780798
20
-0.1652883
11
5.7037619
21
-0.0054567
0
LINE
8
DEFAULT_255_1_234
10
5.7037619
20
-0.0054567
11
5.727054
21
-0.0054567
0
LINE
8
DEFAULT_255_1_234
10
12.5464293
20
-1.1805
11
12.4347881
21
-0.8752939
0
LINE
8
DEFAULT_255_1_234
10
12.4347881
20
-0.8752939
11
11.9448521
21
-0.8752939
0
LINE
8
DEFAULT_255_1_234
10
11.9448521
20
-0.8752939
11
11.8348173
21
-1.1805
0
LINE
8
DEFAULT_255_1_234
10
11.8348173
20
-1.1805
11
11.6757889
21
-1.1805
0
LINE
8
DEFAULT_255_1_234
10
11.6757889
20
-1.1805
11
12.1223535
21
-0.0110789
0
LINE
8
DEFAULT_255_1_234
10
12.1223535
20
-0.0110789
11
12.2572867
21
-0.0110789
0
LINE
8
DEFAULT_255_1_234
10
12.2572867
20
-0.0110789
11
12.7046545
21
-1.1805
0
LINE
8
DEFAULT_255_1_234
10
12.7046545
20
-1.1805
11
12.5464293
21
-1.1805
0
LINE
8
DEFAULT_255_1_234
10
12.1898201
20
-0.2014311
11
11.9914362
21
-0.7483925
0
LINE
8
DEFAULT_255_1_234
10
11.9914362
20
-0.7483925
11
12.3890072
21
-0.7483925
0
LINE
8
DEFAULT_255_1_234
10
12.3890072
20
-0.7483925
11
12.1898201
21
-0.2014311
0
LINE
8
DEFAULT_255_1_234
10
13.5897521
20
-1.0592208
11
13.5897521
21
-1.1805
0
LINE
8
DEFAULT_255_1_234
10
13.5897521
20
-1.1805
11
12.8235243
21
-1.1805
0
LINE
8
DEFAULT_255_1_234
10
12.8235243
20
-1.1805
11
12.8235243
21
-1.0736779
0
LINE
8
DEFAULT_255_1_234
10
12.8235243
20
-1.0736779
11
13.2283239
21
-0.6239005
0
LINE
8
DEFAULT_255_1_234
10
12.9496226
20
-0.3556405
11
12.8010354
21
-0.3556405
0
LINE
8
DEFAULT_255_1_234
10
13.3158698
20
-0.7194782
11
13.002632
21
-1.0592208
0
LINE
8
DEFAULT_255_1_234
10
13.002632
20
-1.0592208
11
13.5897521
21
-1.0592208
0
ARC
8
DEFAULT_255_1_234
10
11.8793072
20
0.5690527
40
1.8008286
50
318.5132453
51
320.7828378
0
ARC
8
DEFAULT_255_1_234
10
12.4080047
20
0.1387426
40
1.1191493
50
320.7372736
51
323.9737074
0
ARC
8
DEFAULT_255_1_234
10
12.7999903
20
-0.1452639
40
0.6350923
50
323.8961724
51
328.6421089
0
ARC
8
DEFAULT_255_1_234
10
13.0046498
20
-0.2714969
40
0.3946393
50
328.8299013
51
331.789948
0
ARC
8
DEFAULT_255_1_234
10
13.1043677
20
-0.3229491
40
0.2824501
50
331.4255242
51
352.9364833
0
ARC
8
DEFAULT_255_1_234
10
13.1180177
20
-0.3260024
40
0.2685315
50
353.2248685
51
0.0169286
0
ARC
8
DEFAULT_255_1_234
10
13.1390054
20
-0.323705
40
0.2475536
50
359.4866256
51
15.9339782
0
ARC
8
DEFAULT_255_1_234
10
13.189704
20
-0.3100714
40
0.1950618
50
16.1714718
51
43.5284424
0
ARC
8
DEFAULT_255_1_234
10
13.1974348
20
-0.3023427
40
0.184134
50
43.4415429
51
83.1661404
0
ARC
8
DEFAULT_255_1_234
10
13.1840266
20
-0.3760229
40
0.258926
50
82.160215
51
90.1505798
0
ARC
8
DEFAULT_255_1_234
10
13.1808694
20
-0.4297135
40
0.3126255
50
89.5460705
51
102.5418777
0
ARC
8
DEFAULT_255_1_234
10
13.156578
20
-0.3266335
40
0.2067346
50
102.1739365
51
129.2061916
0
ARC
8
DEFAULT_255_1_234
10
13.1486852
20
-0.3141906
40
0.1921118
50
129.7279328
51
135.7542026
0
ARC
8
DEFAULT_255_1_234
10
13.1608379
20
-0.3238955
40
0.2075944
50
136.175737
51
166.3674722
0
ARC
8
DEFAULT_255_1_234
10
13.2615298
20
-0.3508818
40
0.3118201
50
165.9092917
51
178.8683903
0
ARC
8
DEFAULT_255_1_234
10
13.348016
20
-0.3555821
40
0.3983935
50
178.438168
51
180.0083905
0
ARC
8
DEFAULT_255_1_234
10
13.2078762
20
-0.3516769
40
0.4068601
50
163.2878735
51
180.5581814
0
ARC
8
DEFAULT_255_1_234
10
13.1277023
20
-0.329616
40
0.3237344
50
133.454115
51
162.9470031
0
ARC
8
DEFAULT_255_1_234
10
13.1455565
20
-0.3486
40
0.349795
50
100.7869394
51
133.4384016
0
ARC
8
DEFAULT_255_1_234
10
13.1803336
20
-0.5034681
40
0.5084616
50
89.6605301
51
101.3704185
0
ARC
8
DEFAULT_255_1_234
10
13.1869675
20
-0.4973504
40
0.502348
50
78.2171172
51
90.4130393
0
ARC
8
DEFAULT_255_1_234
10
13.2224753
20
-0.3349363
40
0.3361092
50
55.9268222
51
78.4888551
0
ARC
8
DEFAULT_255_1_234
10
13.2421193
20
-0.3010676
40
0.2970617
50
47.9292255
51
55.4054003
0
ARC
8
DEFAULT_255_1_234
10
13.2522754
20
-0.2907498
40
0.2825983
50
4.3347696
51
48.0560701
0
ARC
8
DEFAULT_255_1_234
10
13.1427148
20
-0.3077399
40
0.393225
50
359.925209
51
5.5967654
0
ARC
8
DEFAULT_255_1_234
10
13.1856039
20
-0.3021184
40
0.3503892
50
337.8914096
51
358.9967724
0
ARC
8
DEFAULT_255_1_234
10
12.9142451
20
-0.1974294
40
0.6412172
50
326.9135351
51
338.3505194
0
ARC
8
DEFAULT_255_1_234
10
12.5156755
20
0.0580284
40
1.1146189
50
319.6472867
51
327.095818
0
ARC
8
DEFAULT_255_1_234
10
12.1323758
20
0.3742
40
1.6114559
50
317.2586784
51
319.9046139
0
ENDSEC
0
EOF