0
SECTION
2
HEADER
9
$MEASUREMENT
70
1
0
ENDSEC
0
SECTION
2
TABLES
0
TABLE
2
LTYPE
0
LTYPE
72
65
70
64
2
CONTINUOUS
3
______
73
0
40
0
0
ENDTAB
0
TABLE
2
LAYER
0
LAYER
2
DEFAULT_255_2_778
70
0
62
255
6
CONTINUOUS
0
LAYER
2
DEFAULT_255_1_234
70
0
62
255
6
CONTINUOUS
0
ENDTAB
0
ENDSEC
0
SECTION
2
ENTITIES
0
LINE
8
DEFAULT_255_2_778
10
2.7781542
20
-3.1763
11
6.0854542
21
-3.1763
0
LINE
8
DEFAULT_255_2_778
10
16.0072542
20
-3.1763
11
12.6999542
21
-3.1763
0
ARC
8
DEFAULT_255_2_778
10
6.7454557
20
-3.1748557
40
0.6600157
50
89.871003
51
180.128997
0
ARC
8
DEFAULT_255_2_778
10
6.748349
20
-3.1748345
40
0.6599943
50
359.8691577
51
90.1221758
0
ARC
8
DEFAULT_255_2_778
10
6.7483705
20
-3.1777705
40
0.6599728
50
269.8759594
51
0.1240406
0
ARC
8
DEFAULT_255_2_778
10
6.7454345
20
-3.1777492
40
0.6599942
50
179.8778094
51
270.1308423
0
LINE
8
DEFAULT_255_2_778
10
6.0854417
20
-3.1763417
11
6.0854417
21
-3.1763417
0
ARC
8
DEFAULT_255_2_778
10
12.0370557
20
-3.1748557
40
0.6600157
50
89.871003
51
180.128997
0
ARC
8
DEFAULT_255_2_778
10
12.039949
20
-3.1748345
40
0.6599943
50
359.8691577
51
90.1221758
0
ARC
8
DEFAULT_255_2_778
10
12.0399705
20
-3.1777705
40
0.6599728
50
269.8759594
51
0.1240406
0
ARC
8
DEFAULT_255_2_778
10
12.0370345
20
-3.1777492
40
0.6599942
50
179.8778094
51
270.1308423
0
LINE
8
DEFAULT_255_2_778
10
11.3770417
20
-3.1763417
11
11.3770417
21
-3.1763417
0
LINE
8
DEFAULT_255_2_778
10
6.7468667
20
-3.97
11
12.0385667
21
-3.97
0
LINE
8
DEFAULT_255_2_778
10
8.7312708
20
-2.6471417
11
9.3927708
21
-3.1763417
0
LINE
8
DEFAULT_255_2_778
10
9.3927708
20
-3.1763417
11
9.3927708
21
-3.9700417
0
LINE
8
DEFAULT_255_1_234
10
4.5386137
20
-1.0650567
11
4.5386137
21
-2.2401
0
LINE
8
DEFAULT_255_1_234
10
4.5386137
20
-2.2401
11
4.3892234
21
-2.2401
0
LINE
8
DEFAULT_255_1_234
10
4.3892234
20
-2.2401
11
4.3892234
21
-1.2497867
0
LINE
8
DEFAULT_255_1_234
10
4.3892234
20
-1.2497867
11
4.0896396
21
-1.3598215
0
LINE
8
DEFAULT_255_1_234
10
4.0896396
20
-1.3598215
11
4.0896396
21
-1.2248883
0
LINE
8
DEFAULT_255_1_234
10
4.0896396
20
-1.2248883
11
4.5153217
21
-1.0650567
0
LINE
8
DEFAULT_255_1_234
10
4.5153217
20
-1.0650567
11
4.5386137
21
-1.0650567
0
LINE
8
DEFAULT_255_1_234
10
5.4622636
20
-1.0650567
11
5.4622636
21
-2.2401
0
LINE
8
DEFAULT_255_1_234
10
5.4622636
20
-2.2401
11
5.3128733
21
-2.2401
0
LINE
8
DEFAULT_255_1_234
10
5.3128733
20
-2.2401
11
5.3128733
21
-1.2497867
0
LINE
8
DEFAULT_255_1_234
10
5.3128733
20
-1.2497867
11
5.0132895
21
-1.3598215
0
LINE
8
DEFAULT_255_1_234
10
5.0132895
20
-1.3598215
11
5.0132895
21
-1.2248883
0
LINE
8
DEFAULT_255_1_234
10
5.0132895
20
-1.2248883
11
5.4389716
21
-1.0650567
0
LINE
8
DEFAULT_255_1_234
10
5.4389716
20
-1.0650567
11
5.4622636
21
-1.0650567
0
LINE
8
DEFAULT_255_1_234
10
12.5034137
20
-1.0650567
11
12.5034137
21
-2.2401
0
LINE
8
DEFAULT_255_1_234
10
12.5034137
20
-2.2401
11
12.3540234
21
-2.2401
0
LINE
8
DEFAULT_255_1_234
10
12.3540234
20
-2.2401
11
12.3540234
21
-1.2497867
0
LINE
8
DEFAULT_255_1_234
10
12.3540234
20
-1.2497867
11
12.0544396
21
-1.3598215
0
LINE
8
DEFAULT_255_1_234
10
12.0544396
20
-1.3598215
11
12.0544396
21
-1.2248883
0
LINE
8
DEFAULT_255_1_234
10
12.0544396
20
-1.2248883
11
12.4801217
21
-1.0650567
0
LINE
8
DEFAULT_255_1_234
10
12.4801217
20
-1.0650567
11
12.5034137
21
-1.0650567
0
LINE
8
DEFAULT_255_1_234
10
13.7049618
20
-2.1188208
11
13.7049618
21
-2.2401
0
LINE
8
DEFAULT_255_1_234
10
13.7049618
20
-2.2401
11
12.9387339
21
-2.2401
0
LINE
8
DEFAULT_255_1_234
10
12.9387339
20
-2.2401
11
12.9387339
21
-2.1332779
0
LINE
8
DEFAULT_255_1_234
10
12.9387339
20
-2.1332779
11
13.3435335
21
-1.6835005
0
LINE
8
DEFAULT_255_1_234
10
13.0648322
20
-1.4152405
11
12.9162451
21
-1.4152405
0
LINE
8
DEFAULT_255_1_234
10
13.4310795
20
-1.7790782
11
13.1178417
21
-2.1188208
0
LINE
8
DEFAULT_255_1_234
10
13.1178417
20
-2.1188208
11
13.7049618
21
-2.1188208
0
ARC
8
DEFAULT_255_1_234
10
11.9945169
20
-0.4905473
40
1.8008286
50
318.5132453
51
320.7828378
0
ARC
8
DEFAULT_255_1_234
10
12.5232143
20
-0.9208574
40
1.1191493
50
320.7372736
51
323.9737074
0
ARC
8
DEFAULT_255_1_234
10
12.9152
20
-1.2048639
40
0.6350923
50
323.8961724
51
328.6421089
0
ARC
8
DEFAULT_255_1_234
10
13.1198595
20
-1.3310969
40
0.3946393
50
328.8299013
51
331.789948
0
ARC
8
DEFAULT_255_1_234
10
13.2195774
20
-1.3825491
40
0.2824501
50
331.4255242
51
352.9364833
0
ARC
8
DEFAULT_255_1_234
10
13.2332274
20
-1.3856024
40
0.2685315
50
353.2248685
51
0.0169286
0
ARC
8
DEFAULT_255_1_234
10
13.2542151
20
-1.383305
40
0.2475536
50
359.4866256
51
15.9339782
0
ARC
8
DEFAULT_255_1_234
10
13.3049136
20
-1.3696714
40
0.1950618
50
16.1714718
51
43.5284424
0
ARC
8
DEFAULT_255_1_234
10
13.3126445
20
-1.3619427
40
0.184134
50
43.4415429
51
83.1661404
0
ARC
8
DEFAULT_255_1_234
10
13.2992363
20
-1.4356229
40
0.258926
50
82.160215
51
90.1505798
0
ARC
8
DEFAULT_255_1_234
10
13.296079
20
-1.4893135
40
0.3126255
50
89.5460705
51
102.5418777
0
ARC
8
DEFAULT_255_1_234
10
13.2717876
20
-1.3862335
40
0.2067346
50
102.1739365
51
129.2061916
0
ARC
8
DEFAULT_255_1_234
10
13.2638948
20
-1.3737906
40
0.1921118
50
129.7279328
51
135.7542026
0
ARC
8
DEFAULT_255_1_234
10
13.2760476
20
-1.3834955
40
0.2075944
50
136.175737
51
166.3674722
0
ARC
8
DEFAULT_255_1_234
10
13.3767395
20
-1.4104818
40
0.3118201
50
165.9092917
51
178.8683903
0
ARC
8
DEFAULT_255_1_234
10
13.4632256
20
-1.4151821
40
0.3983935
50
178.438168
51
180.0083905
0
ARC
8
DEFAULT_255_1_234
10
13.3230859
20
-1.4112769
40
0.4068601
50
163.2878735
51
180.5581814
0
ARC
8
DEFAULT_255_1_234
10
13.242912
20
-1.389216
40
0.3237344
50
133.454115
51
162.9470031
0
ARC
8
DEFAULT_255_1_234
10
13.2607661
20
-1.4082
40
0.349795
50
100.7869394
51
133.4384016
0
ARC
8
DEFAULT_255_1_234
10
13.2955433
20
-1.5630681
40
0.5084616
50
89.6605301
51
101.3704185
0
ARC
8
DEFAULT_255_1_234
10
13.3021772
20
-1.5569504
40
0.502348
50
78.2171172
51
90.4130393
0
ARC
8
DEFAULT_255_1_234
10
13.337685
20
-1.3945363
40
0.3361092
50
55.9268222
51
78.4888551
0
ARC
8
DEFAULT_255_1_234
10
13.357329
20
-1.3606676
40
0.2970617
50
47.9292255
51
55.4054003
0
ARC
8
DEFAULT_255_1_234
10
13.3674851
20
-1.3503498
40
0.2825983
50
4.3347696
51
48.0560701
0
ARC
8
DEFAULT_255_1_234
10
13.2579244
20
-1.3673399
40
0.393225
50
359.925209
51
5.5967654
0
ARC
8
DEFAULT_255_1_234
10
13.3008136
20
-1.3617184
40
0.3503892
50
337.8914096
51
358.9967724
0
ARC
8
DEFAULT_255_1_234
10
13.0294548
20
-1.2570294
40
0.6412172
50
326.9135351
51
338.3505194
0
ARC
8
DEFAULT_255_1_234
10
12.6308852
20
-1.0015716
40
1.1146189
50
319.6472867
51
327.095818
0
ARC
8
DEFAULT_255_1_234
10
12.2475855
20
-0.6854
40
1.6114559
50
317.2586784
51
319.9046139
0
ENDSEC
0
EOF