0
SECTION
2
HEADER
9
$MEASUREMENT
70
1
0
ENDSEC
0
SECTION
2
TABLES
0
TABLE
2
LTYPE
0
LTYPE
72
65
70
64
2
CONTINUOUS
3
______
73
0
40
0
0
ENDTAB
0
TABLE
2
LAYER
0
LAYER
2
DEFAULT_255_2_778
70
0
62
255
6
CONTINUOUS
0
LAYER
2
DEFAULT_255_1_234
70
0
62
255
6
CONTINUOUS
0
ENDTAB
0
ENDSEC
0
SECTION
2
ENTITIES
0
LINE
8
DEFAULT_255_2_778
10
2.7781542
20
-3.3747
11
6.0854542
21
-3.3747
0
LINE
8
DEFAULT_255_2_778
10
16.0072542
20
-3.3747
11
12.6999542
21
-3.3747
0
ARC
8
DEFAULT_255_2_778
10
6.7454557
20
-3.3732557
40
0.6600157
50
89.871003
51
180.128997
0
ARC
8
DEFAULT_255_2_778
10
6.748349
20
-3.3732345
40
0.6599943
50
359.8691577
51
90.1221758
0
ARC
8
DEFAULT_255_2_778
10
6.7483705
20
-3.3761705
40
0.6599728
50
269.8759594
51
0.1240406
0
ARC
8
DEFAULT_255_2_778
10
6.7454345
20
-3.3761492
40
0.6599942
50
179.8778094
51
270.1308423
0
LINE
8
DEFAULT_255_2_778
10
6.0854417
20
-3.3747417
11
6.0854417
21
-3.3747417
0
ARC
8
DEFAULT_255_2_778
10
12.0370557
20
-3.3732557
40
0.6600157
50
89.871003
51
180.128997
0
ARC
8
DEFAULT_255_2_778
10
12.039949
20
-3.3732345
40
0.6599943
50
359.8691577
51
90.1221758
0
ARC
8
DEFAULT_255_2_778
10
12.0399705
20
-3.3761705
40
0.6599728
50
269.8759594
51
0.1240406
0
ARC
8
DEFAULT_255_2_778
10
12.0370345
20
-3.3761492
40
0.6599942
50
179.8778094
51
270.1308423
0
LINE
8
DEFAULT_255_2_778
10
11.3770417
20
-3.3747417
11
11.3770417
21
-3.3747417
0
LINE
8
DEFAULT_255_2_778
10
7.4082959
20
-3.3747417
11
12.0384959
21
-2.0518417
0
LINE
8
DEFAULT_255_2_778
10
10.715575
20
-2.4156156
11
10.451075
21
-1.5226156
0
LINE
8
DEFAULT_255_2_778
10
10.451075
20
-1.5226156
11
8.334375
21
-2.1841156
0
LINE
8
DEFAULT_255_1_234
10
4.5475137
20
-1.2634567
11
4.5475137
21
-2.4385
0
LINE
8
DEFAULT_255_1_234
10
4.5475137
20
-2.4385
11
4.3981234
21
-2.4385
0
LINE
8
DEFAULT_255_1_234
10
4.3981234
20
-2.4385
11
4.3981234
21
-1.4481867
0
LINE
8
DEFAULT_255_1_234
10
4.3981234
20
-1.4481867
11
4.0985396
21
-1.5582215
0
LINE
8
DEFAULT_255_1_234
10
4.0985396
20
-1.5582215
11
4.0985396
21
-1.4232883
0
LINE
8
DEFAULT_255_1_234
10
4.0985396
20
-1.4232883
11
4.5242217
21
-1.2634567
0
LINE
8
DEFAULT_255_1_234
10
4.5242217
20
-1.2634567
11
4.5475137
21
-1.2634567
0
LINE
8
DEFAULT_255_1_234
10
5.1988877
20
-1.9027831
11
5.1988877
21
-1.7815038
0
LINE
8
DEFAULT_255_1_234
10
5.1988877
20
-1.7815038
11
5.3105289
21
-1.7815038
0
LINE
8
DEFAULT_255_1_234
10
5.1201767
20
-1.5758913
11
4.9715895
21
-1.5758913
0
LINE
8
DEFAULT_255_1_234
10
4.9611482
20
-2.1300813
11
5.1105386
21
-2.1300813
0
LINE
8
DEFAULT_255_1_234
10
5.3105289
20
-1.9027831
11
5.1988877
21
-1.9027831
0
ARC
8
DEFAULT_255_1_234
10
5.3076155
20
-1.4422287
40
0.3392876
50
270.4919872
51
281.8951556
0
ARC
8
DEFAULT_255_1_234
10
5.3317417
20
-1.5524298
40
0.2264817
50
281.6691735
51
301.2943132
0
ARC
8
DEFAULT_255_1_234
10
5.3487627
20
-1.5835696
40
0.1910381
50
301.7833094
51
311.7545298
0
ARC
8
DEFAULT_255_1_234
10
5.3579203
20
-1.5937252
40
0.1773635
50
311.7323931
51
354.2802411
0
ARC
8
DEFAULT_255_1_234
10
5.2852828
20
-1.5812278
40
0.2509385
50
353.0937916
51
0.1181479
0
ARC
8
DEFAULT_255_1_234
10
5.2391613
20
-1.5764614
40
0.2970898
50
359.1805295
51
15.0453146
0
ARC
8
DEFAULT_255_1_234
10
5.373745
20
-1.5372008
40
0.1569564
50
13.9577229
51
77.6713066
0
ARC
8
DEFAULT_255_1_234
10
5.3350979
20
-1.6757051
40
0.3006298
50
76.1116566
51
90.7026153
0
ARC
8
DEFAULT_255_1_234
10
5.3291817
20
-1.6483455
40
0.2732568
50
89.5324876
51
103.531937
0
ARC
8
DEFAULT_255_1_234
10
5.3091261
20
-1.5684116
40
0.1908508
50
103.2931773
51
133.5619022
0
ARC
8
DEFAULT_255_1_234
10
5.304675
20
-1.5624625
40
0.1834746
50
133.8349307
51
173.5344437
0
ARC
8
DEFAULT_255_1_234
10
5.3769793
20
-1.5752787
40
0.2568033
50
172.5096846
51
180.1366907
0
ARC
8
DEFAULT_255_1_234
10
5.2818687
20
-1.5718378
40
0.3103056
50
155.3484492
51
180.7484736
0
ARC
8
DEFAULT_255_1_234
10
5.2769776
20
-1.5747154
40
0.3070957
50
131.5744599
51
154.4798489
0
ARC
8
DEFAULT_255_1_234
10
5.3082923
20
-1.606369
40
0.3515643
50
96.9875458
51
131.9690667
0
ARC
8
DEFAULT_255_1_234
10
5.3302403
20
-1.7309364
40
0.4779224
50
89.8596053
51
97.7825159
0
ARC
8
DEFAULT_255_1_234
10
5.3350466
20
-1.7571384
40
0.5041361
50
78.3655447
51
90.4131539
0
ARC
8
DEFAULT_255_1_234
10
5.3708384
20
-1.5912113
40
0.3344039
50
56.6229102
51
78.638727
0
ARC
8
DEFAULT_255_1_234
10
5.3923328
20
-1.5536195
40
0.2912001
50
47.0253525
51
56.0854072
0
ARC
8
DEFAULT_255_1_234
10
5.3943108
20
-1.5496777
40
0.2869704
50
10.9208013
51
46.7778124
0
ARC
8
DEFAULT_255_1_234
10
5.2579174
20
-1.5812143
40
0.426899
50
359.6364486
51
11.6087304
0
ARC
8
DEFAULT_255_1_234
10
5.4414018
20
-1.5827248
40
0.243409
50
332.3549906
51
359.7179418
0
ARC
8
DEFAULT_255_1_234
10
5.376362
20
-1.5518858
40
0.3153459
50
325.2333722
51
332.8745602
0
ARC
8
DEFAULT_255_1_234
10
5.3916244
20
-1.5625172
40
0.2967456
50
292.9802137
51
325.2392345
0
ARC
8
DEFAULT_255_1_234
10
5.3641617
20
-1.5091137
40
0.3566604
50
292.5402179
51
293.6924929
0
ARC
8
DEFAULT_255_1_234
10
5.4034213
20
-2.1545909
40
0.3307468
50
57.6435486
51
72.8625112
0
ARC
8
DEFAULT_255_1_234
10
5.4388713
20
-2.0971451
40
0.2632492
50
36.7248896
51
57.4697979
0
ARC
8
DEFAULT_255_1_234
10
5.4377346
20
-2.095878
40
0.2634081
50
8.0545065
51
36.356114
0
ARC
8
DEFAULT_255_1_234
10
5.3514531
20
-2.1113826
40
0.3510261
50
359.8320645
51
8.5869982
0
ARC
8
DEFAULT_255_1_234
10
5.3139307
20
-2.1161899
40
0.3885653
50
343.9829931
51
0.5571613
0
ARC
8
DEFAULT_255_1_234
10
5.4025504
20
-2.1404562
40
0.2966924
50
311.6359546
51
343.7651759
0
ARC
8
DEFAULT_255_1_234
10
5.3647074
20
-2.0977898
40
0.3537231
50
279.7829875
51
311.6255694
0
ARC
8
DEFAULT_255_1_234
10
5.334585
20
-1.954072
40
0.5004971
50
269.7286406
51
280.3856417
0
ARC
8
DEFAULT_255_1_234
10
5.3283922
20
-1.9582004
40
0.4963778
50
256.6828919
51
270.4412052
0
ARC
8
DEFAULT_255_1_234
10
5.2945218
20
-2.0966606
40
0.3538406
50
229.4223008
51
256.8556159
0
ARC
8
DEFAULT_255_1_234
10
5.2530611
20
-2.1433264
40
0.2914296
50
181.818294
51
229.6455059
0
ARC
8
DEFAULT_255_1_234
10
5.3570567
20
-2.1302504
40
0.3959084
50
179.9755256
51
183.2323064
0
ARC
8
DEFAULT_255_1_234
10
5.3398313
20
-2.1322963
40
0.2293034
50
179.4465117
51
196.2869258
0
ARC
8
DEFAULT_255_1_234
10
5.2910721
20
-2.1456349
40
0.1787621
50
196.5661473
51
227.705904
0
ARC
8
DEFAULT_255_1_234
10
5.3074816
20
-2.1272845
40
0.2033784
50
227.7652068
51
257.8762805
0
ARC
8
DEFAULT_255_1_234
10
5.3299786
20
-2.0329844
40
0.3003081
50
257.4584385
51
270.426602
0
ARC
8
DEFAULT_255_1_234
10
5.3345352
20
-2.0040004
40
0.329292
50
269.5962073
51
280.8789248
0
ARC
8
DEFAULT_255_1_234
10
5.3574881
20
-2.1186315
40
0.2123908
50
280.6346389
51
299.8595945
0
ARC
8
DEFAULT_255_1_234
10
5.3765788
20
-2.1548788
40
0.171457
50
300.3576302
51
314.5517981
0
ARC
8
DEFAULT_255_1_234
10
5.3682848
20
-2.1488081
40
0.1816095
50
315.0728369
51
345.0431014
0
ARC
8
DEFAULT_255_1_234
10
5.2759662
20
-2.1219159
40
0.2777492
50
344.5986631
51
357.9269593
0
ARC
8
DEFAULT_255_1_234
10
5.1863989
20
-2.1157724
40
0.3674917
50
357.4748886
51
0.0231117
0
ARC
8
DEFAULT_255_1_234
10
5.2887098
20
-2.1133321
40
0.2651907
50
359.5047933
51
13.4239635
0
ARC
8
DEFAULT_255_1_234
10
5.3753741
20
-2.0911522
40
0.1757509
50
12.9498199
51
48.7551375
0
ARC
8
DEFAULT_255_1_234
10
5.3571475
20
-2.11606
40
0.2065134
50
49.5088623
51
72.1836453
0
ARC
8
DEFAULT_255_1_234
10
5.3213628
20
-2.2222709
40
0.3185836
50
71.9010081
51
84.3554254
0
ARC
8
DEFAULT_255_1_234
10
5.305226
20
-2.3583674
40
0.4556151
50
84.0193428
51
89.333121
0
LINE
8
DEFAULT_255_1_234
10
12.3976137
20
-1.2634567
11
12.3976137
21
-2.4385
0
LINE
8
DEFAULT_255_1_234
10
12.3976137
20
-2.4385
11
12.2482234
21
-2.4385
0
LINE
8
DEFAULT_255_1_234
10
12.2482234
20
-2.4385
11
12.2482234
21
-1.4481867
0
LINE
8
DEFAULT_255_1_234
10
12.2482234
20
-1.4481867
11
11.9486396
21
-1.5582215
0
LINE
8
DEFAULT_255_1_234
10
11.9486396
20
-1.5582215
11
11.9486396
21
-1.4232883
0
LINE
8
DEFAULT_255_1_234
10
11.9486396
20
-1.4232883
11
12.3743217
21
-1.2634567
0
LINE
8
DEFAULT_255_1_234
10
12.3743217
20
-1.2634567
11
12.3976137
21
-1.2634567
0
LINE
8
DEFAULT_255_1_234
10
13.4602127
20
-1.2690789
11
13.4602127
21
-2.045748
0
LINE
8
DEFAULT_255_1_234
10
13.4602127
20
-2.045748
11
13.6224538
21
-2.045748
0
LINE
8
DEFAULT_255_1_234
10
13.6224538
20
-2.045748
11
13.6224538
21
-2.1670272
0
LINE
8
DEFAULT_255_1_234
10
13.6224538
20
-2.1670272
11
13.4602127
21
-2.1670272
0
LINE
8
DEFAULT_255_1_234
10
13.4602127
20
-2.1670272
11
13.4602127
21
-2.4385
0
LINE
8
DEFAULT_255_1_234
10
13.4602127
20
-2.4385
11
13.3108224
21
-2.4385
0
LINE
8
DEFAULT_255_1_234
10
13.3108224
20
-2.4385
11
13.3108224
21
-2.1670272
0
LINE
8
DEFAULT_255_1_234
10
13.3108224
20
-2.1670272
11
12.7783181
21
-2.1670272
0
LINE
8
DEFAULT_255_1_234
10
12.7783181
20
-2.1670272
11
12.7783181
21
-2.0794813
0
LINE
8
DEFAULT_255_1_234
10
12.7783181
20
-2.0794813
11
13.3019875
21
-1.2690789
0
LINE
8
DEFAULT_255_1_234
10
13.3019875
20
-1.2690789
11
13.4602127
21
-1.2690789
0
LINE
8
DEFAULT_255_1_234
10
13.2931525
20
-1.5044088
11
12.9469846
21
-2.045748
0
LINE
8
DEFAULT_255_1_234
10
12.9469846
20
-2.045748
11
13.3108224
21
-2.045748
0
LINE
8
DEFAULT_255_1_234
10
13.3108224
20
-2.045748
11
13.3108224
21
-1.4722819
0
LINE
8
DEFAULT_255_1_234
10
13.3108224
20
-1.4722819
11
13.2931525
21
-1.5044088
0
ENDSEC
0
EOF