0
SECTION
2
HEADER
9
$MEASUREMENT
70
1
0
ENDSEC
0
SECTION
2
TABLES
0
TABLE
2
LTYPE
0
LTYPE
72
65
70
64
2
CONTINUOUS
3
______
73
0
40
0
0
ENDTAB
0
TABLE
2
LAYER
0
LAYER
2
DEFAULT_255_2_778
70
0
62
255
6
CONTINUOUS
0
LAYER
2
DEFAULT_255_1_234
70
0
62
255
6
CONTINUOUS
0
ENDTAB
0
ENDSEC
0
SECTION
2
ENTITIES
0
LINE
8
DEFAULT_255_2_778
10
3.4396169
20
22.3573164
11
16.6688169
21
22.3573164
0
LINE
8
DEFAULT_255_2_778
10
16.6688169
20
22.3573164
11
16.6688169
21
3.8365164
0
LINE
8
DEFAULT_255_2_778
10
16.6688169
20
3.8365164
11
3.4396169
21
3.8365164
0
LINE
8
DEFAULT_255_2_778
10
3.4396169
20
3.8365164
11
3.4396169
21
22.3573164
0
LINE
8
DEFAULT_255_2_778
10
10.0542084
20
13.096975
11
11.3771084
21
13.096975
0
LINE
8
DEFAULT_255_2_778
10
11.3771084
20
13.096975
11
13.4938084
21
13.890675
0
LINE
8
DEFAULT_255_2_778
10
13.4937417
20
13.0969
11
14.8166417
21
13.0969
0
LINE
8
DEFAULT_255_2_778
10
14.8166417
20
18.389575
11
13.4937417
21
18.389575
0
LINE
8
DEFAULT_255_2_778
10
13.4937417
20
18.389575
11
13.4937417
21
17.595875
0
LINE
8
DEFAULT_255_2_778
10
10.0541251
20
18.3895833
11
11.3770251
21
18.3895833
0
LINE
8
DEFAULT_255_2_778
10
11.3770251
20
18.3895833
11
14.0228251
21
17.8603833
0
LINE
8
DEFAULT_255_2_778
10
10.0541501
20
7.8042
11
14.8166501
21
7.8042
0
LINE
8
DEFAULT_255_2_778
10
10.0542
20
18.3885665
11
10.0542
21
7.8052665
0
LINE
8
DEFAULT_255_2_778
10
4.7625167
20
10.18645
11
5.2917167
21
10.18645
0
LINE
8
DEFAULT_255_2_778
10
5.2917167
20
10.18645
11
5.2917167
21
8.59895
0
LINE
8
DEFAULT_255_2_778
10
5.2917167
20
8.59895
11
4.7625167
21
8.59895
0
LINE
8
DEFAULT_255_2_778
10
4.7625167
20
8.59895
11
4.7625167
21
10.18645
0
LINE
8
DEFAULT_255_2_778
10
4.7625167
20
8.06975
11
5.2917167
21
8.06975
0
LINE
8
DEFAULT_255_2_778
10
5.2917167
20
8.06975
11
5.2917167
21
6.48225
0
LINE
8
DEFAULT_255_2_778
10
5.2917167
20
6.48225
11
4.7625167
21
6.48225
0
LINE
8
DEFAULT_255_2_778
10
4.7625167
20
6.48225
11
4.7625167
21
8.06975
0
LINE
8
DEFAULT_255_2_778
10
8.2021167
20
10.1864833
11
8.7313167
21
10.1864833
0
LINE
8
DEFAULT_255_2_778
10
8.7313167
20
10.1864833
11
8.7313167
21
6.4822833
0
LINE
8
DEFAULT_255_2_778
10
8.7313167
20
6.4822833
11
8.2021167
21
6.4822833
0
LINE
8
DEFAULT_255_2_778
10
8.2021167
20
6.4822833
11
8.2021167
21
10.1864833
0
LINE
8
DEFAULT_255_2_778
10
5.5562584
20
9.3926833
11
7.4083584
21
9.3926833
0
LINE
8
DEFAULT_255_2_778
10
7.4083584
20
9.3926833
11
6.3499584
21
9.6572833
0
LINE
8
DEFAULT_255_2_778
10
6.3499584
20
9.6572833
11
6.3499584
21
9.1280833
0
LINE
8
DEFAULT_255_2_778
10
6.3499584
20
9.1280833
11
7.4083584
21
9.3926833
0
LINE
8
DEFAULT_255_2_778
10
7.4083584
20
7.2759833
11
5.5562584
21
7.2759833
0
LINE
8
DEFAULT_255_2_778
10
5.5562584
20
7.2759833
11
6.6145584
21
7.5405833
0
LINE
8
DEFAULT_255_2_778
10
6.6145584
20
7.5405833
11
6.6145584
21
7.0113833
0
LINE
8
DEFAULT_255_2_778
10
6.6145584
20
7.0113833
11
5.5562584
21
7.2759833
0
LINE
8
DEFAULT_255_2_778
10
6.6334048
20
19.7114952
11
8.5043048
21
17.8405952
0
LINE
8
DEFAULT_255_2_778
10
8.5043048
20
17.8405952
11
6.6334048
21
15.9696952
0
LINE
8
DEFAULT_255_2_778
10
6.6334048
20
15.9696952
11
4.7625048
21
17.8405952
0
LINE
8
DEFAULT_255_2_778
10
4.7625048
20
17.8405952
11
6.6334048
21
19.7114952
0
LINE
8
DEFAULT_255_2_778
10
5.9719
20
19.031225
11
5.9719
21
16.650025
0
LINE
8
DEFAULT_255_2_778
10
7.2948
20
16.650025
11
7.2948
21
19.031225
0
ARC
8
DEFAULT_255_2_778
10
10.0555057
20
13.0965945
40
0.132003
50
269.8709441
51
0.1289822
0
ARC
8
DEFAULT_255_2_778
10
10.054911
20
13.0965943
40
0.132003
50
179.8709223
51
270.1290651
0
ARC
8
DEFAULT_255_2_778
10
10.054911
20
13.0971889
40
0.132003
50
89.8709223
51
180.1290345
0
ARC
8
DEFAULT_255_2_778
10
10.0555056
20
13.0971889
40
0.1320031
50
359.8709654
51
90.1290346
0
LINE
8
DEFAULT_255_2_778
10
10.1875083
20
13.0968917
11
10.1875083
21
13.0968917
0
LINE
8
DEFAULT_255_2_778
10
17.9916417
20
18.3885
11
16.6687417
21
18.3885
0
LINE
8
DEFAULT_255_2_778
10
17.9916417
20
7.8052
11
16.6687417
21
7.8052
0
LINE
8
DEFAULT_255_2_778
10
17.9916417
20
13.0969
11
16.6687417
21
13.0969
0
LINE
8
DEFAULT_255_2_778
10
10.0542
20
23.6802583
11
10.0542
21
22.3573583
0
LINE
8
DEFAULT_255_2_778
10
10.0542
20
2.5135583
11
10.0542
21
3.8364583
0
LINE
8
DEFAULT_255_2_778
10
10.0542
20
-2.7781376
11
10.0542
21
3.1749624
0
LINE
8
DEFAULT_255_2_778
10
23.2833667
20
7.8052
11
17.3312667
21
7.8052
0
LINE
8
DEFAULT_255_2_778
10
23.2833667
20
13.0969
11
17.3312667
21
13.0969
0
LINE
8
DEFAULT_255_2_778
10
23.2833667
20
18.3885
11
17.3312667
21
18.3885
0
LINE
8
DEFAULT_255_2_778
10
10.0542
20
28.9718624
11
10.0542
21
23.0187624
0
ARC
8
DEFAULT_255_2_778
10
16.6672557
20
18.3899443
40
0.6600157
50
89.871003
51
180.128997
0
ARC
8
DEFAULT_255_2_778
10
16.670149
20
18.3899655
40
0.6599943
50
359.8691577
51
90.1221758
0
ARC
8
DEFAULT_255_2_778
10
16.6701705
20
18.3870295
40
0.6599728
50
269.8759594
51
0.1240406
0
ARC
8
DEFAULT_255_2_778
10
16.6672345
20
18.3870508
40
0.6599942
50
179.8778094
51
270.1308423
0
LINE
8
DEFAULT_255_2_778
10
16.0072417
20
18.3884583
11
16.0072417
21
18.3884583
0
ARC
8
DEFAULT_255_2_778
10
16.6672557
20
7.8066443
40
0.6600157
50
89.871003
51
180.128997
0
ARC
8
DEFAULT_255_2_778
10
16.670149
20
7.8066655
40
0.6599943
50
359.8691577
51
90.1221758
0
ARC
8
DEFAULT_255_2_778
10
16.6701705
20
7.8037295
40
0.6599728
50
269.8759594
51
0.1240406
0
ARC
8
DEFAULT_255_2_778
10
16.6672345
20
7.8037508
40
0.6599942
50
179.8778094
51
270.1308423
0
LINE
8
DEFAULT_255_2_778
10
16.0072417
20
7.8051583
11
16.0072417
21
7.8051583
0
ARC
8
DEFAULT_255_2_778
10
16.6672557
20
13.0983443
40
0.6600157
50
89.871003
51
180.128997
0
ARC
8
DEFAULT_255_2_778
10
16.670149
20
13.0983655
40
0.6599943
50
359.8691577
51
90.1221758
0
ARC
8
DEFAULT_255_2_778
10
16.6701705
20
13.0954295
40
0.6599728
50
269.8759594
51
0.1240406
0
ARC
8
DEFAULT_255_2_778
10
16.6672345
20
13.0954508
40
0.6599942
50
179.8778094
51
270.1308423
0
LINE
8
DEFAULT_255_2_778
10
16.0072417
20
13.0968583
11
16.0072417
21
13.0968583
0
ARC
8
DEFAULT_255_2_778
10
10.0527557
20
22.3587443
40
0.6600157
50
89.871003
51
180.128997
0
ARC
8
DEFAULT_255_2_778
10
10.055649
20
22.3587655
40
0.6599943
50
359.8691577
51
90.1221758
0
ARC
8
DEFAULT_255_2_778
10
10.0556705
20
22.3558295
40
0.6599728
50
269.8759594
51
0.1240406
0
ARC
8
DEFAULT_255_2_778
10
10.0527345
20
22.3558508
40
0.6599942
50
179.8778094
51
270.1308423
0
LINE
8
DEFAULT_255_2_778
10
9.3927417
20
22.3572583
11
9.3927417
21
22.3572583
0
ARC
8
DEFAULT_255_2_778
10
10.0527557
20
3.8379443
40
0.6600157
50
89.871003
51
180.128997
0
ARC
8
DEFAULT_255_2_778
10
10.055649
20
3.8379655
40
0.6599943
50
359.8691577
51
90.1221758
0
ARC
8
DEFAULT_255_2_778
10
10.0556705
20
3.8350295
40
0.6599728
50
269.8759594
51
0.1240406
0
ARC
8
DEFAULT_255_2_778
10
10.0527345
20
3.8350508
40
0.6599942
50
179.8778094
51
270.1308423
0
LINE
8
DEFAULT_255_2_778
10
9.3927417
20
3.8364583
11
9.3927417
21
3.8364583
0
LINE
8
DEFAULT_255_1_234
10
6.2497392
20
26.6817
11
5.8441364
21
26.6817
0
LINE
8
DEFAULT_255_1_234
10
5.8441364
20
26.6817
11
5.8441364
21
27.8511211
0
LINE
8
DEFAULT_255_1_234
10
5.8441364
20
27.8511211
11
6.2264471
21
27.8511211
0
LINE
8
DEFAULT_255_1_234
10
6.2553614
20
27.2286614
11
5.9983458
21
27.2286614
0
LINE
8
DEFAULT_255_1_234
10
5.9983458
20
27.2286614
11
5.9983458
21
26.8077983
0
LINE
8
DEFAULT_255_1_234
10
5.9983458
20
26.8077983
11
6.2529519
21
26.8077983
0
LINE
8
DEFAULT_255_1_234
10
5.9983458
20
27.7242196
11
5.9983458
21
27.3523501
0
LINE
8
DEFAULT_255_1_234
10
5.9983458
20
27.3523501
11
6.2312662
21
27.3523501
0
LINE
8
DEFAULT_255_1_234
10
6.2264471
20
27.7242196
11
5.9983458
21
27.7242196
0
ARC
8
DEFAULT_255_1_234
10
6.230218
20
27.1143901
40
0.7367406
50
82.1257326
51
90.2932599
0
ARC
8
DEFAULT_255_1_234
10
6.2691135
20
27.3862013
40
0.4621653
50
69.9044149
51
82.2857423
0
ARC
8
DEFAULT_255_1_234
10
6.3261813
20
27.5404637
40
0.2976871
50
51.1838526
51
70.0181538
0
ARC
8
DEFAULT_255_1_234
10
6.3516779
20
27.577524
40
0.2528517
50
12.1017251
51
50.4214761
0
ARC
8
DEFAULT_255_1_234
10
6.2132653
20
27.5427676
40
0.3955061
50
359.5251267
51
12.8211707
0
ARC
8
DEFAULT_255_1_234
10
6.3712579
20
27.5358344
40
0.2375281
50
323.4908128
51
0.8817314
0
ARC
8
DEFAULT_255_1_234
10
6.3294266
20
27.568155
40
0.2903817
50
298.6825083
51
323.2756573
0
ARC
8
DEFAULT_255_1_234
10
6.2932629
20
27.6282649
40
0.3604842
50
293.1999386
51
299.1396394
0
ARC
8
DEFAULT_255_1_234
10
6.3605602
20
27.0197126
40
0.2871098
50
54.0011765
51
74.9167975
0
ARC
8
DEFAULT_255_1_234
10
6.3721961
20
27.0394332
40
0.2643248
50
36.3580696
51
53.5291921
0
ARC
8
DEFAULT_255_1_234
10
6.3595203
20
27.0303998
40
0.2798884
50
4.8189881
51
36.3089977
0
ARC
8
DEFAULT_255_1_234
10
6.2816038
20
27.019427
40
0.358478
50
359.9370252
51
5.5204067
0
ARC
8
DEFAULT_255_1_234
10
6.249156
20
27.0153667
40
0.3909429
50
344.7478609
51
0.5373281
0
ARC
8
DEFAULT_255_1_234
10
6.3482531
20
26.9886544
40
0.2883093
50
311.1786488
51
344.6886812
0
ARC
8
DEFAULT_255_1_234
10
6.3190578
20
27.0249987
40
0.3348923
50
286.0418249
51
310.8441291
0
ARC
8
DEFAULT_255_1_234
10
6.268341
20
27.1896807
40
0.5071869
50
274.1042341
51
286.4071509
0
ARC
8
DEFAULT_255_1_234
10
6.2506666
20
27.3780229
40
0.6963234
50
269.9236873
51
274.445647
0
ARC
8
DEFAULT_255_1_234
10
6.2552667
20
27.1440537
40
0.3362634
50
269.6055768
51
281.3740047
0
ARC
8
DEFAULT_255_1_234
10
6.2783305
20
27.0347353
40
0.224546
50
281.1055983
51
302.5132223
0
ARC
8
DEFAULT_255_1_234
10
6.2930204
20
27.0083823
40
0.1944357
50
303.0368945
51
311.8811219
0
ARC
8
DEFAULT_255_1_234
10
6.3001611
20
26.999889
40
0.1833454
50
311.9916004
51
351.7143462
0
ARC
8
DEFAULT_255_1_234
10
6.2184841
20
27.016393
40
0.2665871
50
350.7339597
51
0.2221581
0
ARC
8
DEFAULT_255_1_234
10
6.2077287
20
27.0220467
40
0.2773789
50
359.0456241
51
17.2296242
0
ARC
8
DEFAULT_255_1_234
10
6.3116404
20
27.0529163
40
0.1689915
50
17.6685481
51
78.9940892
0
ARC
8
DEFAULT_255_1_234
10
6.2599568
20
26.8674224
40
0.3612658
50
76.5635957
51
90.6980921
0
LINE
8
DEFAULT_255_1_234
10
6.2555552
20
27.2286613
11
6.2553614
21
27.2286614
0
ARC
8
DEFAULT_255_1_234
10
6.2335228
20
27.6809036
40
0.3285612
50
269.6064736
51
281.4533503
0
ARC
8
DEFAULT_255_1_234
10
6.2558048
20
27.5757688
40
0.2210975
50
281.2041486
51
302.5148063
0
ARC
8
DEFAULT_255_1_234
10
6.2694898
20
27.5511241
40
0.1929674
50
303.021671
51
309.8369575
0
ARC
8
DEFAULT_255_1_234
10
6.2878359
20
27.5305488
40
0.1654181
50
309.5228395
51
356.9509836
0
ARC
8
DEFAULT_255_1_234
10
6.2214942
20
27.5400932
40
0.2322512
50
355.4701227
51
0.0492546
0
ARC
8
DEFAULT_255_1_234
10
6.1936033
20
27.5423094
40
0.2601498
50
359.5558597
51
11.2096359
0
ARC
8
DEFAULT_255_1_234
10
6.2893323
20
27.562123
40
0.1623975
50
10.9182341
51
31.3230275
0
ARC
8
DEFAULT_255_1_234
10
6.3179056
20
27.5780214
40
0.1297302
50
31.8852677
51
52.1412565
0
ARC
8
DEFAULT_255_1_234
10
6.2904789
20
27.539275
40
0.1771663
50
52.8285564
51
71.9850297
0
ARC
8
DEFAULT_255_1_234
10
6.2528965
20
27.4286664
40
0.2939794
50
71.6863486
51
82.8455995
0
ARC
8
DEFAULT_255_1_234
10
6.2289501
20
27.2477149
40
0.476506
50
82.6984714
51
90.1729175
0
ARC
8
DEFAULT_255_1_234
10
6.2267136
20
27.3700623
40
0.3541573
50
89.8708275
51
90.0431131
0
LINE
8
DEFAULT_255_1_234
10
7.5508808
20
26.6817
11
7.2970778
21
27.1547694
0
LINE
8
DEFAULT_255_1_234
10
7.2970778
20
27.1547694
11
7.0223924
21
27.1547694
0
LINE
8
DEFAULT_255_1_234
10
7.0223924
20
27.1547694
11
7.0223924
21
26.6817
0
LINE
8
DEFAULT_255_1_234
10
7.0223924
20
26.6817
11
6.8673798
21
26.6817
0
LINE
8
DEFAULT_255_1_234
10
6.8673798
20
26.6817
11
6.8673798
21
27.8511211
0
LINE
8
DEFAULT_255_1_234
10
6.8673798
20
27.8511211
11
7.2545096
21
27.8511211
0
LINE
8
DEFAULT_255_1_234
10
7.4416491
20
27.1876995
11
7.7163346
21
26.6913381
0
LINE
8
DEFAULT_255_1_234
10
7.7163346
20
26.6913381
11
7.7163346
21
26.6817
0
LINE
8
DEFAULT_255_1_234
10
7.7163346
20
26.6817
11
7.5508808
21
26.6817
0
LINE
8
DEFAULT_255_1_234
10
7.0223924
20
27.7242196
11
7.0223924
21
27.2808677
0
LINE
8
DEFAULT_255_1_234
10
7.0223924
20
27.2808677
11
7.2593287
21
27.2808677
0
LINE
8
DEFAULT_255_1_234
10
7.2585255
20
27.7242196
11
7.0223924
21
27.7242196
0
ARC
8
DEFAULT_255_1_234
10
7.2586736
20
27.1549761
40
0.6961575
50
80.653586
51
90.3427061
0
ARC
8
DEFAULT_255_1_234
10
7.300621
20
27.4012348
40
0.4463577
50
65.6987447
51
80.8329603
0
ARC
8
DEFAULT_255_1_234
10
7.3483851
20
27.5107322
40
0.3269094
50
50.0017161
51
65.4305835
0
ARC
8
DEFAULT_255_1_234
10
7.3702315
20
27.5402482
40
0.2902647
50
11.628416
51
49.5603263
0
ARC
8
DEFAULT_255_1_234
10
7.2166651
20
27.5027299
40
0.4482792
50
359.5655735
51
12.3691
0
ARC
8
DEFAULT_255_1_234
10
7.3243511
20
27.4964644
40
0.3405924
50
341.9983148
51
0.4822259
0
ARC
8
DEFAULT_255_1_234
10
7.3638351
20
27.4857471
40
0.2997359
50
323.8609373
51
341.61416
0
ARC
8
DEFAULT_255_1_234
10
7.3336595
20
27.5090484
40
0.3378487
50
296.7018614
51
323.6876402
0
ARC
8
DEFAULT_255_1_234
10
7.2895491
20
27.5879235
40
0.4281516
50
290.8086567
51
297.2323311
0
ARC
8
DEFAULT_255_1_234
10
7.261902
20
27.6402351
40
0.3593766
50
269.589728
51
281.8058135
0
ARC
8
DEFAULT_255_1_234
10
7.2869919
20
27.5254743
40
0.2419125
50
281.5501019
51
303.9357432
0
ARC
8
DEFAULT_255_1_234
10
7.3007107
20
27.5016936
40
0.2145323
50
304.4415616
51
311.2106213
0
ARC
8
DEFAULT_255_1_234
10
7.3139212
20
27.4877632
40
0.1953505
50
310.9875673
51
356.2715578
0
ARC
8
DEFAULT_255_1_234
10
7.2382861
20
27.4990422
40
0.2716331
50
354.9348262
51
0.0609027
0
ARC
8
DEFAULT_255_1_234
10
7.2195735
20
27.5017435
40
0.2903554
50
359.5239371
51
12.8808918
0
ARC
8
DEFAULT_255_1_234
10
7.3173291
20
27.5256728
40
0.1897315
50
12.4173452
51
43.1022135
0
ARC
8
DEFAULT_255_1_234
10
7.3234895
20
27.5293724
40
0.1827118
50
43.5751728
51
48.203944
0
ARC
8
DEFAULT_255_1_234
10
7.3065387
20
27.5072302
40
0.2105272
50
48.7809703
51
72.6969569
0
ARC
8
DEFAULT_255_1_234
10
7.2711012
20
27.399682
40
0.3237537
50
72.3702241
51
84.8791103
0
ARC
8
DEFAULT_255_1_234
10
7.2563488
20
27.2654769
40
0.4587478
50
84.5400526
51
89.7281406
0
LINE
8
DEFAULT_255_1_234
10
19.8455482
20
19.906001
11
19.8455482
21
19.4771062
0
LINE
8
DEFAULT_255_1_234
10
18.9443872
20
19.8521884
11
18.9443872
21
19.9541915
0
LINE
8
DEFAULT_255_1_234
10
19.8455482
20
20.1501659
11
19.6913389
21
20.1501659
0
LINE
8
DEFAULT_255_1_234
10
19.0993998
20
19.9582073
11
19.0993998
21
19.8626296
0
LINE
8
DEFAULT_255_1_234
10
19.692142
20
19.5180681
11
19.692142
21
19.7807059
0
LINE
8
DEFAULT_255_1_234
10
19.692142
20
19.7807059
11
19.4214725
21
19.7807059
0
LINE
8
DEFAULT_255_1_234
10
19.4214725
20
19.7807059
11
19.4214725
21
19.906001
0
LINE
8
DEFAULT_255_1_234
10
19.4214725
20
19.906001
11
19.8455482
21
19.906001
0
ARC
8
DEFAULT_255_1_234
10
19.5623989
20
19.6764396
40
0.3462765
50
295.8437914
51
324.8549609
0
ARC
8
DEFAULT_255_1_234
10
19.5207956
20
19.7517567
40
0.4322211
50
291.5695085
51
296.4549398
0
ARC
8
DEFAULT_255_1_234
10
19.4697207
20
19.8882275
40
0.5779178
50
278.6622409
51
291.3045483
0
ARC
8
DEFAULT_255_1_234
10
19.4357699
20
20.1030408
40
0.7953952
50
270.020006
51
278.7494541
0
ARC
8
DEFAULT_255_1_234
10
19.4319623
20
20.2347036
40
0.927067
50
269.9969998
51
270.2524872
0
ARC
8
DEFAULT_255_1_234
10
19.4281336
20
19.8263589
40
0.5187361
50
253.5786322
51
270.4175299
0
ARC
8
DEFAULT_255_1_234
10
19.4107992
20
19.7592236
40
0.4494451
50
238.8203306
51
253.2788235
0
ARC
8
DEFAULT_255_1_234
10
19.4088365
20
19.7541231
40
0.4440665
50
206.7883783
51
238.6962764
0
ARC
8
DEFAULT_255_1_234
10
19.4862275
20
19.8005405
40
0.5341121
50
206.1129412
51
207.4916643
0
ARC
8
DEFAULT_255_1_234
10
19.545919
20
19.8259488
40
0.5989041
50
188.6921119
51
205.7821245
0
ARC
8
DEFAULT_255_1_234
10
19.7315552
20
19.857523
40
0.7871862
50
180.3882829
51
188.9219216
0
ARC
8
DEFAULT_255_1_234
10
19.8543366
20
19.9598464
40
0.909967
50
170.2024264
51
180.3560651
0
ARC
8
DEFAULT_255_1_234
10
19.5379884
20
20.0164237
40
0.5886083
50
154.2857445
51
170.3893044
0
ARC
8
DEFAULT_255_1_234
10
19.4098087
20
20.075095
40
0.4476743
50
139.8401567
51
153.9332699
0
ARC
8
DEFAULT_255_1_234
10
19.3738823
20
20.1038577
40
0.4016697
50
98.4190291
51
139.6707122
0
ARC
8
DEFAULT_255_1_234
10
19.4118341
20
19.9193328
40
0.5898566
50
89.7659205
51
99.4415478
0
ARC
8
DEFAULT_255_1_234
10
19.418359
20
19.9258844
40
0.5833147
50
78.0551672
51
90.4042112
0
ARC
8
DEFAULT_255_1_234
10
19.45881
20
20.1077644
40
0.3970055
50
54.6380464
51
78.3339173
0
ARC
8
DEFAULT_255_1_234
10
19.4778156
20
20.1397795
40
0.3599102
50
50.031736
51
54.1558201
0
ARC
8
DEFAULT_255_1_234
10
19.4670944
20
20.1301766
40
0.3741624
50
18.1092409
51
49.7180913
0
ARC
8
DEFAULT_255_1_234
10
19.3214144
20
20.0768089
40
0.5292424
50
7.9672797
51
18.6984571
0
ARC
8
DEFAULT_255_1_234
10
19.3364622
20
20.0891504
40
0.3600838
50
9.7557294
51
27.3215714
0
ARC
8
DEFAULT_255_1_234
10
19.4492094
20
20.1454912
40
0.2340608
50
27.7361077
51
84.5257964
0
ARC
8
DEFAULT_255_1_234
10
19.4164481
20
19.981164
40
0.4011215
50
82.106034
51
90.2001166
0
ARC
8
DEFAULT_255_1_234
10
19.4114698
20
20.0319215
40
0.3503799
50
89.4150119
51
105.5823402
0
ARC
8
DEFAULT_255_1_234
10
19.3857696
20
20.1254867
40
0.2533503
50
105.6678618
51
144.2648758
0
ARC
8
DEFAULT_255_1_234
10
19.4750951
20
20.0619289
40
0.3629787
50
144.3561283
51
162.8564086
0
ARC
8
DEFAULT_255_1_234
10
19.683486
20
19.9950017
40
0.5818441
50
162.6076014
51
173.6780284
0
ARC
8
DEFAULT_255_1_234
10
19.9896004
20
19.957789
40
0.8902007
50
173.4670142
51
179.9730753
0
ARC
8
DEFAULT_255_1_234
10
19.7987675
20
19.858426
40
0.6993804
50
179.6556203
51
190.0080463
0
ARC
8
DEFAULT_255_1_234
10
19.5671504
20
19.8159375
40
0.4639066
50
189.8116607
51
206.6796816
0
ARC
8
DEFAULT_255_1_234
10
19.4826656
20
19.7765503
40
0.3707421
50
207.1031645
51
217.7074368
0
ARC
8
DEFAULT_255_1_234
10
19.4192345
20
19.7213559
40
0.2868417
50
216.7345547
51
265.6812148
0
ARC
8
DEFAULT_255_1_234
10
19.4323136
20
19.8117855
40
0.3780509
50
264.7366618
51
270.0611241
0
ARC
8
DEFAULT_255_1_234
10
19.4346399
20
20.0958111
40
0.662079
50
269.8335834
51
276.0539546
0
ARC
8
DEFAULT_255_1_234
10
19.4553404
20
19.905656
40
0.4708016
50
275.9894168
51
284.4615085
0
ARC
8
DEFAULT_255_1_234
10
19.4751411
20
19.8223663
40
0.3852094
50
284.7034461
51
286.4953897
0
ARC
8
DEFAULT_255_1_234
10
19.5158424
20
19.6912965
40
0.2479842
50
286.0770838
51
304.2625829
0
ARC
8
DEFAULT_255_1_234
10
19.5291838
20
19.6694594
40
0.2224291
50
304.5891602
51
317.1073298
0
LINE
8
DEFAULT_255_1_234
10
20.1555733
20
20.4931211
11
20.459173
21
19.906001
0
LINE
8
DEFAULT_255_1_234
10
20.459173
20
19.906001
11
20.7643791
21
20.4931211
0
LINE
8
DEFAULT_255_1_234
10
20.7643791
20
20.4931211
11
20.939471
21
20.4931211
0
LINE
8
DEFAULT_255_1_234
10
20.939471
20
20.4931211
11
20.5362777
21
19.7598234
0
LINE
8
DEFAULT_255_1_234
10
20.5362777
20
19.7598234
11
20.5362777
21
19.3237
0
LINE
8
DEFAULT_255_1_234
10
20.5362777
20
19.3237
11
20.3820684
21
19.3237
0
LINE
8
DEFAULT_255_1_234
10
20.3820684
20
19.3237
11
20.3820684
21
19.7598234
0
LINE
8
DEFAULT_255_1_234
10
20.3820684
20
19.7598234
11
19.9788751
21
20.4931211
0
LINE
8
DEFAULT_255_1_234
10
19.9788751
20
20.4931211
11
20.1555733
21
20.4931211
0
LINE
8
DEFAULT_255_1_234
10
19.4684392
20
14.0341
11
19.0628364
21
14.0341
0
LINE
8
DEFAULT_255_1_234
10
19.0628364
20
14.0341
11
19.0628364
21
15.2035211
0
LINE
8
DEFAULT_255_1_234
10
19.0628364
20
15.2035211
11
19.4451471
21
15.2035211
0
LINE
8
DEFAULT_255_1_234
10
19.4740614
20
14.5810614
11
19.2170458
21
14.5810614
0
LINE
8
DEFAULT_255_1_234
10
19.2170458
20
14.5810614
11
19.2170458
21
14.1601983
0
LINE
8
DEFAULT_255_1_234
10
19.2170458
20
14.1601983
11
19.4716519
21
14.1601983
0
LINE
8
DEFAULT_255_1_234
10
19.2170458
20
15.0766196
11
19.2170458
21
14.7047501
0
LINE
8
DEFAULT_255_1_234
10
19.2170458
20
14.7047501
11
19.4499662
21
14.7047501
0
LINE
8
DEFAULT_255_1_234
10
19.4451471
20
15.0766196
11
19.2170458
21
15.0766196
0
ARC
8
DEFAULT_255_1_234
10
19.448918
20
14.4667901
40
0.7367406
50
82.1257326
51
90.2932599
0
ARC
8
DEFAULT_255_1_234
10
19.4878135
20
14.7386013
40
0.4621653
50
69.9044149
51
82.2857423
0
ARC
8
DEFAULT_255_1_234
10
19.5448813
20
14.8928637
40
0.2976871
50
51.1838526
51
70.0181538
0
ARC
8
DEFAULT_255_1_234
10
19.5703779
20
14.929924
40
0.2528517
50
12.1017251
51
50.4214761
0
ARC
8
DEFAULT_255_1_234
10
19.4319653
20
14.8951676
40
0.3955061
50
359.5251267
51
12.8211707
0
ARC
8
DEFAULT_255_1_234
10
19.5899579
20
14.8882344
40
0.2375281
50
323.4908128
51
0.8817314
0
ARC
8
DEFAULT_255_1_234
10
19.5481266
20
14.920555
40
0.2903817
50
298.6825083
51
323.2756573
0
ARC
8
DEFAULT_255_1_234
10
19.5119629
20
14.9806649
40
0.3604842
50
293.1999386
51
299.1396394
0
ARC
8
DEFAULT_255_1_234
10
19.5792602
20
14.3721126
40
0.2871098
50
54.0011765
51
74.9167975
0
ARC
8
DEFAULT_255_1_234
10
19.5908961
20
14.3918332
40
0.2643248
50
36.3580696
51
53.5291921
0
ARC
8
DEFAULT_255_1_234
10
19.5782203
20
14.3827998
40
0.2798884
50
4.8189881
51
36.3089977
0
ARC
8
DEFAULT_255_1_234
10
19.5003038
20
14.371827
40
0.358478
50
359.9370252
51
5.5204067
0
ARC
8
DEFAULT_255_1_234
10
19.467856
20
14.3677667
40
0.3909429
50
344.7478609
51
0.5373281
0
ARC
8
DEFAULT_255_1_234
10
19.5669531
20
14.3410544
40
0.2883093
50
311.1786488
51
344.6886812
0
ARC
8
DEFAULT_255_1_234
10
19.5377578
20
14.3773987
40
0.3348923
50
286.0418249
51
310.8441291
0
ARC
8
DEFAULT_255_1_234
10
19.487041
20
14.5420807
40
0.5071869
50
274.1042341
51
286.4071509
0
ARC
8
DEFAULT_255_1_234
10
19.4693666
20
14.7304229
40
0.6963234
50
269.9236873
51
274.445647
0
ARC
8
DEFAULT_255_1_234
10
19.4739667
20
14.4964537
40
0.3362634
50
269.6055768
51
281.3740047
0
ARC
8
DEFAULT_255_1_234
10
19.4970305
20
14.3871353
40
0.224546
50
281.1055983
51
302.5132223
0
ARC
8
DEFAULT_255_1_234
10
19.5117204
20
14.3607823
40
0.1944357
50
303.0368945
51
311.8811219
0
ARC
8
DEFAULT_255_1_234
10
19.5188611
20
14.352289
40
0.1833454
50
311.9916004
51
351.7143462
0
ARC
8
DEFAULT_255_1_234
10
19.4371841
20
14.368793
40
0.2665871
50
350.7339597
51
0.2221581
0
ARC
8
DEFAULT_255_1_234
10
19.4264287
20
14.3744467
40
0.2773789
50
359.0456241
51
17.2296242
0
ARC
8
DEFAULT_255_1_234
10
19.5303404
20
14.4053163
40
0.1689915
50
17.6685481
51
78.9940892
0
ARC
8
DEFAULT_255_1_234
10
19.4786568
20
14.2198224
40
0.3612658
50
76.5635957
51
90.6980921
0
LINE
8
DEFAULT_255_1_234
10
19.4742552
20
14.5810613
11
19.4740614
21
14.5810614
0
ARC
8
DEFAULT_255_1_234
10
19.4522228
20
15.0333036
40
0.3285612
50
269.6064736
51
281.4533503
0
ARC
8
DEFAULT_255_1_234
10
19.4745048
20
14.9281688
40
0.2210975
50
281.2041486
51
302.5148063
0
ARC
8
DEFAULT_255_1_234
10
19.4881898
20
14.9035241
40
0.1929674
50
303.021671
51
309.8369575
0
ARC
8
DEFAULT_255_1_234
10
19.5065359
20
14.8829488
40
0.1654181
50
309.5228395
51
356.9509836
0
ARC
8
DEFAULT_255_1_234
10
19.4401942
20
14.8924932
40
0.2322512
50
355.4701227
51
0.0492546
0
ARC
8
DEFAULT_255_1_234
10
19.4123033
20
14.8947094
40
0.2601498
50
359.5558597
51
11.2096359
0
ARC
8
DEFAULT_255_1_234
10
19.5080323
20
14.914523
40
0.1623975
50
10.9182341
51
31.3230275
0
ARC
8
DEFAULT_255_1_234
10
19.5366056
20
14.9304214
40
0.1297302
50
31.8852677
51
52.1412565
0
ARC
8
DEFAULT_255_1_234
10
19.5091789
20
14.891675
40
0.1771663
50
52.8285564
51
71.9850297
0
ARC
8
DEFAULT_255_1_234
10
19.4715965
20
14.7810664
40
0.2939794
50
71.6863486
51
82.8455995
0
ARC
8
DEFAULT_255_1_234
10
19.4476501
20
14.6001149
40
0.476506
50
82.6984714
51
90.1729175
0
ARC
8
DEFAULT_255_1_234
10
19.4454136
20
14.7224623
40
0.3541573
50
89.8708275
51
90.0431131
0
LINE
8
DEFAULT_255_1_234
10
20.798495
20
14.0341
11
20.3840573
21
14.5778487
0
LINE
8
DEFAULT_255_1_234
10
20.3840573
20
14.5778487
11
20.2410924
21
14.4292615
0
LINE
8
DEFAULT_255_1_234
10
20.2410924
20
14.4292615
11
20.2410924
21
14.0341
0
LINE
8
DEFAULT_255_1_234
10
20.2410924
20
14.0341
11
20.086883
21
14.0341
0
LINE
8
DEFAULT_255_1_234
10
20.086883
20
14.0341
11
20.086883
21
15.2035211
0
LINE
8
DEFAULT_255_1_234
10
20.086883
20
15.2035211
11
20.2410924
21
15.2035211
0
LINE
8
DEFAULT_255_1_234
10
20.2410924
20
15.2035211
11
20.2410924
21
14.6252359
0
LINE
8
DEFAULT_255_1_234
10
20.2410924
20
14.6252359
11
20.7607458
21
15.2035211
0
LINE
8
DEFAULT_255_1_234
10
20.7607458
20
15.2035211
11
20.9470822
21
15.2035211
0
LINE
8
DEFAULT_255_1_234
10
20.9470822
20
15.2035211
11
20.4868636
21
14.6870803
0
LINE
8
DEFAULT_255_1_234
10
20.4868636
20
14.6870803
11
20.983225
21
14.0341
0
LINE
8
DEFAULT_255_1_234
10
20.983225
20
14.0341
11
20.798495
21
14.0341
0
LINE
8
DEFAULT_255_1_234
10
18.570203
20
9.9108211
11
18.754933
21
9.1100568
0
LINE
8
DEFAULT_255_1_234
10
18.754933
20
9.1100568
11
18.7774218
21
8.9558474
0
LINE
8
DEFAULT_255_1_234
10
18.7774218
20
8.9558474
11
18.810352
21
9.0947965
0
LINE
8
DEFAULT_255_1_234
10
18.810352
20
9.0947965
11
19.041666
21
9.9108211
0
LINE
8
DEFAULT_255_1_234
10
19.041666
20
9.9108211
11
19.1717802
21
9.9108211
0
LINE
8
DEFAULT_255_1_234
10
19.1717802
20
9.9108211
11
19.397472
21
9.0947965
0
LINE
8
DEFAULT_255_1_234
10
19.397472
20
9.0947965
11
19.429599
21
8.9534379
0
LINE
8
DEFAULT_255_1_234
10
19.429599
20
8.9534379
11
19.4544974
21
9.11086
0
LINE
8
DEFAULT_255_1_234
10
19.4544974
20
9.11086
11
19.6360146
21
9.9108211
0
LINE
8
DEFAULT_255_1_234
10
19.6360146
20
9.9108211
11
19.7910272
21
9.9108211
0
LINE
8
DEFAULT_255_1_234
10
19.7910272
20
9.9108211
11
19.5075068
21
8.7414
0
LINE
8
DEFAULT_255_1_234
10
19.5075068
20
8.7414
11
19.3669514
21
8.7414
0
LINE
8
DEFAULT_255_1_234
10
19.3669514
20
8.7414
11
19.1259993
21
9.5935674
0
LINE
8
DEFAULT_255_1_234
10
19.1259993
20
9.5935674
11
19.1075263
21
9.6827197
0
LINE
8
DEFAULT_255_1_234
10
19.1075263
20
9.6827197
11
19.0890533
21
9.5935674
0
LINE
8
DEFAULT_255_1_234
10
19.0890533
20
9.5935674
11
18.8392662
21
8.7414
0
LINE
8
DEFAULT_255_1_234
10
18.8392662
20
8.7414
11
18.6987108
21
8.7414
0
LINE
8
DEFAULT_255_1_234
10
18.6987108
20
8.7414
11
18.4159936
21
9.9108211
0
LINE
8
DEFAULT_255_1_234
10
18.4159936
20
9.9108211
11
18.570203
21
9.9108211
0
LINE
8
DEFAULT_255_1_234
10
20.8608547
20
9.9108211
11
20.8608547
21
8.7414
0
LINE
8
DEFAULT_255_1_234
10
20.8608547
20
8.7414
11
20.7058422
21
8.7414
0
LINE
8
DEFAULT_255_1_234
10
20.7058422
20
8.7414
11
20.7058422
21
9.281936
0
LINE
8
DEFAULT_255_1_234
10
20.7058422
20
9.281936
11
20.1163126
21
9.281936
0
LINE
8
DEFAULT_255_1_234
10
20.1163126
20
9.281936
11
20.1163126
21
8.7414
0
LINE
8
DEFAULT_255_1_234
10
20.1163126
20
8.7414
11
19.9621032
21
8.7414
0
LINE
8
DEFAULT_255_1_234
10
19.9621032
20
8.7414
11
19.9621032
21
9.9108211
0
LINE
8
DEFAULT_255_1_234
10
19.9621032
20
9.9108211
11
20.1163126
21
9.9108211
0
LINE
8
DEFAULT_255_1_234
10
20.1163126
20
9.9108211
11
20.1163126
21
9.4080343
0
LINE
8
DEFAULT_255_1_234
10
20.1163126
20
9.4080343
11
20.7058422
21
9.4080343
0
LINE
8
DEFAULT_255_1_234
10
20.7058422
20
9.4080343
11
20.7058422
21
9.9108211
0
LINE
8
DEFAULT_255_1_234
10
20.7058422
20
9.9108211
11
20.8608547
21
9.9108211
0
LINE
8
DEFAULT_255_1_234
10
6.4195392
20
-1.8409
11
6.0139364
21
-1.8409
0
LINE
8
DEFAULT_255_1_234
10
6.0139364
20
-1.8409
11
6.0139364
21
-0.6714789
0
LINE
8
DEFAULT_255_1_234
10
6.0139364
20
-0.6714789
11
6.3962471
21
-0.6714789
0
LINE
8
DEFAULT_255_1_234
10
6.4251614
20
-1.2939386
11
6.1681458
21
-1.2939386
0
LINE
8
DEFAULT_255_1_234
10
6.1681458
20
-1.2939386
11
6.1681458
21
-1.7148017
0
LINE
8
DEFAULT_255_1_234
10
6.1681458
20
-1.7148017
11
6.4227519
21
-1.7148017
0
LINE
8
DEFAULT_255_1_234
10
6.1681458
20
-0.7983804
11
6.1681458
21
-1.1702499
0
LINE
8
DEFAULT_255_1_234
10
6.1681458
20
-1.1702499
11
6.4010662
21
-1.1702499
0
LINE
8
DEFAULT_255_1_234
10
6.3962471
20
-0.7983804
11
6.1681458
21
-0.7983804
0
ARC
8
DEFAULT_255_1_234
10
6.400018
20
-1.4082099
40
0.7367406
50
82.1257326
51
90.2932599
0
ARC
8
DEFAULT_255_1_234
10
6.4389135
20
-1.1363987
40
0.4621653
50
69.9044149
51
82.2857423
0
ARC
8
DEFAULT_255_1_234
10
6.4959813
20
-0.9821363
40
0.2976871
50
51.1838526
51
70.0181538
0
ARC
8
DEFAULT_255_1_234
10
6.5214779
20
-0.945076
40
0.2528517
50
12.1017251
51
50.4214761
0
ARC
8
DEFAULT_255_1_234
10
6.3830653
20
-0.9798324
40
0.3955061
50
359.5251267
51
12.8211707
0
ARC
8
DEFAULT_255_1_234
10
6.5410579
20
-0.9867656
40
0.2375281
50
323.4908128
51
0.8817314
0
ARC
8
DEFAULT_255_1_234
10
6.4992266
20
-0.954445
40
0.2903817
50
298.6825083
51
323.2756573
0
ARC
8
DEFAULT_255_1_234
10
6.4630629
20
-0.8943351
40
0.3604842
50
293.1999386
51
299.1396394
0
ARC
8
DEFAULT_255_1_234
10
6.5303602
20
-1.5028874
40
0.2871098
50
54.0011765
51
74.9167975
0
ARC
8
DEFAULT_255_1_234
10
6.5419961
20
-1.4831668
40
0.2643248
50
36.3580696
51
53.5291921
0
ARC
8
DEFAULT_255_1_234
10
6.5293203
20
-1.4922002
40
0.2798884
50
4.8189881
51
36.3089977
0
ARC
8
DEFAULT_255_1_234
10
6.4514038
20
-1.503173
40
0.358478
50
359.9370252
51
5.5204067
0
ARC
8
DEFAULT_255_1_234
10
6.418956
20
-1.5072333
40
0.3909429
50
344.7478609
51
0.5373281
0
ARC
8
DEFAULT_255_1_234
10
6.5180531
20
-1.5339456
40
0.2883093
50
311.1786488
51
344.6886812
0
ARC
8
DEFAULT_255_1_234
10
6.4888578
20
-1.4976013
40
0.3348923
50
286.0418249
51
310.8441291
0
ARC
8
DEFAULT_255_1_234
10
6.438141
20
-1.3329193
40
0.5071869
50
274.1042341
51
286.4071509
0
ARC
8
DEFAULT_255_1_234
10
6.4204666
20
-1.1445771
40
0.6963234
50
269.9236873
51
274.445647
0
ARC
8
DEFAULT_255_1_234
10
6.4250667
20
-1.3785463
40
0.3362634
50
269.6055768
51
281.3740047
0
ARC
8
DEFAULT_255_1_234
10
6.4481305
20
-1.4878647
40
0.224546
50
281.1055983
51
302.5132223
0
ARC
8
DEFAULT_255_1_234
10
6.4628204
20
-1.5142177
40
0.1944357
50
303.0368945
51
311.8811219
0
ARC
8
DEFAULT_255_1_234
10
6.4699611
20
-1.522711
40
0.1833454
50
311.9916004
51
351.7143462
0
ARC
8
DEFAULT_255_1_234
10
6.3882841
20
-1.506207
40
0.2665871
50
350.7339597
51
0.2221581
0
ARC
8
DEFAULT_255_1_234
10
6.3775287
20
-1.5005533
40
0.2773789
50
359.0456241
51
17.2296242
0
ARC
8
DEFAULT_255_1_234
10
6.4814404
20
-1.4696837
40
0.1689915
50
17.6685481
51
78.9940892
0
ARC
8
DEFAULT_255_1_234
10
6.4297568
20
-1.6551776
40
0.3612658
50
76.5635957
51
90.6980921
0
LINE
8
DEFAULT_255_1_234
10
6.4253552
20
-1.2939387
11
6.4251614
21
-1.2939386
0
ARC
8
DEFAULT_255_1_234
10
6.4033228
20
-0.8416964
40
0.3285612
50
269.6064736
51
281.4533503
0
ARC
8
DEFAULT_255_1_234
10
6.4256048
20
-0.9468312
40
0.2210975
50
281.2041486
51
302.5148063
0
ARC
8
DEFAULT_255_1_234
10
6.4392898
20
-0.9714759
40
0.1929674
50
303.021671
51
309.8369575
0
ARC
8
DEFAULT_255_1_234
10
6.4576359
20
-0.9920512
40
0.1654181
50
309.5228395
51
356.9509836
0
ARC
8
DEFAULT_255_1_234
10
6.3912942
20
-0.9825068
40
0.2322512
50
355.4701227
51
0.0492546
0
ARC
8
DEFAULT_255_1_234
10
6.3634033
20
-0.9802906
40
0.2601498
50
359.5558597
51
11.2096359
0
ARC
8
DEFAULT_255_1_234
10
6.4591323
20
-0.960477
40
0.1623975
50
10.9182341
51
31.3230275
0
ARC
8
DEFAULT_255_1_234
10
6.4877056
20
-0.9445786
40
0.1297302
50
31.8852677
51
52.1412565
0
ARC
8
DEFAULT_255_1_234
10
6.4602789
20
-0.983325
40
0.1771663
50
52.8285564
51
71.9850297
0
ARC
8
DEFAULT_255_1_234
10
6.4226965
20
-1.0939336
40
0.2939794
50
71.6863486
51
82.8455995
0
ARC
8
DEFAULT_255_1_234
10
6.3987501
20
-1.2748851
40
0.476506
50
82.6984714
51
90.1729175
0
ARC
8
DEFAULT_255_1_234
10
6.3965136
20
-1.1525377
40
0.3541573
50
89.8708275
51
90.0431131
0
LINE
8
DEFAULT_255_1_234
10
7.1929956
20
-0.6714789
11
7.1929956
21
-1.7148017
0
LINE
8
DEFAULT_255_1_234
10
7.1929956
20
-1.7148017
11
7.7471855
21
-1.7148017
0
LINE
8
DEFAULT_255_1_234
10
7.7471855
20
-1.7148017
11
7.7471855
21
-1.8409
0
LINE
8
DEFAULT_255_1_234
10
7.7471855
20
-1.8409
11
7.037983
21
-1.8409
0
LINE
8
DEFAULT_255_1_234
10
7.037983
20
-1.8409
11
7.037983
21
-0.6714789
0
LINE
8
DEFAULT_255_1_234
10
7.037983
20
-0.6714789
11
7.1929956
21
-0.6714789
0
ENDSEC
0
EOF