0
SECTION
2
HEADER
9
$MEASUREMENT
70
1
0
ENDSEC
0
SECTION
2
TABLES
0
TABLE
2
LTYPE
0
LTYPE
72
65
70
64
2
CONTINUOUS
3
______
73
0
40
0
0
ENDTAB
0
TABLE
2
LAYER
0
LAYER
2
DEFAULT_255_2_778
70
0
62
255
6
CONTINUOUS
0
LAYER
2
DEFAULT_255_2_778_3
70
0
62
255
6
CONTINUOUS
0
LAYER
2
DEFAULT_255_1_234
70
0
62
255
6
CONTINUOUS
0
ENDTAB
0
ENDSEC
0
SECTION
2
ENTITIES
0
LINE
8
DEFAULT_255_2_778
10
2.7781667
20
0.6615
11
8.0698667
21
0.6615
0
LINE
8
DEFAULT_255_2_778
10
16.0073667
20
0.6615
11
10.7156667
21
0.6615
0
LINE
8
DEFAULT_255_2_778
10
8.0697834
20
2.7781666
11
10.7155834
21
2.7781666
0
LINE
8
DEFAULT_255_2_778
10
10.7155834
20
2.7781666
11
10.7155834
21
-1.4551334
0
LINE
8
DEFAULT_255_2_778
10
10.7155834
20
-1.4551334
11
8.0697834
21
-1.4551334
0
LINE
8
DEFAULT_255_2_778
10
8.0697834
20
-1.4551334
11
8.0697834
21
2.7781666
0
LINE
8
DEFAULT_255_2_778
10
10.7156251
20
-2.5135333
11
11.3770251
21
-3.5718333
0
LINE
8
DEFAULT_255_2_778
10
11.3770251
20
-3.5718333
11
7.4083251
21
-3.5718333
0
LINE
8
DEFAULT_255_2_778
10
7.4083251
20
-3.5718333
11
8.0698251
21
-2.5135333
0
LINE
8
DEFAULT_255_2_778
10
8.0698251
20
-2.5135333
11
10.7156251
21
-2.5135333
0
LINE
8
DEFAULT_255_2_778_3
10
9.3927
20
-1.4551875
11
9.3927
21
-2.6457875
0
LINE
8
DEFAULT_255_1_234
10
4.9616293
20
1.5974
11
4.8499881
21
1.9026061
0
LINE
8
DEFAULT_255_1_234
10
4.8499881
20
1.9026061
11
4.3600521
21
1.9026061
0
LINE
8
DEFAULT_255_1_234
10
4.3600521
20
1.9026061
11
4.2500173
21
1.5974
0
LINE
8
DEFAULT_255_1_234
10
4.2500173
20
1.5974
11
4.0909889
21
1.5974
0
LINE
8
DEFAULT_255_1_234
10
4.0909889
20
1.5974
11
4.5375535
21
2.7668211
0
LINE
8
DEFAULT_255_1_234
10
4.5375535
20
2.7668211
11
4.6724867
21
2.7668211
0
LINE
8
DEFAULT_255_1_234
10
4.6724867
20
2.7668211
11
5.1198545
21
1.5974
0
LINE
8
DEFAULT_255_1_234
10
5.1198545
20
1.5974
11
4.9616293
21
1.5974
0
LINE
8
DEFAULT_255_1_234
10
4.6050201
20
2.5764689
11
4.4066362
21
2.0295075
0
LINE
8
DEFAULT_255_1_234
10
4.4066362
20
2.0295075
11
4.8042072
21
2.0295075
0
LINE
8
DEFAULT_255_1_234
10
4.8042072
20
2.0295075
11
4.6050201
21
2.5764689
0
LINE
8
DEFAULT_255_1_234
10
5.727054
20
2.7724433
11
5.727054
21
1.5974
0
LINE
8
DEFAULT_255_1_234
10
5.727054
20
1.5974
11
5.5776636
21
1.5974
0
LINE
8
DEFAULT_255_1_234
10
5.5776636
20
1.5974
11
5.5776636
21
2.5877133
0
LINE
8
DEFAULT_255_1_234
10
5.5776636
20
2.5877133
11
5.2780798
21
2.4776785
0
LINE
8
DEFAULT_255_1_234
10
5.2780798
20
2.4776785
11
5.2780798
21
2.6126117
0
LINE
8
DEFAULT_255_1_234
10
5.2780798
20
2.6126117
11
5.7037619
21
2.7724433
0
LINE
8
DEFAULT_255_1_234
10
5.7037619
20
2.7724433
11
5.727054
21
2.7724433
0
LINE
8
DEFAULT_255_1_234
10
12.5464293
20
1.5974
11
12.4347881
21
1.9026061
0
LINE
8
DEFAULT_255_1_234
10
12.4347881
20
1.9026061
11
11.9448521
21
1.9026061
0
LINE
8
DEFAULT_255_1_234
10
11.9448521
20
1.9026061
11
11.8348173
21
1.5974
0
LINE
8
DEFAULT_255_1_234
10
11.8348173
20
1.5974
11
11.6757889
21
1.5974
0
LINE
8
DEFAULT_255_1_234
10
11.6757889
20
1.5974
11
12.1223535
21
2.7668211
0
LINE
8
DEFAULT_255_1_234
10
12.1223535
20
2.7668211
11
12.2572867
21
2.7668211
0
LINE
8
DEFAULT_255_1_234
10
12.2572867
20
2.7668211
11
12.7046545
21
1.5974
0
LINE
8
DEFAULT_255_1_234
10
12.7046545
20
1.5974
11
12.5464293
21
1.5974
0
LINE
8
DEFAULT_255_1_234
10
12.1898201
20
2.5764689
11
11.9914362
21
2.0295075
0
LINE
8
DEFAULT_255_1_234
10
11.9914362
20
2.0295075
11
12.3890072
21
2.0295075
0
LINE
8
DEFAULT_255_1_234
10
12.3890072
20
2.0295075
11
12.1898201
21
2.5764689
0
LINE
8
DEFAULT_255_1_234
10
13.5897521
20
1.7186792
11
13.5897521
21
1.5974
0
LINE
8
DEFAULT_255_1_234
10
13.5897521
20
1.5974
11
12.8235243
21
1.5974
0
LINE
8
DEFAULT_255_1_234
10
12.8235243
20
1.5974
11
12.8235243
21
1.7042221
0
LINE
8
DEFAULT_255_1_234
10
12.8235243
20
1.7042221
11
13.2283239
21
2.1539995
0
LINE
8
DEFAULT_255_1_234
10
12.9496226
20
2.4222595
11
12.8010354
21
2.4222595
0
LINE
8
DEFAULT_255_1_234
10
13.3158698
20
2.0584218
11
13.002632
21
1.7186792
0
LINE
8
DEFAULT_255_1_234
10
13.002632
20
1.7186792
11
13.5897521
21
1.7186792
0
ARC
8
DEFAULT_255_1_234
10
11.8793072
20
3.3469527
40
1.8008286
50
318.5132453
51
320.7828378
0
ARC
8
DEFAULT_255_1_234
10
12.4080047
20
2.9166426
40
1.1191493
50
320.7372736
51
323.9737074
0
ARC
8
DEFAULT_255_1_234
10
12.7999903
20
2.6326361
40
0.6350923
50
323.8961724
51
328.6421089
0
ARC
8
DEFAULT_255_1_234
10
13.0046498
20
2.5064031
40
0.3946393
50
328.8299013
51
331.789948
0
ARC
8
DEFAULT_255_1_234
10
13.1043677
20
2.4549509
40
0.2824501
50
331.4255242
51
352.9364833
0
ARC
8
DEFAULT_255_1_234
10
13.1180177
20
2.4518976
40
0.2685315
50
353.2248685
51
0.0169286
0
ARC
8
DEFAULT_255_1_234
10
13.1390054
20
2.454195
40
0.2475536
50
359.4866256
51
15.9339782
0
ARC
8
DEFAULT_255_1_234
10
13.189704
20
2.4678286
40
0.1950618
50
16.1714718
51
43.5284424
0
ARC
8
DEFAULT_255_1_234
10
13.1974348
20
2.4755573
40
0.184134
50
43.4415429
51
83.1661404
0
ARC
8
DEFAULT_255_1_234
10
13.1840266
20
2.4018771
40
0.258926
50
82.160215
51
90.1505798
0
ARC
8
DEFAULT_255_1_234
10
13.1808694
20
2.3481865
40
0.3126255
50
89.5460705
51
102.5418777
0
ARC
8
DEFAULT_255_1_234
10
13.156578
20
2.4512665
40
0.2067346
50
102.1739365
51
129.2061916
0
ARC
8
DEFAULT_255_1_234
10
13.1486852
20
2.4637094
40
0.1921118
50
129.7279328
51
135.7542026
0
ARC
8
DEFAULT_255_1_234
10
13.1608379
20
2.4540045
40
0.2075944
50
136.175737
51
166.3674722
0
ARC
8
DEFAULT_255_1_234
10
13.2615298
20
2.4270182
40
0.3118201
50
165.9092917
51
178.8683903
0
ARC
8
DEFAULT_255_1_234
10
13.348016
20
2.4223179
40
0.3983935
50
178.438168
51
180.0083905
0
ARC
8
DEFAULT_255_1_234
10
13.2078762
20
2.4262231
40
0.4068601
50
163.2878735
51
180.5581814
0
ARC
8
DEFAULT_255_1_234
10
13.1277023
20
2.448284
40
0.3237344
50
133.454115
51
162.9470031
0
ARC
8
DEFAULT_255_1_234
10
13.1455565
20
2.4293
40
0.349795
50
100.7869394
51
133.4384016
0
ARC
8
DEFAULT_255_1_234
10
13.1803336
20
2.2744319
40
0.5084616
50
89.6605301
51
101.3704185
0
ARC
8
DEFAULT_255_1_234
10
13.1869675
20
2.2805496
40
0.502348
50
78.2171172
51
90.4130393
0
ARC
8
DEFAULT_255_1_234
10
13.2224753
20
2.4429637
40
0.3361092
50
55.9268222
51
78.4888551
0
ARC
8
DEFAULT_255_1_234
10
13.2421193
20
2.4768324
40
0.2970617
50
47.9292255
51
55.4054003
0
ARC
8
DEFAULT_255_1_234
10
13.2522754
20
2.4871502
40
0.2825983
50
4.3347696
51
48.0560701
0
ARC
8
DEFAULT_255_1_234
10
13.1427148
20
2.4701601
40
0.393225
50
359.925209
51
5.5967654
0
ARC
8
DEFAULT_255_1_234
10
13.1856039
20
2.4757816
40
0.3503892
50
337.8914096
51
358.9967724
0
ARC
8
DEFAULT_255_1_234
10
12.9142451
20
2.5804706
40
0.6412172
50
326.9135351
51
338.3505194
0
ARC
8
DEFAULT_255_1_234
10
12.5156755
20
2.8359284
40
1.1146189
50
319.6472867
51
327.095818
0
ARC
8
DEFAULT_255_1_234
10
12.1323758
20
3.1521
40
1.6114559
50
317.2586784
51
319.9046139
0
ENDSEC
0
EOF