0
SECTION
2
HEADER
9
$MEASUREMENT
70
1
0
ENDSEC
0
SECTION
2
TABLES
0
TABLE
2
LTYPE
0
LTYPE
72
65
70
64
2
CONTINUOUS
3
______
73
0
40
0
0
ENDTAB
0
TABLE
2
LAYER
0
LAYER
2
DEFAULT_255_2_778
70
0
62
255
6
CONTINUOUS
0
LAYER
2
DEFAULT_1_2_778
70
0
62
1
6
CONTINUOUS
0
ENDTAB
0
ENDSEC
0
SECTION
2
ENTITIES
0
LINE
8
DEFAULT_255_2_778
10
6.788273
20
3.4394665
11
9.235673
21
8.7311665
0
LINE
8
DEFAULT_255_2_778
10
9.235673
20
8.7311665
11
13.072173
21
8.7311665
0
LINE
8
DEFAULT_255_2_778
10
6.788273
20
3.4394665
11
13.072173
21
3.4394665
0
LINE
8
DEFAULT_255_2_778
10
6.788273
20
3.4230665
11
9.235673
21
-1.8521335
0
LINE
8
DEFAULT_255_2_778
10
9.235673
20
-1.8521335
11
13.072173
21
-1.8521335
0
LINE
8
DEFAULT_255_2_778
10
6.8052397
20
3.4231145
11
9.2362397
21
0.7939145
0
LINE
8
DEFAULT_255_2_778
10
9.2357397
20
0.7937145
11
13.0721397
21
0.7937145
0
LINE
8
DEFAULT_1_2_778
10
13.8659708
20
-1.8521
11
13.2044708
21
-1.8521
0
LINE
8
DEFAULT_1_2_778
10
13.2044708
20
-2.5135542
11
13.2044708
21
-1.1906542
0
LINE
8
DEFAULT_1_2_778
10
13.8659708
20
0.7937458
11
13.2044708
21
0.7937458
0
LINE
8
DEFAULT_1_2_778
10
13.2044
20
0.1322583
11
13.2044
21
1.4551583
0
LINE
8
DEFAULT_255_2_778
10
6.788273
20
3.422851
11
9.235673
21
6.085351
0
LINE
8
DEFAULT_255_2_778
10
9.235673
20
6.085351
11
13.072173
21
6.085351
0
LINE
8
DEFAULT_1_2_778
10
13.8659708
20
3.4395
11
13.2044708
21
3.4395
0
LINE
8
DEFAULT_1_2_778
10
13.2044708
20
2.7780458
11
13.2044708
21
4.1009458
0
LINE
8
DEFAULT_1_2_778
10
13.8659708
20
6.0853458
11
13.2044708
21
6.0853458
0
LINE
8
DEFAULT_1_2_778
10
13.2044708
20
5.4239458
11
13.2044708
21
6.7468458
0
LINE
8
DEFAULT_1_2_778
10
13.8659708
20
8.7312458
11
13.2044708
21
8.7312458
0
LINE
8
DEFAULT_1_2_778
10
13.2044
20
8.0697583
11
13.2044
21
9.3926583
0
LINE
8
DEFAULT_255_2_778
10
4.2083656
20
3.4395
11
4.2250656
21
3.4395
0
LINE
8
DEFAULT_255_2_778
10
4.225024
20
3.4395416
11
3.067424
21
2.5134416
0
LINE
8
DEFAULT_255_2_778
10
3.067424
20
2.5134416
11
3.067424
21
4.3655416
0
LINE
8
DEFAULT_255_2_778
10
3.067424
20
4.3655416
11
4.225024
21
3.4395416
0
LINE
8
DEFAULT_255_2_778
10
4.0763198
20
3.4395
11
6.6891198
21
3.4395
0
ENDSEC
0
EOF