0
SECTION
2
HEADER
9
$MEASUREMENT
70
1
0
ENDSEC
0
SECTION
2
TABLES
0
TABLE
2
LTYPE
0
LTYPE
72
65
70
64
2
CONTINUOUS
3
______
73
0
40
0
0
ENDTAB
0
TABLE
2
LAYER
0
LAYER
2
DEFAULT_255_2_778
70
0
62
255
6
CONTINUOUS
0
LAYER
2
DEFAULT_255_1_850
70
0
62
255
6
CONTINUOUS
0
ENDTAB
0
ENDSEC
0
SECTION
2
ENTITIES
0
ARC
8
DEFAULT_255_2_778
10
5.1578896
20
5.6697134
40
0.6501964
50
89.4259247
51
179.6683382
0
ARC
8
DEFAULT_255_2_778
10
5.1709189
20
5.6697135
40
0.6501962
50
0.331653
51
90.5740878
0
ARC
8
DEFAULT_255_2_778
10
5.1709189
20
5.6772406
40
0.6501961
50
269.4259047
51
359.6683501
0
ARC
8
DEFAULT_255_2_778
10
5.1578897
20
5.6772408
40
0.6501964
50
180.3316649
51
270.5740679
0
LINE
8
DEFAULT_255_2_778
10
4.5077042
20
5.6734771
11
4.5077042
21
5.6734771
0
LINE
8
DEFAULT_255_2_778
10
6.7469001
20
6.2176667
11
13.0969001
21
6.2176667
0
LINE
8
DEFAULT_255_2_778
10
6.7469001
20
5.1593667
11
13.0969001
21
5.1593667
0
LINE
8
DEFAULT_255_1_850
10
6.7805917
20
10.0081882
11
7.0034679
21
10.0081882
0
LINE
8
DEFAULT_255_1_850
10
5.8637873
20
10.1720323
11
5.8637873
21
10.4900827
0
LINE
8
DEFAULT_255_1_850
10
7.0034679
20
10.6418795
11
6.7805917
21
10.6418795
0
LINE
8
DEFAULT_255_1_850
10
6.0866635
20
10.4876732
11
6.0866635
21
10.1660086
0
ARC
8
DEFAULT_255_1_850
10
6.0610421
20
10.0505485
40
0.9433773
50
346.9450843
51
357.4263924
0
ARC
8
DEFAULT_255_1_850
10
6.3807542
20
9.9740884
40
0.6146615
50
329.9584233
51
347.1562904
0
ARC
8
DEFAULT_255_1_850
10
6.4978268
20
9.9104061
40
0.4814475
50
316.1533445
51
329.5439807
0
ARC
8
DEFAULT_255_1_850
10
6.5097062
20
9.9043739
40
0.4687175
50
283.4506323
51
315.6791918
0
ARC
8
DEFAULT_255_1_850
10
6.4475766
20
10.1386864
40
0.7110796
50
270.4960878
51
283.9278575
0
ARC
8
DEFAULT_255_1_850
10
6.4385085
20
10.3315998
40
0.9040945
50
269.9960753
51
270.9648996
0
ARC
8
DEFAULT_255_1_850
10
6.4315725
20
9.9851487
40
0.5576858
50
249.3754104
51
270.7062408
0
ARC
8
DEFAULT_255_1_850
10
6.4188667
20
9.9276553
40
0.4994718
50
216.8524688
51
248.4163469
0
ARC
8
DEFAULT_255_1_850
10
6.56948
20
10.0464417
40
0.6912488
50
195.2713927
51
217.2436598
0
ARC
8
DEFAULT_255_1_850
10
6.8964844
20
10.1405526
40
1.0315046
50
183.4606235
51
195.5301024
0
ARC
8
DEFAULT_255_1_850
10
7.254095
20
10.1706912
40
1.3903084
50
179.9447327
51
183.8108103
0
ARC
8
DEFAULT_255_1_850
10
7.0501222
20
10.4975272
40
1.1863583
50
169.7630031
51
180.3595383
0
ARC
8
DEFAULT_255_1_850
10
6.6525728
20
10.5721141
40
0.7818866
50
152.623337
51
169.9643
0
ARC
8
DEFAULT_255_1_850
10
6.5124171
20
10.6392618
40
0.6265694
50
141.3012243
51
152.1824298
0
ARC
8
DEFAULT_255_1_850
10
6.42971
20
10.7112169
40
0.5170522
50
93.2975962
51
141.7939295
0
ARC
8
DEFAULT_255_1_850
10
6.4582812
20
10.5137748
40
0.7160166
50
89.9483178
51
94.6714009
0
ARC
8
DEFAULT_255_1_850
10
6.464632
20
10.550643
40
0.6791718
50
76.7677149
51
90.4812864
0
ARC
8
DEFAULT_255_1_850
10
6.5205276
20
10.7720115
40
0.4509016
50
42.6303319
51
77.243016
0
ARC
8
DEFAULT_255_1_850
10
6.4598686
20
10.7260546
40
0.5267061
50
18.4005968
51
41.8394654
0
ARC
8
DEFAULT_255_1_850
10
6.2061129
20
10.6369937
40
0.7956129
50
6.5073518
51
18.7179839
0
ARC
8
DEFAULT_255_1_850
10
5.9114001
20
10.5968517
40
1.0929956
50
2.3610657
51
6.8472182
0
ARC
8
DEFAULT_255_1_850
10
5.7301293
20
10.5751604
40
1.052579
50
3.6342018
51
9.559568
0
ARC
8
DEFAULT_255_1_850
10
6.1402628
20
10.6455212
40
0.6364571
50
9.4450893
51
18.0492922
0
ARC
8
DEFAULT_255_1_850
10
6.4002533
20
10.7319335
40
0.3624907
50
17.7954808
51
31.7729125
0
ARC
8
DEFAULT_255_1_850
10
6.4996593
20
10.7905533
40
0.2471278
50
32.3542601
51
39.5410554
0
ARC
8
DEFAULT_255_1_850
10
6.506307
20
10.7933626
40
0.2402216
50
40.033756
51
75.067076
0
ARC
8
DEFAULT_255_1_850
10
6.4676702
20
10.6641327
40
0.3750651
50
74.4512906
51
87.9226532
0
ARC
8
DEFAULT_255_1_850
10
6.4591333
20
10.540615
40
0.4988275
50
87.4570069
51
90.0236898
0
ARC
8
DEFAULT_255_1_850
10
6.4545474
20
10.6739658
40
0.3655029
50
89.3134321
51
108.9276967
0
ARC
8
DEFAULT_255_1_850
10
6.4405346
20
10.7298571
40
0.3081269
50
109.8341608
51
146.6855685
0
ARC
8
DEFAULT_255_1_850
10
6.5732639
20
10.6378331
40
0.4696044
50
146.1972534
51
163.338277
0
ARC
8
DEFAULT_255_1_850
10
6.8619544
20
10.5478483
40
0.7719821
50
163.0834636
51
173.4565152
0
ARC
8
DEFAULT_255_1_850
10
7.3147559
20
10.4928646
40
1.2281033
50
173.315365
51
180.2421976
0
ARC
8
DEFAULT_255_1_850
10
7.3583196
20
10.1607145
40
1.2716671
50
179.7614664
51
186.5668227
0
ARC
8
DEFAULT_255_1_850
10
6.8921792
20
10.1053621
40
0.8022566
50
186.4468016
51
196.3475137
0
ARC
8
DEFAULT_255_1_850
10
6.5970965
20
10.0170433
40
0.4942479
50
196.1511912
51
211.6628081
0
ARC
8
DEFAULT_255_1_850
10
6.4386292
20
9.9176687
40
0.3072077
50
211.4016381
51
236.4292734
0
ARC
8
DEFAULT_255_1_850
10
6.4260533
20
9.9098222
40
0.2937801
50
237.6267382
51
266.553425
0
ARC
8
DEFAULT_255_1_850
10
6.4381421
20
10.0078023
40
0.3923583
50
265.6514172
51
270.0444547
0
ARC
8
DEFAULT_255_1_850
10
6.4418552
20
10.1629036
40
0.54747
50
269.6432661
51
279.0244168
0
ARC
8
DEFAULT_255_1_850
10
6.4765128
20
9.9529344
40
0.3346663
50
278.8029094
51
293.8336533
0
ARC
8
DEFAULT_255_1_850
10
6.5228034
20
9.8485741
40
0.2205006
50
293.7887352
51
317.9825227
0
ARC
8
DEFAULT_255_1_850
10
6.4873831
20
9.8721637
40
0.2626784
50
319.3313104
51
336.5746987
0
ARC
8
DEFAULT_255_1_850
10
6.2801275
20
9.9651446
40
0.4898256
50
336.2328807
51
346.3918624
0
ARC
8
DEFAULT_255_1_850
10
5.9304736
20
10.0527148
40
0.8502722
50
346.2001367
51
352.6210262
0
ARC
8
DEFAULT_255_1_850
10
5.5300866
20
10.1086562
40
1.2545345
50
352.4357949
51
355.4066111
0
LINE
8
DEFAULT_255_1_850
10
8.2588031
20
9.4516
11
8.1202584
21
9.9093998
0
LINE
8
DEFAULT_255_1_850
10
8.1202584
20
9.9093998
11
7.5275282
21
9.9093998
0
LINE
8
DEFAULT_255_1_850
10
7.5275282
20
9.9093998
11
7.391393
21
9.4516
0
LINE
8
DEFAULT_255_1_850
10
7.391393
20
9.4516
11
7.1649025
21
9.4516
0
LINE
8
DEFAULT_255_1_850
10
7.1649025
20
9.4516
11
7.7299239
21
11.2056961
0
LINE
8
DEFAULT_255_1_850
10
7.7299239
20
11.2056961
11
7.9190675
21
11.2056961
0
LINE
8
DEFAULT_255_1_850
10
7.9190675
20
11.2056961
11
8.4852936
21
9.4516
0
LINE
8
DEFAULT_255_1_850
10
8.4852936
20
9.4516
11
8.2588031
21
9.4516
0
LINE
8
DEFAULT_255_1_850
10
7.8238933
20
10.8972836
11
7.5853555
21
10.0997481
0
LINE
8
DEFAULT_255_1_850
10
7.5853555
20
10.0997481
11
8.0636358
21
10.0997481
0
LINE
8
DEFAULT_255_1_850
10
8.0636358
20
10.0997481
11
7.8238933
21
10.8972836
0
LINE
8
DEFAULT_255_1_850
10
9.2406632
20
9.4516
11
8.7238313
21
9.4516
0
LINE
8
DEFAULT_255_1_850
10
8.7238313
20
9.4516
11
8.7238313
21
11.2056961
0
LINE
8
DEFAULT_255_1_850
10
8.7238313
20
11.2056961
11
9.2237969
21
11.2056961
0
LINE
8
DEFAULT_255_1_850
10
9.2503011
20
10.2720254
11
8.9442981
21
10.2720254
0
LINE
8
DEFAULT_255_1_850
10
8.9442981
20
10.2720254
11
8.9442981
21
9.6407436
0
LINE
8
DEFAULT_255_1_850
10
8.9442981
20
9.6407436
11
9.2454822
21
9.6407436
0
LINE
8
DEFAULT_255_1_850
10
8.9442981
20
11.0153478
11
8.9442981
21
10.4575548
0
LINE
8
DEFAULT_255_1_850
10
8.9442981
20
10.4575548
11
9.2274111
21
10.4575548
0
LINE
8
DEFAULT_255_1_850
10
9.2237969
20
11.0153478
11
8.9442981
21
11.0153478
0
ARC
8
DEFAULT_255_1_850
10
9.2288086
20
10.4225136
40
0.7831985
50
80.3227724
51
90.3666369
0
ARC
8
DEFAULT_255_1_850
10
9.2792113
20
10.7072469
40
0.4940478
50
64.3838897
51
80.534137
0
ARC
8
DEFAULT_255_1_850
10
9.3355955
20
10.8289543
40
0.3599302
50
46.2227871
51
64.1010727
0
ARC
8
DEFAULT_255_1_850
10
9.3275008
20
10.8275319
40
0.3665899
50
17.4161932
51
45.4630845
0
ARC
8
DEFAULT_255_1_850
10
9.1354131
20
10.7631948
40
0.5691416
50
4.3471814
51
17.8081813
0
ARC
8
DEFAULT_255_1_850
10
8.8998813
20
10.7395161
40
0.8058113
50
359.9105717
51
4.7565449
0
ARC
8
DEFAULT_255_1_850
10
9.2890323
20
10.7349733
40
0.4166721
50
342.5460206
51
0.4517375
0
ARC
8
DEFAULT_255_1_850
10
9.3382411
20
10.721794
40
0.3657825
50
326.781447
51
342.2034219
0
ARC
8
DEFAULT_255_1_850
10
9.2988483
20
10.7476424
40
0.4128986
50
295.7139866
51
326.775377
0
ARC
8
DEFAULT_255_1_850
10
9.383201
20
10.0565517
40
0.3328646
50
31.5928878
51
73.453915
0
ARC
8
DEFAULT_255_1_850
10
9.314436
20
10.0044736
40
0.4188037
50
32.168639
51
32.733279
0
ARC
8
DEFAULT_255_1_850
10
9.2857222
20
9.9897947
40
0.4509339
50
9.614676
51
31.8049786
0
ARC
8
DEFAULT_255_1_850
10
9.1301273
20
9.9601549
40
0.6093022
50
359.7587348
51
9.9189472
0
ARC
8
DEFAULT_255_1_850
10
9.0430923
20
9.9524816
40
0.6963505
50
347.9585108
51
0.4202661
0
ARC
8
DEFAULT_255_1_850
10
9.2682073
20
9.9017139
40
0.4656053
50
323.4878498
51
348.2891765
0
ARC
8
DEFAULT_255_1_850
10
9.3049398
20
9.8793668
40
0.4228038
50
316.1632474
51
322.9600776
0
ARC
8
DEFAULT_255_1_850
10
9.3092651
20
9.8792383
40
0.4196048
50
284.0513821
51
315.7668427
0
ARC
8
DEFAULT_255_1_850
10
9.2511287
20
10.089752
40
0.6379566
50
271.1392528
51
284.526122
0
ARC
8
DEFAULT_255_1_850
10
9.2407919
20
10.2756759
40
0.8240759
50
269.9910561
51
271.6007896
0
ARC
8
DEFAULT_255_1_850
10
9.2484809
20
9.9475016
40
0.3067726
50
269.4399137
51
286.1513706
0
ARC
8
DEFAULT_255_1_850
10
9.2672463
20
9.8790445
40
0.2357997
50
286.3988378
51
318.6520165
0
ARC
8
DEFAULT_255_1_850
10
9.2397989
20
9.9019361
40
0.2715292
50
318.851957
51
344.194787
0
ARC
8
DEFAULT_255_1_850
10
9.1059257
20
9.9423034
40
0.4113426
50
343.8635126
51
356.672855
0
ARC
8
DEFAULT_255_1_850
10
8.9596692
20
9.9546693
40
0.5580836
50
356.2768924
51
0.0524106
0
ARC
8
DEFAULT_255_1_850
10
8.970701
20
9.9611702
40
0.5470844
50
359.3726144
51
11.8777378
0
ARC
8
DEFAULT_255_1_850
10
9.2284929
20
10.0182842
40
0.2830708
50
11.3046459
51
35.4669591
0
ARC
8
DEFAULT_255_1_850
10
9.2841509
20
10.0490437
40
0.2200116
50
37.3534023
51
83.0347778
0
ARC
8
DEFAULT_255_1_850
10
9.2520307
20
9.8937334
40
0.378296
50
81.0579948
51
90.2619564
0
ARC
8
DEFAULT_255_1_850
10
9.2302643
20
10.7332038
40
0.2756637
50
269.4069688
51
287.8256597
0
ARC
8
DEFAULT_255_1_850
10
9.2430102
20
10.6869527
40
0.2277403
50
288.3349884
51
318.0315623
0
ARC
8
DEFAULT_255_1_850
10
9.2180952
20
10.7100106
40
0.2616847
50
317.9258814
51
348.4570738
0
ARC
8
DEFAULT_255_1_850
10
9.1017016
20
10.7369235
40
0.3811221
50
347.994343
51
0.3817994
0
ARC
8
DEFAULT_255_1_850
10
8.964263
20
10.7422881
40
0.5185599
50
359.6878686
51
8.0092888
0
ARC
8
DEFAULT_255_1_850
10
9.1636675
20
10.771395
40
0.3170466
50
7.8214783
51
20.7458949
0
ARC
8
DEFAULT_255_1_850
10
9.2777679
20
10.8156984
40
0.1946537
50
20.4475373
51
43.5002115
0
ARC
8
DEFAULT_255_1_850
10
9.2784486
20
10.8100298
40
0.1981149
50
44.8250025
51
71.9701806
0
ARC
8
DEFAULT_255_1_850
10
9.2408824
20
10.7019358
40
0.3125363
50
71.5549127
51
84.7501434
0
ARC
8
DEFAULT_255_1_850
10
9.2248453
20
10.5589631
40
0.4563858
50
84.387587
51
90.1316197
0
LINE
8
DEFAULT_255_1_850
10
10.2911933
20
11.2056961
11
10.2911933
21
9.6407436
0
LINE
8
DEFAULT_255_1_850
10
10.2911933
20
9.6407436
11
10.9790978
21
9.6407436
0
LINE
8
DEFAULT_255_1_850
10
10.9790978
20
9.6407436
11
10.9790978
21
9.4516
0
LINE
8
DEFAULT_255_1_850
10
10.9790978
20
9.4516
11
10.0695218
21
9.4516
0
LINE
8
DEFAULT_255_1_850
10
10.0695218
20
9.4516
11
10.0695218
21
11.2056961
0
LINE
8
DEFAULT_255_1_850
10
10.0695218
20
11.2056961
11
10.2911933
21
11.2056961
0
LINE
8
DEFAULT_255_1_850
10
12.0826362
20
10.4515312
11
12.0826362
21
10.2623875
0
LINE
8
DEFAULT_255_1_850
10
12.0826362
20
10.2623875
11
11.462197
21
10.2623875
0
LINE
8
DEFAULT_255_1_850
10
11.462197
20
10.2623875
11
11.462197
21
9.6407436
0
LINE
8
DEFAULT_255_1_850
10
11.462197
20
9.6407436
11
12.1850388
21
9.6407436
0
LINE
8
DEFAULT_255_1_850
10
12.1850388
20
9.6407436
11
12.1850388
21
9.4516
0
LINE
8
DEFAULT_255_1_850
10
12.1850388
20
9.4516
11
11.2417303
21
9.4516
0
LINE
8
DEFAULT_255_1_850
10
11.2417303
20
9.4516
11
11.2417303
21
11.2056961
0
LINE
8
DEFAULT_255_1_850
10
11.2417303
20
11.2056961
11
12.1729915
21
11.2056961
0
LINE
8
DEFAULT_255_1_850
10
12.1729915
20
11.2056961
11
12.1729915
21
11.0153478
0
LINE
8
DEFAULT_255_1_850
10
12.1729915
20
11.0153478
11
11.462197
21
11.0153478
0
LINE
8
DEFAULT_255_1_850
10
11.462197
20
11.0153478
11
11.462197
21
10.4515312
0
LINE
8
DEFAULT_255_1_850
10
11.462197
20
10.4515312
11
12.0826362
21
10.4515312
0
ARC
8
DEFAULT_255_2_778
10
13.2822926
20
7.1564478
40
0.7407663
50
359.0178058
51
16.6744529
0
ARC
8
DEFAULT_255_2_778
10
13.5974362
20
7.2510687
40
0.4117244
50
16.6442594
51
83.1171234
0
ARC
8
DEFAULT_255_2_778
10
13.4994961
20
6.8348315
40
0.8380382
50
79.8779674
51
90.3928446
0
ARC
8
DEFAULT_255_2_778
10
5.5437629
20
6.0145578
40
1.6583391
50
89.5685609
51
100.6422984
0
ARC
8
DEFAULT_255_2_778
10
5.4191096
20
6.6487882
40
1.0120115
50
100.3376239
51
119.5724294
0
ARC
8
DEFAULT_255_2_778
10
5.3067334
20
6.8621631
40
0.7710093
50
120.1348532
51
134.8947228
0
ARC
8
DEFAULT_255_2_778
10
5.3488775
20
4.5696096
40
0.8395309
50
225.7013254
51
253.8369393
0
ARC
8
DEFAULT_255_2_778
10
5.5069616
20
5.0744819
40
1.3685002
50
253.3641123
51
266.8276386
0
ARC
8
DEFAULT_255_2_778
10
5.5543731
20
5.6354772
40
1.9313282
50
266.3442626
51
270.0556852
0
ARC
8
DEFAULT_255_2_778
10
13.5064511
20
4.4450773
40
0.7410363
50
269.0179339
51
286.6713971
0
ARC
8
DEFAULT_255_2_778
10
13.6011483
20
4.1296982
40
0.4117469
50
286.6379991
51
353.1126757
0
ARC
8
DEFAULT_255_2_778
10
13.1850821
20
4.227604
40
0.8378878
50
349.8761221
51
0.3929053
0
LINE
8
DEFAULT_255_2_778
10
13.4937502
20
7.6728498
11
5.5562502
21
7.6728498
0
LINE
8
DEFAULT_255_2_778
10
4.7625502
20
7.4083498
11
3.7041502
21
6.3499498
0
LINE
8
DEFAULT_255_2_778
10
3.7041502
20
6.3499498
11
3.7041502
21
5.0270498
0
LINE
8
DEFAULT_255_2_778
10
3.7041502
20
5.0270498
11
4.7625502
21
3.9687498
0
LINE
8
DEFAULT_255_2_778
10
5.5562502
20
3.7041498
11
13.4937502
21
3.7041498
0
LINE
8
DEFAULT_255_2_778
10
14.0229502
20
4.2333498
11
14.0229502
21
7.1437498
0
LINE
8
DEFAULT_255_2_778
10
2.9104502
20
12.9645498
11
2.9104502
21
-1.3229502
0
ENDSEC
0
EOF