0
SECTION
2
HEADER
9
$MEASUREMENT
70
1
0
ENDSEC
0
SECTION
2
TABLES
0
TABLE
2
LTYPE
0
LTYPE
72
65
70
64
2
CONTINUOUS
3
______
73
0
40
0
0
ENDTAB
0
TABLE
2
LAYER
0
LAYER
2
DEFAULT_255_2_778
70
0
62
255
6
CONTINUOUS
0
LAYER
2
DEFAULT_255_1_696
70
0
62
255
6
CONTINUOUS
0
ENDTAB
0
ENDSEC
0
SECTION
2
ENTITIES
0
ARC
8
DEFAULT_255_2_778
10
1.9832532
20
10.4521719
40
0.5280127
50
89.8710178
51
180.1289822
0
ARC
8
DEFAULT_255_2_778
10
14.9501305
20
10.4521719
40
0.5280127
50
359.8710178
51
90.1289822
0
ARC
8
DEFAULT_255_2_778
10
14.9501305
20
7.8039946
40
0.5280127
50
269.8710178
51
0.1289822
0
ARC
8
DEFAULT_255_2_778
10
1.9832532
20
7.8039946
40
0.5280127
50
179.8710178
51
270.1289822
0
LINE
8
DEFAULT_255_2_778
10
1.9844419
20
10.9801833
11
14.9489419
21
10.9801833
0
LINE
8
DEFAULT_255_2_778
10
15.4781419
20
10.4509833
11
15.4781419
21
7.8051833
0
LINE
8
DEFAULT_255_2_778
10
14.9489419
20
7.2759833
11
1.9844419
21
7.2759833
0
LINE
8
DEFAULT_255_2_778
10
1.4552419
20
7.8051833
11
1.4552419
21
10.4509833
0
LINE
8
DEFAULT_255_1_696
10
7.1768199
20
8.3818
11
6.8907944
21
9.0322596
0
LINE
8
DEFAULT_255_1_696
10
6.8907944
20
9.0322596
11
6.6080819
21
9.0322596
0
LINE
8
DEFAULT_255_1_696
10
6.6080819
20
9.0322596
11
6.6080819
21
8.3818
0
LINE
8
DEFAULT_255_1_696
10
6.6080819
20
8.3818
11
6.4048823
21
8.3818
0
LINE
8
DEFAULT_255_1_696
10
6.4048823
20
8.3818
11
6.4048823
21
9.9897273
0
LINE
8
DEFAULT_255_1_696
10
6.4048823
20
9.9897273
11
6.8554553
21
9.9897273
0
LINE
8
DEFAULT_255_1_696
10
7.0829505
20
9.0786421
11
7.394376
21
8.3950521
0
LINE
8
DEFAULT_255_1_696
10
7.394376
20
8.3950521
11
7.394376
21
8.3818
0
LINE
8
DEFAULT_255_1_696
10
7.394376
20
8.3818
11
7.1768199
21
8.3818
0
LINE
8
DEFAULT_255_1_696
10
6.6080819
20
9.8152407
11
6.6080819
21
9.2056419
0
LINE
8
DEFAULT_255_1_696
10
6.6080819
20
9.2056419
11
6.8532466
21
9.2056419
0
LINE
8
DEFAULT_255_1_696
10
6.8510379
20
9.8152407
11
6.6080819
21
9.8152407
0
ARC
8
DEFAULT_255_1_696
10
6.8603768
20
9.264945
40
0.724799
50
79.541434
51
90.3890513
0
ARC
8
DEFAULT_255_1_696
10
6.9094076
20
9.5202215
40
0.4648671
50
61.6999157
51
79.7728072
0
ARC
8
DEFAULT_255_1_696
10
6.9555697
20
9.6116354
40
0.3625042
50
44.6941936
51
61.2741628
0
ARC
8
DEFAULT_255_1_696
10
6.9313172
20
9.593755
40
0.3923444
50
16.6802412
51
44.059409
0
ARC
8
DEFAULT_255_1_696
10
6.7331287
20
9.5298173
40
0.6005612
50
4.2390052
51
17.0963237
0
ARC
8
DEFAULT_255_1_696
10
6.5007589
20
9.5072166
40
0.8339833
50
359.9180632
51
4.6074388
0
ARC
8
DEFAULT_255_1_696
10
6.7636891
20
9.5023797
40
0.5710639
50
346.6513953
51
0.3656317
0
ARC
8
DEFAULT_255_1_696
10
6.8779114
20
9.476281
40
0.4539031
50
329.5062628
51
346.5280025
0
ARC
8
DEFAULT_255_1_696
10
6.9113006
20
9.4566885
40
0.4151901
50
294.4201691
51
329.4979034
0
ARC
8
DEFAULT_255_1_696
10
6.8562911
20
9.5246154
40
0.318988
50
269.4531602
51
285.9210038
0
ARC
8
DEFAULT_255_1_696
10
6.8759724
20
9.452413
40
0.2441581
50
286.1274193
51
317.4685655
0
ARC
8
DEFAULT_255_1_696
10
6.8520902
20
9.4735834
40
0.2760686
50
317.5813843
51
348.2750468
0
ARC
8
DEFAULT_255_1_696
10
6.7256868
20
9.5031916
40
0.4058649
50
347.8086886
51
0.3998392
0
ARC
8
DEFAULT_255_1_696
10
6.6348233
20
9.5119112
40
0.4967533
50
359.3209436
51
12.8887449
0
ARC
8
DEFAULT_255_1_696
10
6.8663427
20
9.5682971
40
0.2585109
50
12.1522409
51
41.0729677
0
ARC
8
DEFAULT_255_1_696
10
6.8915586
20
9.5780038
40
0.2333075
50
43.3451133
51
80.9757988
0
ARC
8
DEFAULT_255_1_696
10
6.8537477
20
9.4063373
40
0.4089125
50
79.5160858
51
90.3796922
0
LINE
8
DEFAULT_255_1_696
10
8.3761394
20
9.2984069
11
8.3761394
21
9.1250247
0
LINE
8
DEFAULT_255_1_696
10
8.3761394
20
9.1250247
11
7.8074013
21
9.1250247
0
LINE
8
DEFAULT_255_1_696
10
7.8074013
20
9.1250247
11
7.8074013
21
8.5551823
0
LINE
8
DEFAULT_255_1_696
10
7.8074013
20
8.5551823
11
8.4700087
21
8.5551823
0
LINE
8
DEFAULT_255_1_696
10
8.4700087
20
8.5551823
11
8.4700087
21
8.3818
0
LINE
8
DEFAULT_255_1_696
10
8.4700087
20
8.3818
11
7.6053061
21
8.3818
0
LINE
8
DEFAULT_255_1_696
10
7.6053061
20
8.3818
11
7.6053061
21
9.9897273
0
LINE
8
DEFAULT_255_1_696
10
7.6053061
20
9.9897273
11
8.4589653
21
9.9897273
0
LINE
8
DEFAULT_255_1_696
10
8.4589653
20
9.9897273
11
8.4589653
21
9.8152407
0
LINE
8
DEFAULT_255_1_696
10
8.4589653
20
9.8152407
11
7.8074013
21
9.8152407
0
LINE
8
DEFAULT_255_1_696
10
7.8074013
20
9.8152407
11
7.8074013
21
9.2984069
0
LINE
8
DEFAULT_255_1_696
10
7.8074013
20
9.2984069
11
8.3761394
21
9.2984069
0
LINE
8
DEFAULT_255_1_696
10
9.473859
20
9.2652766
11
9.473859
21
9.0918943
0
LINE
8
DEFAULT_255_1_696
10
9.473859
20
9.0918943
11
8.9305209
21
9.0918943
0
LINE
8
DEFAULT_255_1_696
10
8.9305209
20
9.0918943
11
8.9305209
21
8.3818
0
LINE
8
DEFAULT_255_1_696
10
8.9305209
20
8.3818
11
8.7284256
21
8.3818
0
LINE
8
DEFAULT_255_1_696
10
8.7284256
20
8.3818
11
8.7284256
21
9.9897273
0
LINE
8
DEFAULT_255_1_696
10
8.7284256
20
9.9897273
11
9.5655197
21
9.9897273
0
LINE
8
DEFAULT_255_1_696
10
9.5655197
20
9.9897273
11
9.5655197
21
9.8152407
0
LINE
8
DEFAULT_255_1_696
10
9.5655197
20
9.8152407
11
8.9305209
21
9.8152407
0
LINE
8
DEFAULT_255_1_696
10
8.9305209
20
9.8152407
11
8.9305209
21
9.2652766
0
LINE
8
DEFAULT_255_1_696
10
8.9305209
20
9.2652766
11
9.473859
21
9.2652766
0
LINE
8
DEFAULT_255_2_778
10
1.98435
20
5.1594
11
3.57185
21
5.1594
0
LINE
8
DEFAULT_255_2_778
10
3.571825
20
5.95315
11
3.571825
21
4.36565
0
LINE
8
DEFAULT_255_2_778
10
4.365525
20
5.95315
11
4.365525
21
4.36565
0
LINE
8
DEFAULT_255_2_778
10
4.36565
20
5.1594
11
5.95315
21
5.1594
0
LINE
8
DEFAULT_255_2_778
10
7.1437418
20
5.8208583
11
14.8166418
21
5.8208583
0
LINE
8
DEFAULT_255_2_778
10
7.1437418
20
4.4979583
11
12.9645418
21
4.4979583
0
LINE
8
DEFAULT_255_2_778
10
1.9843251
20
1.9844
11
3.1749251
21
1.9844
0
LINE
8
DEFAULT_255_2_778
10
4.7624251
20
1.9844
11
5.9530251
21
1.9844
0
LINE
8
DEFAULT_255_2_778
10
7.1437418
20
2.6458583
11
14.8166418
21
2.6458583
0
LINE
8
DEFAULT_255_2_778
10
7.1437418
20
1.3229583
11
12.9645418
21
1.3229583
0
ARC
8
DEFAULT_255_2_778
10
3.966369
20
1.9864541
40
0.7914215
50
129.1312896
51
180.1450914
0
ARC
8
DEFAULT_255_2_778
10
3.9666342
20
1.9869412
40
0.7912112
50
89.854026
51
129.1684493
0
ARC
8
DEFAULT_255_2_778
10
3.9706934
20
1.9866278
40
0.7915249
50
39.4792447
51
90.147911
0
ARC
8
DEFAULT_255_2_778
10
3.9712932
20
1.9864744
40
0.7911595
50
359.8533901
51
39.5154338
0
ARC
8
DEFAULT_255_2_778
10
3.970969
20
1.9824018
40
0.7914836
50
309.4761667
51
0.1482649
0
ARC
8
DEFAULT_255_2_778
10
3.9706976
20
1.9819708
40
0.7913235
50
269.8517415
51
309.511178
0
ARC
8
DEFAULT_255_2_778
10
3.9666417
20
1.9820289
40
0.7913815
50
219.1282118
51
270.1454017
0
ARC
8
DEFAULT_255_2_778
10
3.9663244
20
1.9824114
40
0.7913769
50
179.8524075
51
219.1641908
0
LINE
8
DEFAULT_255_2_778
10
3.17495
20
1.98445
11
3.17495
21
1.98445
0
LINE
8
DEFAULT_255_2_778
10
1.98435
20
-1.1906
11
3.57185
21
-1.1906
0
LINE
8
DEFAULT_255_2_778
10
3.571825
20
-0.39685
11
3.571825
21
-1.98435
0
LINE
8
DEFAULT_255_2_778
10
4.365525
20
-0.39685
11
4.365525
21
-1.98435
0
LINE
8
DEFAULT_255_2_778
10
4.36565
20
-1.1906
11
5.95315
21
-1.1906
0
LINE
8
DEFAULT_255_2_778
10
7.1437418
20
-0.5291417
11
14.8166418
21
-0.5291417
0
LINE
8
DEFAULT_255_2_778
10
7.1437418
20
-1.8520417
11
12.9645418
21
-1.8520417
0
LINE
8
DEFAULT_255_2_778
10
3.0426584
20
-1.98435
11
4.8947584
21
-0.39685
0
ENDSEC
0
EOF