0
SECTION
2
HEADER
9
$MEASUREMENT
70
1
0
ENDSEC
0
SECTION
2
TABLES
0
TABLE
2
LTYPE
0
LTYPE
72
65
70
64
2
CONTINUOUS
3
______
73
0
40
0
0
ENDTAB
0
TABLE
2
LAYER
0
LAYER
2
DEFAULT_255_2_778_8
70
0
62
255
6
CONTINUOUS
0
LAYER
2
DEFAULT_255_2_778
70
0
62
255
6
CONTINUOUS
0
LAYER
2
DEFAULT_255_1_727
70
0
62
255
6
CONTINUOUS
0
ENDTAB
0
ENDSEC
0
SECTION
2
ENTITIES
0
LINE
8
DEFAULT_255_2_778_8
10
1.3229502
20
5.4239082
11
15.6104502
21
5.4239082
0
LINE
8
DEFAULT_255_2_778_8
10
15.6104502
20
5.4239082
11
15.6104502
21
-3.8364918
0
LINE
8
DEFAULT_255_2_778_8
10
15.6104502
20
-3.8364918
11
1.3229502
21
-3.8364918
0
LINE
8
DEFAULT_255_2_778_8
10
1.3229502
20
-3.8364918
11
1.3229502
21
5.4239082
0
LINE
8
DEFAULT_255_2_778
10
2.1167002
20
4.6301582
11
14.8167002
21
4.6301582
0
LINE
8
DEFAULT_255_2_778
10
14.8167002
20
4.6301582
11
14.8167002
21
1.1905582
0
LINE
8
DEFAULT_255_2_778
10
14.8167002
20
1.1905582
11
2.1167002
21
1.1905582
0
LINE
8
DEFAULT_255_2_778
10
2.1167002
20
1.1905582
11
2.1167002
21
4.6301582
0
LINE
8
DEFAULT_255_2_778
10
2.1167002
20
0.3968582
11
14.8167002
21
0.3968582
0
LINE
8
DEFAULT_255_2_778
10
14.8167002
20
0.3968582
11
14.8167002
21
-3.0427418
0
LINE
8
DEFAULT_255_2_778
10
14.8167002
20
-3.0427418
11
2.1167002
21
-3.0427418
0
LINE
8
DEFAULT_255_2_778
10
2.1167002
20
-3.0427418
11
2.1167002
21
0.3968582
0
LINE
8
DEFAULT_255_1_727
10
6.8176979
20
-0.3346822
11
6.8176979
21
-1.9797
0
LINE
8
DEFAULT_255_1_727
10
6.8176979
20
-1.9797
11
6.6085568
21
-1.9797
0
LINE
8
DEFAULT_255_1_727
10
6.6085568
20
-1.9797
11
6.6085568
21
-0.5932975
0
LINE
8
DEFAULT_255_1_727
10
6.6085568
20
-0.5932975
11
6.1891504
21
-0.7473422
0
LINE
8
DEFAULT_255_1_727
10
6.1891504
20
-0.7473422
11
6.1891504
21
-0.5584406
0
LINE
8
DEFAULT_255_1_727
10
6.1891504
20
-0.5584406
11
6.7850898
21
-0.3346822
0
LINE
8
DEFAULT_255_1_727
10
6.7850898
20
-0.3346822
11
6.8176979
21
-0.3346822
0
LINE
8
DEFAULT_255_1_727
10
8.4537203
20
-1.0115795
11
8.4537203
21
-1.2814389
0
LINE
8
DEFAULT_255_1_727
10
7.4203838
20
-1.3095492
11
7.4203838
21
-1.0318189
0
LINE
8
DEFAULT_255_1_727
10
8.2457037
20
-1.3376596
11
8.2457037
21
-0.9969621
0
LINE
8
DEFAULT_255_1_727
10
7.6284004
20
-0.9812203
11
7.6284004
21
-1.3140469
0
ARC
8
DEFAULT_255_1_727
10
6.7391444
20
-1.2882837
40
1.7145896
50
353.8442294
51
0.2287308
0
ARC
8
DEFAULT_255_1_727
10
7.3886751
20
-1.3608014
40
1.0610306
50
344.4934877
51
353.9764852
0
ARC
8
DEFAULT_255_1_727
10
7.8076322
20
-1.4799148
40
0.6254849
50
329.2804132
51
344.7472651
0
ARC
8
DEFAULT_255_1_727
10
7.9464413
20
-1.5560873
40
0.4672735
50
324.9361318
51
328.6151944
0
ARC
8
DEFAULT_255_1_727
10
7.9994198
20
-1.5931094
40
0.4026412
50
280.5802284
51
324.9172797
0
ARC
8
DEFAULT_255_1_727
10
7.9432518
20
-1.3592144
40
0.6429899
50
269.5978426
51
281.6733971
0
ARC
8
DEFAULT_255_1_727
10
7.933158
20
-1.376029
40
0.6261841
50
256.622693
51
270.5106387
0
ARC
8
DEFAULT_255_1_727
10
7.8768788
20
-1.5927671
40
0.4023321
50
215.8618116
51
257.2788066
0
ARC
8
DEFAULT_255_1_727
10
8.0198193
20
-1.4968551
40
0.5743956
50
197.9694152
51
215.2624071
0
ARC
8
DEFAULT_255_1_727
10
8.367759
20
-1.3794282
40
0.9416005
50
187.8818609
51
198.2344986
0
ARC
8
DEFAULT_255_1_727
10
8.9218403
20
-1.2994476
40
1.5014187
50
180.8976002
51
188.0056278
0
ARC
8
DEFAULT_255_1_727
10
9.3169929
20
-1.284883
40
1.8967695
50
180.7451141
51
181.1505118
0
ARC
8
DEFAULT_255_1_727
10
9.0930863
20
-1.0250606
40
1.6727162
50
173.7675822
51
180.2314943
0
ARC
8
DEFAULT_255_1_727
10
8.4605903
20
-0.9535757
40
1.0362006
50
164.3058602
51
173.9001481
0
ARC
8
DEFAULT_255_1_727
10
8.0529267
20
-0.8361209
40
0.6119696
50
148.7921878
51
164.5682243
0
ARC
8
DEFAULT_255_1_727
10
7.919923
20
-0.7618827
40
0.4597782
50
144.5895323
51
148.116804
0
ARC
8
DEFAULT_255_1_727
10
7.8716748
20
-0.7282271
40
0.4009541
50
101.6439851
51
144.514308
0
ARC
8
DEFAULT_255_1_727
10
7.9311817
20
-0.9647156
40
0.6446724
50
89.5282337
51
102.5818342
0
ARC
8
DEFAULT_255_1_727
10
7.9422575
20
-0.9701752
40
0.6501359
50
77.0437779
51
90.5083053
0
ARC
8
DEFAULT_255_1_727
10
7.9985341
20
-0.7402269
40
0.4134372
50
48.2778814
51
77.4994417
0
ARC
8
DEFAULT_255_1_727
10
8.0087067
20
-0.7221445
40
0.3931958
50
36.3141287
51
47.6306642
0
ARC
8
DEFAULT_255_1_727
10
7.8870888
20
-0.804078
40
0.539749
50
18.29312
51
35.6768736
0
ARC
8
DEFAULT_255_1_727
10
7.531028
20
-0.9262885
40
0.9161849
50
8.0247789
51
18.560443
0
ARC
8
DEFAULT_255_1_727
10
6.9482442
20
-1.0123544
40
1.5052819
50
1.1274225
51
8.1719204
0
ARC
8
DEFAULT_255_1_727
10
6.495304
20
-1.0301257
40
1.9585041
50
0.5425762
51
1.3865004
0
ARC
8
DEFAULT_255_1_727
10
6.7500909
20
-0.9919828
40
1.4956211
50
359.8092475
51
4.9405718
0
ARC
8
DEFAULT_255_1_727
10
7.339575
20
-0.9393761
40
0.903798
50
4.836389
51
12.29042
0
ARC
8
DEFAULT_255_1_727
10
7.7253077
20
-0.8534335
40
0.5086148
50
12.0805356
51
23.817424
0
ARC
8
DEFAULT_255_1_727
10
7.8895883
20
-0.7838811
40
0.3302491
50
24.2878004
51
31.3934506
0
ARC
8
DEFAULT_255_1_727
10
7.9630759
20
-0.7357995
40
0.2424888
50
30.7407343
51
82.465738
0
ARC
8
DEFAULT_255_1_727
10
7.9378939
20
-0.8594894
40
0.3685165
50
81.1057355
51
90.2182941
0
ARC
8
DEFAULT_255_1_727
10
7.9328963
20
-0.823335
40
0.3323787
50
89.380532
51
105.6763843
0
ARC
8
DEFAULT_255_1_727
10
7.9072257
20
-0.7300128
40
0.2355919
50
105.7980479
51
149.7388427
0
ARC
8
DEFAULT_255_1_727
10
8.0562025
20
-0.8195623
40
0.4094029
50
149.4209439
51
163.6283228
0
ARC
8
DEFAULT_255_1_727
10
8.3488974
20
-0.9088296
40
0.7153983
50
163.3763017
51
172.1412252
0
ARC
8
DEFAULT_255_1_727
10
8.810979
20
-0.9750122
40
1.1821917
50
172.0258898
51
178.0703644
0
ARC
8
DEFAULT_255_1_727
10
9.2361452
20
-0.9951456
40
1.6078052
50
177.8634694
51
179.5037522
0
ARC
8
DEFAULT_255_1_727
10
9.0850942
20
-1.3191408
40
1.4567027
50
179.7996446
51
185.2459309
0
ARC
8
DEFAULT_255_1_727
10
8.5190471
20
-1.372742
40
0.8881272
50
185.1412569
51
193.0079985
0
ARC
8
DEFAULT_255_1_727
10
8.1489581
20
-1.4602223
40
0.5078482
50
192.7898914
51
205.2508471
0
ARC
8
DEFAULT_255_1_727
10
8.0024277
20
-1.52565
40
0.3474247
50
205.8002347
51
211.2539719
0
ARC
8
DEFAULT_255_1_727
10
7.9291586
20
-1.5747507
40
0.2593439
50
210.3789333
51
238.4010183
0
ARC
8
DEFAULT_255_1_727
10
7.9264333
20
-1.5681983
40
0.2635597
50
239.6521041
51
265.9794539
0
ARC
8
DEFAULT_255_1_727
10
7.938359
20
-1.4741027
40
0.3582992
50
265.1320652
51
270.0607081
0
ARC
8
DEFAULT_255_1_727
10
7.9423907
20
-1.5194597
40
0.3129634
50
269.3313984
51
287.2178738
0
ARC
8
DEFAULT_255_1_727
10
7.9616891
20
-1.5899111
40
0.2399689
50
287.7957924
51
329.0808573
0
ARC
8
DEFAULT_255_1_727
10
7.8276248
20
-1.5062376
40
0.3979863
50
328.6638017
51
343.3323825
0
ARC
8
DEFAULT_255_1_727
10
7.5234327
20
-1.4114744
40
0.7165862
50
343.0498499
51
351.9393121
0
ARC
8
DEFAULT_255_1_727
10
7.0379922
20
-1.3399129
40
1.2072684
50
351.8071318
51
357.7956053
0
ARC
8
DEFAULT_255_1_727
10
6.5853947
20
-1.3164457
40
1.6604445
50
357.5871553
51
359.2679674
0
LINE
8
DEFAULT_255_1_727
10
9.7928975
20
-1.8099135
11
9.7928975
21
-1.9797
0
LINE
8
DEFAULT_255_1_727
10
9.7928975
20
-1.9797
11
8.7202064
21
-1.9797
0
LINE
8
DEFAULT_255_1_727
10
8.7202064
20
-1.9797
11
8.7202064
21
-1.8301529
0
LINE
8
DEFAULT_255_1_727
10
8.7202064
20
-1.8301529
11
9.2869111
21
-1.2004811
0
LINE
8
DEFAULT_255_1_727
10
8.8967395
20
-0.8249268
11
8.6887229
21
-0.8249268
0
LINE
8
DEFAULT_255_1_727
10
9.4094723
20
-1.3342863
11
8.9709508
21
-1.8099135
0
LINE
8
DEFAULT_255_1_727
10
8.9709508
20
-1.8099135
11
9.7928975
21
-1.8099135
0
ARC
8
DEFAULT_255_1_727
10
7.3984755
20
0.4694881
40
2.5209097
50
318.5132362
51
320.7829949
0
ARC
8
DEFAULT_255_1_727
10
8.1384236
20
-0.1327535
40
1.5668576
50
320.7373513
51
323.9736003
0
ARC
8
DEFAULT_255_1_727
10
8.68718
20
-0.5303539
40
0.8892018
50
323.8964264
51
328.6418515
0
ARC
8
DEFAULT_255_1_727
10
8.9737013
20
-0.7070818
40
0.5525687
50
328.8297143
51
331.7892902
0
ARC
8
DEFAULT_255_1_727
10
9.1133791
20
-0.7791607
40
0.3954176
50
331.425468
51
352.9365479
0
ARC
8
DEFAULT_255_1_727
10
9.1324899
20
-0.7834364
40
0.3759307
50
353.2250988
51
0.0172214
0
ARC
8
DEFAULT_255_1_727
10
9.1618746
20
-0.7802173
40
0.34656
50
359.4864688
51
15.9341108
0
ARC
8
DEFAULT_255_1_727
10
9.2328477
20
-0.7611299
40
0.273076
50
16.1712645
51
43.5285896
0
ARC
8
DEFAULT_255_1_727
10
9.2436678
20
-0.7503116
40
0.2577806
50
43.4415446
51
83.1661814
0
ARC
8
DEFAULT_255_1_727
10
9.2248979
20
-0.8534599
40
0.3624853
50
82.1603938
51
90.1507936
0
ARC
8
DEFAULT_255_1_727
10
9.2204746
20
-0.9286169
40
0.4376549
50
89.5458081
51
102.5418977
0
ARC
8
DEFAULT_255_1_727
10
9.1864708
20
-0.7843208
40
0.2894239
50
102.1740684
51
129.2060402
0
ARC
8
DEFAULT_255_1_727
10
9.1754652
20
-0.7669468
40
0.2690156
50
129.7287926
51
135.753578
0
ARC
8
DEFAULT_255_1_727
10
9.1924348
20
-0.7804861
40
0.2906266
50
136.1757962
51
166.3673326
0
ARC
8
DEFAULT_255_1_727
10
9.333402
20
-0.8182653
40
0.4365405
50
165.9093384
51
178.8683246
0
ARC
8
DEFAULT_255_1_727
10
9.4544813
20
-0.8248453
40
0.5577419
50
178.4381657
51
180.0083725
0
ARC
8
DEFAULT_255_1_727
10
9.2582864
20
-0.8193791
40
0.5695906
50
163.2877865
51
180.5580505
0
ARC
8
DEFAULT_255_1_727
10
9.1460446
20
-0.7884936
40
0.4532164
50
133.4541011
51
162.9469794
0
ARC
8
DEFAULT_255_1_727
10
9.1710406
20
-0.815073
40
0.4897027
50
100.7869823
51
133.4382664
0
ARC
8
DEFAULT_255_1_727
10
9.2197279
20
-1.0318998
40
0.7118473
50
89.6606571
51
101.3702213
0
ARC
8
DEFAULT_255_1_727
10
9.2290114
20
-1.0233433
40
0.7032967
50
78.2173995
51
90.4128397
0
ARC
8
DEFAULT_255_1_727
10
9.2787223
20
-0.7959432
40
0.4705424
50
55.9268286
51
78.4887727
0
ARC
8
DEFAULT_255_1_727
10
9.3061883
20
-0.7485722
40
0.4159334
50
47.9297448
51
55.4048772
0
ARC
8
DEFAULT_255_1_727
10
9.3204422
20
-0.7340822
40
0.3956273
50
4.3347599
51
48.0560488
0
ARC
8
DEFAULT_255_1_727
10
9.1670724
20
-0.7578671
40
0.5504898
50
359.9251389
51
5.596808
0
ARC
8
DEFAULT_255_1_727
10
9.2271032
20
-0.7499972
40
0.4905338
50
337.8914227
51
358.9967136
0
ARC
8
DEFAULT_255_1_727
10
8.8472374
20
-0.6034501
40
0.8976526
50
326.9133626
51
338.3507066
0
ARC
8
DEFAULT_255_1_727
10
8.2892905
20
-0.245851
40
1.5603498
50
319.6471102
51
327.0960052
0
ARC
8
DEFAULT_255_1_727
10
7.7525228
20
0.1969151
40
2.2561159
50
317.2587074
51
319.9044827
0
LINE
8
DEFAULT_255_1_727
10
6.8177979
20
3.8987178
11
6.8177979
21
2.2537
0
LINE
8
DEFAULT_255_1_727
10
6.8177979
20
2.2537
11
6.6086568
21
2.2537
0
LINE
8
DEFAULT_255_1_727
10
6.6086568
20
2.2537
11
6.6086568
21
3.6401025
0
LINE
8
DEFAULT_255_1_727
10
6.6086568
20
3.6401025
11
6.1892504
21
3.4860578
0
LINE
8
DEFAULT_255_1_727
10
6.1892504
20
3.4860578
11
6.1892504
21
3.6749594
0
LINE
8
DEFAULT_255_1_727
10
6.1892504
20
3.6749594
11
6.7851898
21
3.8987178
0
LINE
8
DEFAULT_255_1_727
10
6.7851898
20
3.8987178
11
6.8177979
21
3.8987178
0
LINE
8
DEFAULT_255_1_727
10
8.4538203
20
3.2218205
11
8.4538203
21
2.9519611
0
LINE
8
DEFAULT_255_1_727
10
7.4204838
20
2.9238508
11
7.4204838
21
3.2015811
0
LINE
8
DEFAULT_255_1_727
10
8.2458037
20
2.8957404
11
8.2458037
21
3.2364379
0
LINE
8
DEFAULT_255_1_727
10
7.6285004
20
3.2521797
11
7.6285004
21
2.9193531
0
ARC
8
DEFAULT_255_1_727
10
6.7392444
20
2.9451163
40
1.7145896
50
353.8442294
51
0.2287308
0
ARC
8
DEFAULT_255_1_727
10
7.3887751
20
2.8725986
40
1.0610306
50
344.4934877
51
353.9764852
0
ARC
8
DEFAULT_255_1_727
10
7.8077322
20
2.7534852
40
0.6254849
50
329.2804132
51
344.7472651
0
ARC
8
DEFAULT_255_1_727
10
7.9465413
20
2.6773127
40
0.4672735
50
324.9361318
51
328.6151944
0
ARC
8
DEFAULT_255_1_727
10
7.9995198
20
2.6402906
40
0.4026412
50
280.5802284
51
324.9172797
0
ARC
8
DEFAULT_255_1_727
10
7.9433518
20
2.8741856
40
0.6429899
50
269.5978426
51
281.6733971
0
ARC
8
DEFAULT_255_1_727
10
7.933258
20
2.857371
40
0.6261841
50
256.622693
51
270.5106387
0
ARC
8
DEFAULT_255_1_727
10
7.8769788
20
2.6406329
40
0.4023321
50
215.8618116
51
257.2788066
0
ARC
8
DEFAULT_255_1_727
10
8.0199193
20
2.7365449
40
0.5743956
50
197.9694152
51
215.2624071
0
ARC
8
DEFAULT_255_1_727
10
8.367859
20
2.8539718
40
0.9416005
50
187.8818609
51
198.2344986
0
ARC
8
DEFAULT_255_1_727
10
8.9219403
20
2.9339524
40
1.5014187
50
180.8976002
51
188.0056278
0
ARC
8
DEFAULT_255_1_727
10
9.3170929
20
2.948517
40
1.8967695
50
180.7451141
51
181.1505118
0
ARC
8
DEFAULT_255_1_727
10
9.0931863
20
3.2083394
40
1.6727162
50
173.7675822
51
180.2314943
0
ARC
8
DEFAULT_255_1_727
10
8.4606903
20
3.2798243
40
1.0362006
50
164.3058602
51
173.9001481
0
ARC
8
DEFAULT_255_1_727
10
8.0530267
20
3.3972791
40
0.6119696
50
148.7921878
51
164.5682243
0
ARC
8
DEFAULT_255_1_727
10
7.920023
20
3.4715173
40
0.4597782
50
144.5895323
51
148.116804
0
ARC
8
DEFAULT_255_1_727
10
7.8717748
20
3.5051729
40
0.4009541
50
101.6439851
51
144.514308
0
ARC
8
DEFAULT_255_1_727
10
7.9312817
20
3.2686844
40
0.6446724
50
89.5282337
51
102.5818342
0
ARC
8
DEFAULT_255_1_727
10
7.9423575
20
3.2632248
40
0.6501359
50
77.0437779
51
90.5083053
0
ARC
8
DEFAULT_255_1_727
10
7.9986341
20
3.4931731
40
0.4134372
50
48.2778814
51
77.4994417
0
ARC
8
DEFAULT_255_1_727
10
8.0088067
20
3.5112555
40
0.3931958
50
36.3141287
51
47.6306642
0
ARC
8
DEFAULT_255_1_727
10
7.8871888
20
3.429322
40
0.539749
50
18.29312
51
35.6768736
0
ARC
8
DEFAULT_255_1_727
10
7.531128
20
3.3071115
40
0.9161849
50
8.0247789
51
18.560443
0
ARC
8
DEFAULT_255_1_727
10
6.9483442
20
3.2210456
40
1.5052819
50
1.1274225
51
8.1719204
0
ARC
8
DEFAULT_255_1_727
10
6.495404
20
3.2032743
40
1.9585041
50
0.5425762
51
1.3865004
0
ARC
8
DEFAULT_255_1_727
10
6.7501909
20
3.2414172
40
1.4956211
50
359.8092475
51
4.9405718
0
ARC
8
DEFAULT_255_1_727
10
7.339675
20
3.2940239
40
0.903798
50
4.836389
51
12.29042
0
ARC
8
DEFAULT_255_1_727
10
7.7254077
20
3.3799665
40
0.5086148
50
12.0805356
51
23.817424
0
ARC
8
DEFAULT_255_1_727
10
7.8896883
20
3.4495189
40
0.3302491
50
24.2878004
51
31.3934506
0
ARC
8
DEFAULT_255_1_727
10
7.9631759
20
3.4976005
40
0.2424888
50
30.7407343
51
82.465738
0
ARC
8
DEFAULT_255_1_727
10
7.9379939
20
3.3739106
40
0.3685165
50
81.1057355
51
90.2182941
0
ARC
8
DEFAULT_255_1_727
10
7.9329963
20
3.410065
40
0.3323787
50
89.380532
51
105.6763843
0
ARC
8
DEFAULT_255_1_727
10
7.9073257
20
3.5033872
40
0.2355919
50
105.7980479
51
149.7388427
0
ARC
8
DEFAULT_255_1_727
10
8.0563025
20
3.4138377
40
0.4094029
50
149.4209439
51
163.6283228
0
ARC
8
DEFAULT_255_1_727
10
8.3489974
20
3.3245704
40
0.7153983
50
163.3763017
51
172.1412252
0
ARC
8
DEFAULT_255_1_727
10
8.811079
20
3.2583878
40
1.1821917
50
172.0258898
51
178.0703644
0
ARC
8
DEFAULT_255_1_727
10
9.2362452
20
3.2382544
40
1.6078052
50
177.8634694
51
179.5037522
0
ARC
8
DEFAULT_255_1_727
10
9.0851942
20
2.9142592
40
1.4567027
50
179.7996446
51
185.2459309
0
ARC
8
DEFAULT_255_1_727
10
8.5191471
20
2.860658
40
0.8881272
50
185.1412569
51
193.0079985
0
ARC
8
DEFAULT_255_1_727
10
8.1490581
20
2.7731777
40
0.5078482
50
192.7898914
51
205.2508471
0
ARC
8
DEFAULT_255_1_727
10
8.0025277
20
2.70775
40
0.3474247
50
205.8002347
51
211.2539719
0
ARC
8
DEFAULT_255_1_727
10
7.9292586
20
2.6586493
40
0.2593439
50
210.3789333
51
238.4010183
0
ARC
8
DEFAULT_255_1_727
10
7.9265333
20
2.6652017
40
0.2635597
50
239.6521041
51
265.9794539
0
ARC
8
DEFAULT_255_1_727
10
7.938459
20
2.7592973
40
0.3582992
50
265.1320652
51
270.0607081
0
ARC
8
DEFAULT_255_1_727
10
7.9424907
20
2.7139403
40
0.3129634
50
269.3313984
51
287.2178738
0
ARC
8
DEFAULT_255_1_727
10
7.9617891
20
2.6434889
40
0.2399689
50
287.7957924
51
329.0808573
0
ARC
8
DEFAULT_255_1_727
10
7.8277248
20
2.7271624
40
0.3979863
50
328.6638017
51
343.3323825
0
ARC
8
DEFAULT_255_1_727
10
7.5235327
20
2.8219256
40
0.7165862
50
343.0498499
51
351.9393121
0
ARC
8
DEFAULT_255_1_727
10
7.0380922
20
2.8934871
40
1.2072684
50
351.8071318
51
357.7956053
0
ARC
8
DEFAULT_255_1_727
10
6.5854947
20
2.9169543
40
1.6604445
50
357.5871553
51
359.2679674
0
LINE
8
DEFAULT_255_1_727
10
9.4039502
20
3.8987178
11
9.4039502
21
2.2537
0
LINE
8
DEFAULT_255_1_727
10
9.4039502
20
2.2537
11
9.1948092
21
2.2537
0
LINE
8
DEFAULT_255_1_727
10
9.1948092
20
2.2537
11
9.1948092
21
3.6401025
0
LINE
8
DEFAULT_255_1_727
10
9.1948092
20
3.6401025
11
8.7754027
21
3.4860578
0
LINE
8
DEFAULT_255_1_727
10
8.7754027
20
3.4860578
11
8.7754027
21
3.6749594
0
LINE
8
DEFAULT_255_1_727
10
8.7754027
20
3.6749594
11
9.3713422
21
3.8987178
0
LINE
8
DEFAULT_255_1_727
10
9.3713422
20
3.8987178
11
9.4039502
21
3.8987178
0
ENDSEC
0
EOF