0
SECTION
2
HEADER
9
$MEASUREMENT
70
1
0
ENDSEC
0
SECTION
2
TABLES
0
TABLE
2
LTYPE
0
LTYPE
72
65
70
64
2
CONTINUOUS
3
______
73
0
40
0
0
ENDTAB
0
TABLE
2
LAYER
0
LAYER
2
DEFAULT_255_2_778
70
0
62
255
6
CONTINUOUS
0
LAYER
2
DEFAULT_255_1_234
70
0
62
255
6
CONTINUOUS
0
LAYER
2
DEFAULT_255_1_604
70
0
62
255
6
CONTINUOUS
0
ENDTAB
0
ENDSEC
0
SECTION
2
ENTITIES
0
ARC
8
DEFAULT_255_2_778
10
4.0984002
20
80.568629
40
1.3202532
50
148.7968675
51
180.1300552
0
ARC
8
DEFAULT_255_2_778
10
4.0975406
20
80.5690624
40
1.3192936
50
97.5665172
51
148.7936255
0
ARC
8
DEFAULT_255_2_778
10
4.100646
20
80.5423414
40
1.3461909
50
89.9827905
51
97.547783
0
ARC
8
DEFAULT_255_2_778
10
25.2707472
20
80.5682823
40
1.3202532
50
58.7968675
51
90.1300552
0
ARC
8
DEFAULT_255_2_778
10
25.2711805
20
80.5691419
40
1.3192936
50
7.5665172
51
58.7936255
0
ARC
8
DEFAULT_255_2_778
10
25.2444595
20
80.5660365
40
1.3461909
50
359.9827905
51
7.547783
0
ARC
8
DEFAULT_255_2_778
10
25.2702612
20
-1.4581532
40
1.3203925
50
328.79856
51
0.1295454
0
ARC
8
DEFAULT_255_2_778
10
25.2711931
20
-1.4586713
40
1.3193271
50
277.5692592
51
328.7968374
0
ARC
8
DEFAULT_255_2_778
10
25.2681562
20
-1.4322065
40
1.3459613
50
269.9827213
51
277.549011
0
ARC
8
DEFAULT_255_2_778
10
4.0980637
20
-1.4580421
40
1.3201292
50
238.7930849
51
270.129625
0
ARC
8
DEFAULT_255_2_778
10
4.0977839
20
-1.4586561
40
1.319459
50
187.5665868
51
238.7896597
0
ARC
8
DEFAULT_255_2_778
10
4.124383
20
-1.4555714
40
1.3462328
50
179.9828266
51
187.5476648
0
LINE
8
DEFAULT_255_2_778
10
4.1010503
20
81.8885322
11
25.2677503
21
81.8885322
0
LINE
8
DEFAULT_255_2_778
10
26.5906503
20
80.5656322
11
26.5906503
21
-1.4551678
0
LINE
8
DEFAULT_255_2_778
10
25.2677503
20
-2.7781678
11
4.1010503
21
-2.7781678
0
LINE
8
DEFAULT_255_2_778
10
2.7781503
20
-1.4551678
11
2.7781503
21
80.5656322
0
LINE
8
DEFAULT_255_1_234
10
4.4133489
20
77.2473211
11
4.4133489
21
76.2039983
0
LINE
8
DEFAULT_255_1_234
10
4.4133489
20
76.2039983
11
4.9675389
21
76.2039983
0
LINE
8
DEFAULT_255_1_234
10
4.9675389
20
76.2039983
11
4.9675389
21
76.0779
0
LINE
8
DEFAULT_255_1_234
10
4.9675389
20
76.0779
11
4.2583364
21
76.0779
0
LINE
8
DEFAULT_255_1_234
10
4.2583364
20
76.0779
11
4.2583364
21
77.2473211
0
LINE
8
DEFAULT_255_1_234
10
4.2583364
20
77.2473211
11
4.4133489
21
77.2473211
0
LINE
8
DEFAULT_255_1_234
10
5.5932113
20
77.2529433
11
5.5932113
21
76.0779
0
LINE
8
DEFAULT_255_1_234
10
5.5932113
20
76.0779
11
5.4438209
21
76.0779
0
LINE
8
DEFAULT_255_1_234
10
5.4438209
20
76.0779
11
5.4438209
21
77.0682133
0
LINE
8
DEFAULT_255_1_234
10
5.4438209
20
77.0682133
11
5.1442371
21
76.9581785
0
LINE
8
DEFAULT_255_1_234
10
5.1442371
20
76.9581785
11
5.1442371
21
77.0931117
0
LINE
8
DEFAULT_255_1_234
10
5.1442371
20
77.0931117
11
5.5699192
21
77.2529433
0
LINE
8
DEFAULT_255_1_234
10
5.5699192
20
77.2529433
11
5.5932113
21
77.2529433
0
LINE
8
DEFAULT_255_1_234
10
6.5610357
20
77.2473211
11
6.0735092
21
75.9775033
0
LINE
8
DEFAULT_255_1_234
10
6.0735092
20
75.9775033
11
5.9458046
21
75.9775033
0
LINE
8
DEFAULT_255_1_234
10
5.9458046
20
75.9775033
11
6.4341343
21
77.2473211
0
LINE
8
DEFAULT_255_1_234
10
6.4341343
20
77.2473211
11
6.5610357
21
77.2473211
0
LINE
8
DEFAULT_255_1_234
10
7.4276603
20
76.0779
11
7.1738574
21
76.5509694
0
LINE
8
DEFAULT_255_1_234
10
7.1738574
20
76.5509694
11
6.8991719
21
76.5509694
0
LINE
8
DEFAULT_255_1_234
10
6.8991719
20
76.5509694
11
6.8991719
21
76.0779
0
LINE
8
DEFAULT_255_1_234
10
6.8991719
20
76.0779
11
6.7441594
21
76.0779
0
LINE
8
DEFAULT_255_1_234
10
6.7441594
20
76.0779
11
6.7441594
21
77.2473211
0
LINE
8
DEFAULT_255_1_234
10
6.7441594
20
77.2473211
11
7.1312892
21
77.2473211
0
LINE
8
DEFAULT_255_1_234
10
7.3184287
20
76.5838995
11
7.5931141
21
76.0875381
0
LINE
8
DEFAULT_255_1_234
10
7.5931141
20
76.0875381
11
7.5931141
21
76.0779
0
LINE
8
DEFAULT_255_1_234
10
7.5931141
20
76.0779
11
7.4276603
21
76.0779
0
LINE
8
DEFAULT_255_1_234
10
6.8991719
20
77.1204196
11
6.8991719
21
76.6770677
0
LINE
8
DEFAULT_255_1_234
10
6.8991719
20
76.6770677
11
7.1361082
21
76.6770677
0
LINE
8
DEFAULT_255_1_234
10
7.135305
20
77.1204196
11
6.8991719
21
77.1204196
0
ARC
8
DEFAULT_255_1_234
10
7.1354531
20
76.5511761
40
0.6961575
50
80.653586
51
90.3427061
0
ARC
8
DEFAULT_255_1_234
10
7.1774006
20
76.7974348
40
0.4463577
50
65.6987447
51
80.8329603
0
ARC
8
DEFAULT_255_1_234
10
7.2251646
20
76.9069322
40
0.3269094
50
50.0017161
51
65.4305835
0
ARC
8
DEFAULT_255_1_234
10
7.2470111
20
76.9364482
40
0.2902647
50
11.628416
51
49.5603263
0
ARC
8
DEFAULT_255_1_234
10
7.0934447
20
76.8989299
40
0.4482792
50
359.5655735
51
12.3691
0
ARC
8
DEFAULT_255_1_234
10
7.2011306
20
76.8926644
40
0.3405924
50
341.9983148
51
0.4822259
0
ARC
8
DEFAULT_255_1_234
10
7.2406147
20
76.8819471
40
0.2997359
50
323.8609373
51
341.61416
0
ARC
8
DEFAULT_255_1_234
10
7.2104391
20
76.9052484
40
0.3378487
50
296.7018614
51
323.6876402
0
ARC
8
DEFAULT_255_1_234
10
7.1663286
20
76.9841235
40
0.4281516
50
290.8086567
51
297.2323311
0
ARC
8
DEFAULT_255_1_234
10
7.1386815
20
77.0364351
40
0.3593766
50
269.589728
51
281.8058135
0
ARC
8
DEFAULT_255_1_234
10
7.1637715
20
76.9216743
40
0.2419125
50
281.5501019
51
303.9357432
0
ARC
8
DEFAULT_255_1_234
10
7.1774902
20
76.8978936
40
0.2145323
50
304.4415616
51
311.2106213
0
ARC
8
DEFAULT_255_1_234
10
7.1907008
20
76.8839632
40
0.1953505
50
310.9875673
51
356.2715578
0
ARC
8
DEFAULT_255_1_234
10
7.1150656
20
76.8952422
40
0.2716331
50
354.9348262
51
0.0609027
0
ARC
8
DEFAULT_255_1_234
10
7.0963531
20
76.8979435
40
0.2903554
50
359.5239371
51
12.8808918
0
ARC
8
DEFAULT_255_1_234
10
7.1941086
20
76.9218728
40
0.1897315
50
12.4173452
51
43.1022135
0
ARC
8
DEFAULT_255_1_234
10
7.2002691
20
76.9255724
40
0.1827118
50
43.5751728
51
48.203944
0
ARC
8
DEFAULT_255_1_234
10
7.1833183
20
76.9034302
40
0.2105272
50
48.7809703
51
72.6969569
0
ARC
8
DEFAULT_255_1_234
10
7.1478807
20
76.795882
40
0.3237537
50
72.3702241
51
84.8791103
0
ARC
8
DEFAULT_255_1_234
10
7.1331284
20
76.6616769
40
0.4587478
50
84.5400526
51
89.7281406
0
LINE
8
DEFAULT_255_1_234
10
4.4285489
20
66.6640211
11
4.4285489
21
65.6206983
0
LINE
8
DEFAULT_255_1_234
10
4.4285489
20
65.6206983
11
4.9827389
21
65.6206983
0
LINE
8
DEFAULT_255_1_234
10
4.9827389
20
65.6206983
11
4.9827389
21
65.4946
0
LINE
8
DEFAULT_255_1_234
10
4.9827389
20
65.4946
11
4.2735364
21
65.4946
0
LINE
8
DEFAULT_255_1_234
10
4.2735364
20
65.4946
11
4.2735364
21
66.6640211
0
LINE
8
DEFAULT_255_1_234
10
4.2735364
20
66.6640211
11
4.4285489
21
66.6640211
0
LINE
8
DEFAULT_255_1_234
10
5.3361354
20
66.0303169
11
5.3361354
21
66.1515962
0
LINE
8
DEFAULT_255_1_234
10
5.3361354
20
66.1515962
11
5.4477765
21
66.1515962
0
LINE
8
DEFAULT_255_1_234
10
5.2574243
20
66.3572087
11
5.1088372
21
66.3572087
0
LINE
8
DEFAULT_255_1_234
10
5.0983959
20
65.8030188
11
5.2477862
21
65.8030188
0
LINE
8
DEFAULT_255_1_234
10
5.4477765
20
66.0303169
11
5.3361354
21
66.0303169
0
ARC
8
DEFAULT_255_1_234
10
5.4448632
20
66.4908713
40
0.3392876
50
270.4919872
51
281.8951556
0
ARC
8
DEFAULT_255_1_234
10
5.4689893
20
66.3806702
40
0.2264817
50
281.6691735
51
301.2943132
0
ARC
8
DEFAULT_255_1_234
10
5.4860104
20
66.3495304
40
0.1910381
50
301.7833094
51
311.7545298
0
ARC
8
DEFAULT_255_1_234
10
5.4951679
20
66.3393748
40
0.1773635
50
311.7323931
51
354.2802411
0
ARC
8
DEFAULT_255_1_234
10
5.4225305
20
66.3518722
40
0.2509385
50
353.0937916
51
0.1181479
0
ARC
8
DEFAULT_255_1_234
10
5.3764089
20
66.3566386
40
0.2970898
50
359.1805295
51
15.0453146
0
ARC
8
DEFAULT_255_1_234
10
5.5109926
20
66.3958992
40
0.1569564
50
13.9577229
51
77.6713066
0
ARC
8
DEFAULT_255_1_234
10
5.4723455
20
66.2573949
40
0.3006298
50
76.1116566
51
90.7026153
0
ARC
8
DEFAULT_255_1_234
10
5.4664294
20
66.2847545
40
0.2732568
50
89.5324876
51
103.531937
0
ARC
8
DEFAULT_255_1_234
10
5.4463738
20
66.3646884
40
0.1908508
50
103.2931773
51
133.5619022
0
ARC
8
DEFAULT_255_1_234
10
5.4419226
20
66.3706375
40
0.1834746
50
133.8349307
51
173.5344437
0
ARC
8
DEFAULT_255_1_234
10
5.5142269
20
66.3578213
40
0.2568033
50
172.5096846
51
180.1366907
0
ARC
8
DEFAULT_255_1_234
10
5.4191163
20
66.3612622
40
0.3103056
50
155.3484492
51
180.7484736
0
ARC
8
DEFAULT_255_1_234
10
5.4142252
20
66.3583846
40
0.3070957
50
131.5744599
51
154.4798489
0
ARC
8
DEFAULT_255_1_234
10
5.44554
20
66.326731
40
0.3515643
50
96.9875458
51
131.9690667
0
ARC
8
DEFAULT_255_1_234
10
5.467488
20
66.2021636
40
0.4779224
50
89.8596053
51
97.7825159
0
ARC
8
DEFAULT_255_1_234
10
5.4722943
20
66.1759616
40
0.5041361
50
78.3655447
51
90.4131539
0
ARC
8
DEFAULT_255_1_234
10
5.5080861
20
66.3418887
40
0.3344039
50
56.6229102
51
78.638727
0
ARC
8
DEFAULT_255_1_234
10
5.5295804
20
66.3794805
40
0.2912001
50
47.0253525
51
56.0854072
0
ARC
8
DEFAULT_255_1_234
10
5.5315584
20
66.3834223
40
0.2869704
50
10.9208013
51
46.7778124
0
ARC
8
DEFAULT_255_1_234
10
5.3951651
20
66.3518857
40
0.426899
50
359.6364486
51
11.6087304
0
ARC
8
DEFAULT_255_1_234
10
5.5786495
20
66.3503752
40
0.243409
50
332.3549906
51
359.7179418
0
ARC
8
DEFAULT_255_1_234
10
5.5136096
20
66.3812142
40
0.3153459
50
325.2333722
51
332.8745602
0
ARC
8
DEFAULT_255_1_234
10
5.528872
20
66.3705828
40
0.2967456
50
292.9802137
51
325.2392345
0
ARC
8
DEFAULT_255_1_234
10
5.5014094
20
66.4239863
40
0.3566604
50
292.5402179
51
293.6924929
0
ARC
8
DEFAULT_255_1_234
10
5.540669
20
65.7785091
40
0.3307468
50
57.6435486
51
72.8625112
0
ARC
8
DEFAULT_255_1_234
10
5.576119
20
65.8359549
40
0.2632492
50
36.7248896
51
57.4697979
0
ARC
8
DEFAULT_255_1_234
10
5.5749822
20
65.837222
40
0.2634081
50
8.0545065
51
36.356114
0
ARC
8
DEFAULT_255_1_234
10
5.4887007
20
65.8217174
40
0.3510261
50
359.8320645
51
8.5869982
0
ARC
8
DEFAULT_255_1_234
10
5.4511784
20
65.8169101
40
0.3885653
50
343.9829931
51
0.5571613
0
ARC
8
DEFAULT_255_1_234
10
5.5397981
20
65.7926438
40
0.2966924
50
311.6359546
51
343.7651759
0
ARC
8
DEFAULT_255_1_234
10
5.501955
20
65.8353102
40
0.3537231
50
279.7829875
51
311.6255694
0
ARC
8
DEFAULT_255_1_234
10
5.4718326
20
65.979028
40
0.5004971
50
269.7286406
51
280.3856417
0
ARC
8
DEFAULT_255_1_234
10
5.4656399
20
65.9748996
40
0.4963778
50
256.6828919
51
270.4412052
0
ARC
8
DEFAULT_255_1_234
10
5.4317695
20
65.8364394
40
0.3538406
50
229.4223008
51
256.8556159
0
ARC
8
DEFAULT_255_1_234
10
5.3903087
20
65.7897736
40
0.2914296
50
181.818294
51
229.6455059
0
ARC
8
DEFAULT_255_1_234
10
5.4943044
20
65.8028496
40
0.3959084
50
179.9755256
51
183.2323064
0
ARC
8
DEFAULT_255_1_234
10
5.4770789
20
65.8008037
40
0.2293034
50
179.4465117
51
196.2869258
0
ARC
8
DEFAULT_255_1_234
10
5.4283198
20
65.7874651
40
0.1787621
50
196.5661473
51
227.705904
0
ARC
8
DEFAULT_255_1_234
10
5.4447292
20
65.8058155
40
0.2033784
50
227.7652068
51
257.8762805
0
ARC
8
DEFAULT_255_1_234
10
5.4672263
20
65.9001156
40
0.3003081
50
257.4584385
51
270.426602
0
ARC
8
DEFAULT_255_1_234
10
5.4717829
20
65.9290996
40
0.329292
50
269.5962073
51
280.8789248
0
ARC
8
DEFAULT_255_1_234
10
5.4947357
20
65.8144685
40
0.2123908
50
280.6346389
51
299.8595945
0
ARC
8
DEFAULT_255_1_234
10
5.5138264
20
65.7782212
40
0.171457
50
300.3576302
51
314.5517981
0
ARC
8
DEFAULT_255_1_234
10
5.5055324
20
65.7842919
40
0.1816095
50
315.0728369
51
345.0431014
0
ARC
8
DEFAULT_255_1_234
10
5.4132139
20
65.8111841
40
0.2777492
50
344.5986631
51
357.9269593
0
ARC
8
DEFAULT_255_1_234
10
5.3236465
20
65.8173276
40
0.3674917
50
357.4748886
51
0.0231117
0
ARC
8
DEFAULT_255_1_234
10
5.4259574
20
65.8197679
40
0.2651907
50
359.5047933
51
13.4239635
0
ARC
8
DEFAULT_255_1_234
10
5.5126218
20
65.8419478
40
0.1757509
50
12.9498199
51
48.7551375
0
ARC
8
DEFAULT_255_1_234
10
5.4943952
20
65.81704
40
0.2065134
50
49.5088623
51
72.1836453
0
ARC
8
DEFAULT_255_1_234
10
5.4586104
20
65.7108291
40
0.3185836
50
71.9010081
51
84.3554254
0
ARC
8
DEFAULT_255_1_234
10
5.4424736
20
65.5747326
40
0.4556151
50
84.0193428
51
89.333121
0
LINE
8
DEFAULT_255_1_234
10
6.5762357
20
66.6640211
11
6.0887092
21
65.3942033
0
LINE
8
DEFAULT_255_1_234
10
6.0887092
20
65.3942033
11
5.9610046
21
65.3942033
0
LINE
8
DEFAULT_255_1_234
10
5.9610046
20
65.3942033
11
6.4493343
21
66.6640211
0
LINE
8
DEFAULT_255_1_234
10
6.4493343
20
66.6640211
11
6.5762357
21
66.6640211
0
LINE
8
DEFAULT_255_1_234
10
7.5681554
20
66.6640211
11
7.5681554
21
66.5371196
0
LINE
8
DEFAULT_255_1_234
10
7.5681554
20
66.5371196
11
7.1922701
21
66.5371196
0
LINE
8
DEFAULT_255_1_234
10
7.1922701
20
66.5371196
11
7.1922701
21
65.4946
0
LINE
8
DEFAULT_255_1_234
10
7.1922701
20
65.4946
11
7.0388639
21
65.4946
0
LINE
8
DEFAULT_255_1_234
10
7.0388639
20
65.4946
11
7.0388639
21
66.5371196
0
LINE
8
DEFAULT_255_1_234
10
7.0388639
20
66.5371196
11
6.6637817
21
66.5371196
0
LINE
8
DEFAULT_255_1_234
10
6.6637817
20
66.5371196
11
6.6637817
21
66.6640211
0
LINE
8
DEFAULT_255_1_234
10
6.6637817
20
66.6640211
11
7.5681554
21
66.6640211
0
LINE
8
DEFAULT_255_1_234
10
4.4313489
20
71.9556211
11
4.4313489
21
70.9122983
0
LINE
8
DEFAULT_255_1_234
10
4.4313489
20
70.9122983
11
4.9855389
21
70.9122983
0
LINE
8
DEFAULT_255_1_234
10
4.9855389
20
70.9122983
11
4.9855389
21
70.7862
0
LINE
8
DEFAULT_255_1_234
10
4.9855389
20
70.7862
11
4.2763364
21
70.7862
0
LINE
8
DEFAULT_255_1_234
10
4.2763364
20
70.7862
11
4.2763364
21
71.9556211
0
LINE
8
DEFAULT_255_1_234
10
4.2763364
20
71.9556211
11
4.4313489
21
71.9556211
0
LINE
8
DEFAULT_255_1_234
10
5.8891094
20
70.9074792
11
5.8891094
21
70.7862
0
LINE
8
DEFAULT_255_1_234
10
5.8891094
20
70.7862
11
5.1228816
21
70.7862
0
LINE
8
DEFAULT_255_1_234
10
5.1228816
20
70.7862
11
5.1228816
21
70.8930221
0
LINE
8
DEFAULT_255_1_234
10
5.1228816
20
70.8930221
11
5.5276812
21
71.3427995
0
LINE
8
DEFAULT_255_1_234
10
5.2489799
20
71.6110595
11
5.1003927
21
71.6110595
0
LINE
8
DEFAULT_255_1_234
10
5.6152271
20
71.2472218
11
5.3019894
21
70.9074792
0
LINE
8
DEFAULT_255_1_234
10
5.3019894
20
70.9074792
11
5.8891094
21
70.9074792
0
ARC
8
DEFAULT_255_1_234
10
4.1786645
20
72.5357527
40
1.8008286
50
318.5132453
51
320.7828378
0
ARC
8
DEFAULT_255_1_234
10
4.707362
20
72.1054426
40
1.1191493
50
320.7372736
51
323.9737074
0
ARC
8
DEFAULT_255_1_234
10
5.0993476
20
71.8214361
40
0.6350923
50
323.8961724
51
328.6421089
0
ARC
8
DEFAULT_255_1_234
10
5.3040072
20
71.6952031
40
0.3946393
50
328.8299013
51
331.789948
0
ARC
8
DEFAULT_255_1_234
10
5.403725
20
71.6437509
40
0.2824501
50
331.4255242
51
352.9364833
0
ARC
8
DEFAULT_255_1_234
10
5.4173751
20
71.6406976
40
0.2685315
50
353.2248685
51
0.0169286
0
ARC
8
DEFAULT_255_1_234
10
5.4383627
20
71.642995
40
0.2475536
50
359.4866256
51
15.9339782
0
ARC
8
DEFAULT_255_1_234
10
5.4890613
20
71.6566286
40
0.1950618
50
16.1714718
51
43.5284424
0
ARC
8
DEFAULT_255_1_234
10
5.4967921
20
71.6643573
40
0.184134
50
43.4415429
51
83.1661404
0
ARC
8
DEFAULT_255_1_234
10
5.483384
20
71.5906771
40
0.258926
50
82.160215
51
90.1505798
0
ARC
8
DEFAULT_255_1_234
10
5.4802267
20
71.5369865
40
0.3126255
50
89.5460705
51
102.5418777
0
ARC
8
DEFAULT_255_1_234
10
5.4559353
20
71.6400665
40
0.2067346
50
102.1739365
51
129.2061916
0
ARC
8
DEFAULT_255_1_234
10
5.4480425
20
71.6525094
40
0.1921118
50
129.7279328
51
135.7542026
0
ARC
8
DEFAULT_255_1_234
10
5.4601952
20
71.6428045
40
0.2075944
50
136.175737
51
166.3674722
0
ARC
8
DEFAULT_255_1_234
10
5.5608872
20
71.6158182
40
0.3118201
50
165.9092917
51
178.8683903
0
ARC
8
DEFAULT_255_1_234
10
5.6473733
20
71.6111179
40
0.3983935
50
178.438168
51
180.0083905
0
ARC
8
DEFAULT_255_1_234
10
5.5072335
20
71.6150231
40
0.4068601
50
163.2878735
51
180.5581814
0
ARC
8
DEFAULT_255_1_234
10
5.4270596
20
71.637084
40
0.3237344
50
133.454115
51
162.9470031
0
ARC
8
DEFAULT_255_1_234
10
5.4449138
20
71.6181
40
0.349795
50
100.7869394
51
133.4384016
0
ARC
8
DEFAULT_255_1_234
10
5.4796909
20
71.4632319
40
0.5084616
50
89.6605301
51
101.3704185
0
ARC
8
DEFAULT_255_1_234
10
5.4863248
20
71.4693496
40
0.502348
50
78.2171172
51
90.4130393
0
ARC
8
DEFAULT_255_1_234
10
5.5218326
20
71.6317637
40
0.3361092
50
55.9268222
51
78.4888551
0
ARC
8
DEFAULT_255_1_234
10
5.5414767
20
71.6656324
40
0.2970617
50
47.9292255
51
55.4054003
0
ARC
8
DEFAULT_255_1_234
10
5.5516327
20
71.6759502
40
0.2825983
50
4.3347696
51
48.0560701
0
ARC
8
DEFAULT_255_1_234
10
5.4420721
20
71.6589601
40
0.393225
50
359.925209
51
5.5967654
0
ARC
8
DEFAULT_255_1_234
10
5.4849613
20
71.6645816
40
0.3503892
50
337.8914096
51
358.9967724
0
ARC
8
DEFAULT_255_1_234
10
5.2136025
20
71.7692706
40
0.6412172
50
326.9135351
51
338.3505194
0
ARC
8
DEFAULT_255_1_234
10
4.8150328
20
72.0247284
40
1.1146189
50
319.6472867
51
327.095818
0
ARC
8
DEFAULT_255_1_234
10
4.4317332
20
72.3409
40
1.6114559
50
317.2586784
51
319.9046139
0
LINE
8
DEFAULT_255_1_234
10
6.5790357
20
71.9556211
11
6.0915092
21
70.6858033
0
LINE
8
DEFAULT_255_1_234
10
6.0915092
20
70.6858033
11
5.9638046
21
70.6858033
0
LINE
8
DEFAULT_255_1_234
10
5.9638046
20
70.6858033
11
6.4521343
21
71.9556211
0
LINE
8
DEFAULT_255_1_234
10
6.4521343
20
71.9556211
11
6.5790357
21
71.9556211
0
LINE
8
DEFAULT_255_1_234
10
7.5388285
20
71.6174849
11
7.3838159
21
71.6174849
0
LINE
8
DEFAULT_255_1_234
10
6.6914801
20
71.1251394
11
6.8464926
21
71.1251394
0
ARC
8
DEFAULT_255_1_234
10
7.4496972
20
72.5121768
40
1.252368
50
248.9199003
51
254.1439814
0
ARC
8
DEFAULT_255_1_234
10
7.2816467
20
72.0795234
40
0.788226
50
241.633709
51
249.0064503
0
ARC
8
DEFAULT_255_1_234
10
7.1287861
20
71.7994317
40
0.4691427
50
230.498225
51
241.8087113
0
ARC
8
DEFAULT_255_1_234
10
7.0503436
20
71.6994906
40
0.3421437
50
227.4064532
51
229.9881192
0
ARC
8
DEFAULT_255_1_234
10
7.0015956
20
71.6519088
40
0.2741476
50
200.6781896
51
228.1763934
0
ARC
8
DEFAULT_255_1_234
10
7.0088267
20
71.6504077
40
0.2804109
50
179.5061581
51
199.8694617
0
ARC
8
DEFAULT_255_1_234
10
7.0079018
20
71.657821
40
0.2795204
50
132.4834203
51
181.0242172
0
ARC
8
DEFAULT_255_1_234
10
7.0674601
20
71.6015704
40
0.3612768
50
129.2532479
51
133.4242687
0
ARC
8
DEFAULT_255_1_234
10
7.082105
20
71.5795965
40
0.3875675
50
101.98776
51
128.8742646
0
ARC
8
DEFAULT_255_1_234
10
7.1219661
20
71.4074741
40
0.5642249
50
89.5906553
51
102.3169264
0
ARC
8
DEFAULT_255_1_234
10
7.1290153
20
71.4393148
40
0.5323783
50
77.2360837
51
90.3248275
0
ARC
8
DEFAULT_255_1_234
10
7.1497232
20
71.53604
40
0.4334697
50
63.837784
51
77.0809408
0
ARC
8
DEFAULT_255_1_234
10
7.1774994
20
71.5877911
40
0.3747796
50
45.9864267
51
64.1607727
0
ARC
8
DEFAULT_255_1_234
10
7.2035875
20
71.6175866
40
0.3352302
50
32.2747395
51
45.6547121
0
ARC
8
DEFAULT_255_1_234
10
7.2102316
20
71.619488
40
0.328603
50
359.6507365
51
32.6130309
0
ARC
8
DEFAULT_255_1_234
10
7.1159411
20
71.619966
40
0.2678863
50
359.469343
51
14.9832209
0
ARC
8
DEFAULT_255_1_234
10
7.1864474
20
71.6388539
40
0.1948938
50
14.9781179
51
48.2004265
0
ARC
8
DEFAULT_255_1_234
10
7.1700118
20
71.6181983
40
0.2212521
50
48.5927837
51
74.1241538
0
ARC
8
DEFAULT_255_1_234
10
7.1366607
20
71.5081248
40
0.3362561
50
73.7888341
51
86.6652678
0
ARC
8
DEFAULT_255_1_234
10
7.1264173
20
71.3873881
40
0.4573953
50
86.2640471
51
90.0526343
0
ARC
8
DEFAULT_255_1_234
10
7.1235886
20
71.4269192
40
0.4178709
50
89.6697524
51
99.2309573
0
ARC
8
DEFAULT_255_1_234
10
7.0993336
20
71.5713964
40
0.2713749
50
99.069534
51
113.7658566
0
ARC
8
DEFAULT_255_1_234
10
7.0719528
20
71.6359677
40
0.2012469
50
114.0401004
51
127.9850673
0
ARC
8
DEFAULT_255_1_234
10
7.0479092
20
71.665573
40
0.1631167
50
127.7287463
51
176.7105154
0
ARC
8
DEFAULT_255_1_234
10
7.1157809
20
71.6554693
40
0.2315392
50
175.1779447
51
180.0581938
0
ARC
8
DEFAULT_255_1_234
10
7.0314656
20
71.6542428
40
0.1472271
50
179.6142195
51
228.1246017
0
ARC
8
DEFAULT_255_1_234
10
7.0756324
20
71.6951308
40
0.2072299
50
226.5779593
51
230.8800004
0
ARC
8
DEFAULT_255_1_234
10
7.1227403
20
71.7576636
40
0.2854818
50
231.4635071
51
241.9260842
0
ARC
8
DEFAULT_255_1_234
10
7.2424581
20
71.97798
40
0.53622
50
241.7178533
51
248.3259551
0
ARC
8
DEFAULT_255_1_234
10
7.3809953
20
72.3212064
40
0.9063478
50
248.2007737
51
252.4528373
0
ARC
8
DEFAULT_255_1_234
10
7.5013678
20
72.6933441
40
1.2974635
50
252.3391078
51
254.3469452
0
ARC
8
DEFAULT_255_1_234
10
6.747138
20
69.9956148
40
1.5037162
50
71.0197183
51
74.4087047
0
ARC
8
DEFAULT_255_1_234
10
6.9166066
20
70.4848111
40
0.9859993
50
66.1847285
51
71.086374
0
ARC
8
DEFAULT_255_1_234
10
7.0722378
20
70.83522
40
0.6025855
50
59.3536294
51
66.2691831
0
ARC
8
DEFAULT_255_1_234
10
7.161103
20
70.9855609
40
0.4279449
50
49.1020879
51
59.3293958
0
ARC
8
DEFAULT_255_1_234
10
7.242977
20
71.0788834
40
0.3038015
50
32.7919921
51
49.2505539
0
ARC
8
DEFAULT_255_1_234
10
7.275086
20
71.1017191
40
0.264448
50
31.1181161
51
32.4005348
0
ARC
8
DEFAULT_255_1_234
10
7.2662398
20
71.0981779
40
0.2738556
50
8.1116974
51
30.7958831
0
ARC
8
DEFAULT_255_1_234
10
7.1852066
20
71.0843753
40
0.3560327
50
359.8389159
51
8.4706516
0
ARC
8
DEFAULT_255_1_234
10
7.2477858
20
71.0795137
40
0.2934776
50
337.4731098
51
0.7537279
0
ARC
8
DEFAULT_255_1_234
10
7.2656552
20
71.0775387
40
0.2762607
50
307.5917067
51
336.4315538
0
ARC
8
DEFAULT_255_1_234
10
7.219638
20
71.1288102
40
0.3449979
50
307.6551545
51
308.4529766
0
ARC
8
DEFAULT_255_1_234
10
7.1966099
20
71.164325
40
0.3871988
50
284.3734338
51
307.1424381
0
ARC
8
DEFAULT_255_1_234
10
7.1470929
20
71.3464932
40
0.5759636
50
272.4382747
51
284.646547
0
ARC
8
DEFAULT_255_1_234
10
7.1344138
20
71.5264893
40
0.7563528
50
269.9708387
51
272.8178037
0
ARC
8
DEFAULT_255_1_234
10
7.1301178
20
71.3226716
40
0.5525489
50
248.2707594
51
270.4055579
0
ARC
8
DEFAULT_255_1_234
10
7.1246919
20
71.3036192
40
0.5328452
50
246.1383403
51
248.0542782
0
ARC
8
DEFAULT_255_1_234
10
7.0828298
20
71.2156843
40
0.4355005
50
233.1670131
51
246.4950969
0
ARC
8
DEFAULT_255_1_234
10
7.0274203
20
71.1408812
40
0.3424126
50
215.3403242
51
233.0843104
0
ARC
8
DEFAULT_255_1_234
10
7.0001634
20
71.1210549
40
0.3087104
50
179.2419209
51
215.2648451
0
ARC
8
DEFAULT_255_1_234
10
7.0769228
20
71.1224666
40
0.2304457
50
179.335461
51
199.1045811
0
ARC
8
DEFAULT_255_1_234
10
7.0436904
20
71.1137766
40
0.1962176
50
199.8828939
51
232.7063202
0
ARC
8
DEFAULT_255_1_234
10
7.0909173
20
71.1731788
40
0.2720938
50
232.3738199
51
255.5136649
0
ARC
8
DEFAULT_255_1_234
10
7.125004
20
71.2975835
40
0.4010747
50
255.2446292
51
267.5320849
0
ARC
8
DEFAULT_255_1_234
10
7.1337663
20
71.4208702
40
0.5246356
50
267.1557994
51
270.0286766
0
ARC
8
DEFAULT_255_1_234
10
7.1365435
20
71.376495
40
0.4802668
50
269.7000017
51
278.1660162
0
ARC
8
DEFAULT_255_1_234
10
7.162144
20
71.2034515
40
0.3053425
50
278.0231263
51
290.625471
0
ARC
8
DEFAULT_255_1_234
10
7.1969127
20
71.1107025
40
0.206291
50
290.6619762
51
307.0370976
0
ARC
8
DEFAULT_255_1_234
10
7.2269516
20
71.0738504
40
0.1587906
50
306.3943566
51
355.3030547
0
ARC
8
DEFAULT_255_1_234
10
7.1757448
20
71.0815113
40
0.2104809
50
354.3660432
51
0.0698737
0
ARC
8
DEFAULT_255_1_234
10
7.1899793
20
71.0837617
40
0.1962563
50
359.417946
51
16.1971788
0
ARC
8
DEFAULT_255_1_234
10
7.2355103
20
71.0962418
40
0.149053
50
16.4723299
51
52.6262157
0
ARC
8
DEFAULT_255_1_234
10
7.1534157
20
70.9878433
40
0.2850296
50
52.7386432
51
62.4979148
0
ARC
8
DEFAULT_255_1_234
10
7.0149234
20
70.7272283
40
0.5801521
50
62.2515216
51
68.1220564
0
ARC
8
DEFAULT_255_1_234
10
6.8429145
20
70.3044872
40
1.0365451
50
68.0062803
51
71.8053402
0
ARC
8
DEFAULT_255_1_234
10
6.6633516
20
69.7659758
40
1.6042013
50
71.7183119
51
73.9258742
0
LINE
8
DEFAULT_255_1_234
10
21.3981292
20
77.2473211
11
21.3981292
21
77.1204196
0
LINE
8
DEFAULT_255_1_234
10
21.3981292
20
77.1204196
11
21.0222439
21
77.1204196
0
LINE
8
DEFAULT_255_1_234
10
21.0222439
20
77.1204196
11
21.0222439
21
76.0779
0
LINE
8
DEFAULT_255_1_234
10
21.0222439
20
76.0779
11
20.8688377
21
76.0779
0
LINE
8
DEFAULT_255_1_234
10
20.8688377
20
76.0779
11
20.8688377
21
77.1204196
0
LINE
8
DEFAULT_255_1_234
10
20.8688377
20
77.1204196
11
20.4937555
21
77.1204196
0
LINE
8
DEFAULT_255_1_234
10
20.4937555
20
77.1204196
11
20.4937555
21
77.2473211
0
LINE
8
DEFAULT_255_1_234
10
20.4937555
20
77.2473211
11
21.3981292
21
77.2473211
0
LINE
8
DEFAULT_255_1_234
10
22.0213921
20
77.2529433
11
22.0213921
21
76.0779
0
LINE
8
DEFAULT_255_1_234
10
22.0213921
20
76.0779
11
21.8720018
21
76.0779
0
LINE
8
DEFAULT_255_1_234
10
21.8720018
20
76.0779
11
21.8720018
21
77.0682133
0
LINE
8
DEFAULT_255_1_234
10
21.8720018
20
77.0682133
11
21.572418
21
76.9581785
0
LINE
8
DEFAULT_255_1_234
10
21.572418
20
76.9581785
11
21.572418
21
77.0931117
0
LINE
8
DEFAULT_255_1_234
10
21.572418
20
77.0931117
11
21.9981001
21
77.2529433
0
LINE
8
DEFAULT_255_1_234
10
21.9981001
20
77.2529433
11
22.0213921
21
77.2529433
0
LINE
8
DEFAULT_255_1_234
10
22.9892166
20
77.2473211
11
22.5016901
21
75.9775033
0
LINE
8
DEFAULT_255_1_234
10
22.5016901
20
75.9775033
11
22.3739854
21
75.9775033
0
LINE
8
DEFAULT_255_1_234
10
22.3739854
20
75.9775033
11
22.8623151
21
77.2473211
0
LINE
8
DEFAULT_255_1_234
10
22.8623151
20
77.2473211
11
22.9892166
21
77.2473211
0
LINE
8
DEFAULT_255_1_234
10
23.841384
20
77.2473211
11
23.9963966
21
77.2473211
0
LINE
8
DEFAULT_255_1_234
10
23.9963966
20
77.2473211
11
23.9963966
21
76.452179
0
LINE
8
DEFAULT_255_1_234
10
23.6124795
20
76.0634429
11
23.5715176
21
76.0618365
0
LINE
8
DEFAULT_255_1_234
10
23.1498514
20
76.4505727
11
23.1498514
21
77.2473211
0
LINE
8
DEFAULT_255_1_234
10
23.1498514
20
77.2473211
11
23.3024544
21
77.2473211
0
LINE
8
DEFAULT_255_1_234
10
23.3024544
20
77.2473211
11
23.3024544
21
76.4553917
0
LINE
8
DEFAULT_255_1_234
10
23.841384
20
76.4545885
11
23.841384
21
77.2473211
0
ARC
8
DEFAULT_255_1_234
10
23.5610864
20
76.4501928
40
0.4353147
50
343.0898354
51
0.2614217
0
ARC
8
DEFAULT_255_1_234
10
23.6439266
20
76.4270837
40
0.3493402
50
315.3345598
51
342.7641223
0
ARC
8
DEFAULT_255_1_234
10
23.6215714
20
76.4502682
40
0.3815385
50
284.6606969
51
315.2182466
0
ARC
8
DEFAULT_255_1_234
10
23.5760427
20
76.6048755
40
0.5426573
50
273.8500273
51
285.1797701
0
ARC
8
DEFAULT_255_1_234
10
23.5672478
20
76.6390475
40
0.5772268
50
257.6317484
51
270.4238298
0
ARC
8
DEFAULT_255_1_234
10
23.5247676
20
76.4569198
40
0.3902347
50
230.6087562
51
257.9964012
0
ARC
8
DEFAULT_255_1_234
10
23.5115678
20
76.4362802
40
0.3659186
50
227.7440991
51
230.1551448
0
ARC
8
DEFAULT_255_1_234
10
23.4981509
20
76.4201471
40
0.3449568
50
189.2524587
51
227.5916061
0
ARC
8
DEFAULT_255_1_234
10
23.6503196
20
76.4529013
40
0.5004737
50
180.2665968
51
190.1525252
0
ARC
8
DEFAULT_255_1_234
10
23.6725216
20
76.4525918
40
0.3700778
50
179.5665184
51
191.9952995
0
ARC
8
DEFAULT_255_1_234
10
23.5497322
20
76.4252043
40
0.2442808
50
191.6974072
51
215.1404042
0
ARC
8
DEFAULT_255_1_234
10
23.5259237
20
76.4110108
40
0.2166522
50
215.6950207
51
224.8513522
0
ARC
8
DEFAULT_255_1_234
10
23.531498
20
76.4189697
40
0.2262237
50
225.2846858
51
255.0111758
0
ARC
8
DEFAULT_255_1_234
10
23.563894
20
76.5303455
40
0.3421979
50
254.5944985
51
267.9129803
0
ARC
8
DEFAULT_255_1_234
10
23.5713421
20
76.6387903
40
0.4508556
50
267.4689655
51
270.0223026
0
ARC
8
DEFAULT_255_1_234
10
23.5743567
20
76.5798849
40
0.3919604
50
269.5849941
51
281.1843768
0
ARC
8
DEFAULT_255_1_234
10
23.6022331
20
76.4446059
40
0.2538457
50
280.9344262
51
300.9743589
0
ARC
8
DEFAULT_255_1_234
10
23.6234937
20
76.4054688
40
0.2093566
50
301.4980046
51
315.1466847
0
ARC
8
DEFAULT_255_1_234
10
23.6090475
20
76.4173236
40
0.2279656
50
315.5952539
51
345.6678731
0
ARC
8
DEFAULT_255_1_234
10
23.4970992
20
76.4485009
40
0.3441564
50
345.2524969
51
358.6304371
0
ARC
8
DEFAULT_255_1_234
10
23.3953345
20
76.4544916
40
0.4460494
50
358.1735671
51
0.0124524
0
LINE
8
DEFAULT_255_1_234
10
23.0915879
20
3.1640211
11
23.0915879
21
1.9946
0
LINE
8
DEFAULT_255_1_234
10
23.0915879
20
1.9946
11
22.9365753
21
1.9946
0
LINE
8
DEFAULT_255_1_234
10
22.9365753
20
1.9946
11
22.3478489
21
2.895761
0
LINE
8
DEFAULT_255_1_234
10
22.3478489
20
2.895761
11
22.3478489
21
1.9946
0
LINE
8
DEFAULT_255_1_234
10
22.3478489
20
1.9946
11
22.1928364
21
1.9946
0
LINE
8
DEFAULT_255_1_234
10
22.1928364
20
1.9946
11
22.1928364
21
3.1640211
0
LINE
8
DEFAULT_255_1_234
10
22.1928364
20
3.1640211
11
22.3478489
21
3.1640211
0
LINE
8
DEFAULT_255_1_234
10
22.3478489
20
3.1640211
11
22.9381817
21
2.2588442
0
LINE
8
DEFAULT_255_1_234
10
22.9381817
20
2.2588442
11
22.9381817
21
3.1640211
0
LINE
8
DEFAULT_255_1_234
10
22.9381817
20
3.1640211
11
23.0915879
21
3.1640211
0
LINE
8
DEFAULT_255_1_234
10
24.0706568
20
2.3656663
11
24.2256693
21
2.3656663
0
LINE
8
DEFAULT_255_1_234
10
23.3253115
20
2.5246947
11
23.3253115
21
2.6371391
0
LINE
8
DEFAULT_255_1_234
10
24.2256693
20
2.7881357
11
24.0706568
21
2.7881357
0
LINE
8
DEFAULT_255_1_234
10
23.480324
20
2.6331232
11
23.480324
21
2.5198757
0
ARC
8
DEFAULT_255_1_234
10
23.677608
20
2.4253846
40
0.5513052
50
340.1774281
51
353.7814284
0
ARC
8
DEFAULT_255_1_234
10
23.8347432
20
2.3668582
40
0.3836379
50
311.4558989
51
340.4421614
0
ARC
8
DEFAULT_255_1_234
10
23.8314101
20
2.3779528
40
0.3941894
50
282.4333181
51
310.7513653
0
ARC
8
DEFAULT_255_1_234
10
23.787484
20
2.5594679
40
0.5809175
50
269.9358511
51
282.809604
0
ARC
8
DEFAULT_255_1_234
10
23.7822906
20
2.7052212
40
0.7266847
50
270.0021091
51
270.3581957
0
ARC
8
DEFAULT_255_1_234
10
23.7770323
20
2.4451585
40
0.4666519
50
250.7884749
51
270.6489167
0
ARC
8
DEFAULT_255_1_234
10
23.7602158
20
2.3814319
40
0.4009729
50
219.3627325
51
250.0611886
0
ARC
8
DEFAULT_255_1_234
10
23.8431369
20
2.4519042
40
0.5097822
50
193.5479632
51
219.5756669
0
ARC
8
DEFAULT_255_1_234
10
24.0802989
20
2.5134919
40
0.7547848
50
181.1218675
51
193.87563
0
ARC
8
DEFAULT_255_1_234
10
24.2873171
20
2.524558
40
0.9620055
50
179.9918545
51
181.5394234
0
ARC
8
DEFAULT_255_1_234
10
24.1022273
20
2.6408788
40
0.7769248
50
169.5837241
51
180.2757934
0
ARC
8
DEFAULT_255_1_234
10
23.9185211
20
2.6748229
40
0.590109
50
155.0365899
51
169.6003176
0
ARC
8
DEFAULT_255_1_234
10
23.8049675
20
2.7295677
40
0.4640625
50
136.783148
51
155.2472683
0
ARC
8
DEFAULT_255_1_234
10
23.7660152
20
2.7626562
40
0.4130255
50
121.7633186
51
136.428115
0
ARC
8
DEFAULT_255_1_234
10
23.7795114
20
2.7377227
40
0.4413323
50
95.6459699
51
121.5490577
0
ARC
8
DEFAULT_255_1_234
10
23.7952396
20
2.6268949
40
0.55319
50
89.924208
51
96.1377933
0
ARC
8
DEFAULT_255_1_234
10
23.8002828
20
2.6387542
40
0.5413475
50
76.6779277
51
90.4563316
0
ARC
8
DEFAULT_255_1_234
10
23.8396452
20
2.7978114
40
0.3775041
50
47.485847
51
76.9287264
0
ARC
8
DEFAULT_255_1_234
10
23.8249425
20
2.7878159
40
0.3948286
50
16.5424086
51
46.8933463
0
ARC
8
DEFAULT_255_1_234
10
23.6641582
20
2.7349861
40
0.564021
50
5.4072051
51
17.0365086
0
ARC
8
DEFAULT_255_1_234
10
23.5202599
20
2.7118679
40
0.5556559
50
7.8891745
51
15.9239216
0
ARC
8
DEFAULT_255_1_234
10
23.7189612
20
2.7695631
40
0.3487515
50
15.7653144
51
27.9410532
0
ARC
8
DEFAULT_255_1_234
10
23.829383
20
2.828679
40
0.2235026
50
27.8166557
51
46.4008329
0
ARC
8
DEFAULT_255_1_234
10
23.8343473
20
2.8281082
40
0.2205286
50
47.4371857
51
75.0698205
0
ARC
8
DEFAULT_255_1_234
10
23.8034867
20
2.7206765
40
0.3322915
50
74.7008593
51
87.8124495
0
ARC
8
DEFAULT_255_1_234
10
23.7961555
20
2.6150844
40
0.4380987
50
87.3814673
51
90.0240855
0
ARC
8
DEFAULT_255_1_234
10
23.7923098
20
2.7328291
40
0.3203749
50
89.3451631
51
108.5745436
0
ARC
8
DEFAULT_255_1_234
10
23.7786203
20
2.7841908
40
0.2673494
50
109.2998449
51
143.3037509
0
ARC
8
DEFAULT_255_1_234
10
23.8548276
20
2.7255881
40
0.3634757
50
143.0753173
51
163.1916937
0
ARC
8
DEFAULT_255_1_234
10
24.0500003
20
2.6639967
40
0.5681262
50
162.9373603
51
174.6208611
0
ARC
8
DEFAULT_255_1_234
10
24.3126046
20
2.635201
40
0.8322832
50
174.3419979
51
180.1430411
0
ARC
8
DEFAULT_255_1_234
10
24.2195202
20
2.5157698
40
0.7392076
50
179.6817502
51
189.150529
0
ARC
8
DEFAULT_255_1_234
10
23.969445
20
2.474119
40
0.4856932
50
188.9910863
51
203.5773039
0
ARC
8
DEFAULT_255_1_234
10
23.8614783
20
2.4293211
40
0.3688271
50
203.9077269
51
215.1312379
0
ARC
8
DEFAULT_255_1_234
10
23.7691877
20
2.3577941
40
0.2522457
50
213.9071664
51
263.8849284
0
ARC
8
DEFAULT_255_1_234
10
23.7817206
20
2.4362518
40
0.3316174
50
263.1758525
51
270.1031083
0
ARC
8
DEFAULT_255_1_234
10
23.7849297
20
2.5609365
40
0.4563091
50
269.6719807
51
279.0609165
0
ARC
8
DEFAULT_255_1_234
10
23.8116066
20
2.3996907
40
0.2928759
50
278.8750225
51
293.6346586
0
ARC
8
DEFAULT_255_1_234
10
23.8436274
20
2.32449
40
0.2111472
50
293.8553404
51
310.0518804
0
ARC
8
DEFAULT_255_1_234
10
23.8441128
20
2.3182516
40
0.2060917
50
311.0646779
51
332.0108348
0
ARC
8
DEFAULT_255_1_234
10
23.7248854
20
2.3839978
40
0.3422352
50
331.6588543
51
343.2878891
0
ARC
8
DEFAULT_255_1_234
10
23.5186369
20
2.4473798
40
0.5580003
50
343.1446044
51
351.010618
0
ARC
8
DEFAULT_255_1_234
10
23.3645016
20
2.4754871
40
0.7146438
50
350.7157277
51
351.1602153
0
LINE
8
DEFAULT_255_1_234
10
23.0582879
20
8.4556211
11
23.0582879
21
7.2862
0
LINE
8
DEFAULT_255_1_234
10
23.0582879
20
7.2862
11
22.9032753
21
7.2862
0
LINE
8
DEFAULT_255_1_234
10
22.9032753
20
7.2862
11
22.3145489
21
8.187361
0
LINE
8
DEFAULT_255_1_234
10
22.3145489
20
8.187361
11
22.3145489
21
7.2862
0
LINE
8
DEFAULT_255_1_234
10
22.3145489
20
7.2862
11
22.1595364
21
7.2862
0
LINE
8
DEFAULT_255_1_234
10
22.1595364
20
7.2862
11
22.1595364
21
8.4556211
0
LINE
8
DEFAULT_255_1_234
10
22.1595364
20
8.4556211
11
22.3145489
21
8.4556211
0
LINE
8
DEFAULT_255_1_234
10
22.3145489
20
8.4556211
11
22.9048817
21
7.5504442
0
LINE
8
DEFAULT_255_1_234
10
22.9048817
20
7.5504442
11
22.9048817
21
8.4556211
0
LINE
8
DEFAULT_255_1_234
10
22.9048817
20
8.4556211
11
23.0582879
21
8.4556211
0
LINE
8
DEFAULT_255_1_234
10
24.2317249
20
7.9070534
11
24.2317249
21
7.8331614
0
LINE
8
DEFAULT_255_1_234
10
23.2912083
20
7.8227201
11
23.2912083
21
7.9070534
0
LINE
8
DEFAULT_255_1_234
10
24.0783187
20
7.8219169
11
24.0783187
21
7.9086597
0
LINE
8
DEFAULT_255_1_234
10
23.4446145
20
7.919101
11
23.4446145
21
7.8331614
0
ARC
8
DEFAULT_255_1_234
10
23.3675275
20
7.8292015
40
0.8642064
50
350.487711
51
0.2625388
0
ARC
8
DEFAULT_255_1_234
10
23.5968516
20
7.7897578
40
0.631518
50
336.0277639
51
350.5787438
0
ARC
8
DEFAULT_255_1_234
10
23.731334
20
7.7289892
40
0.4839466
50
319.8877444
51
336.1328423
0
ARC
8
DEFAULT_255_1_234
10
23.791598
20
7.680758
40
0.4067874
50
302.4806467
51
319.6143626
0
ARC
8
DEFAULT_255_1_234
10
23.7800991
20
7.7029202
40
0.4316636
50
275.8195682
51
302.1884709
0
ARC
8
DEFAULT_255_1_234
10
23.7634624
20
7.8171665
40
0.5470306
50
269.9171439
51
276.3397983
0
ARC
8
DEFAULT_255_1_234
10
23.7589834
20
7.7485681
40
0.4784458
50
252.5219675
51
270.4416499
0
ARC
8
DEFAULT_255_1_234
10
23.7446093
20
7.6946592
40
0.422716
50
237.5352116
51
252.1857531
0
ARC
8
DEFAULT_255_1_234
10
23.7535289
20
7.7060363
40
0.4371052
50
209.063312
51
237.3492538
0
ARC
8
DEFAULT_255_1_234
10
23.8405137
20
7.7606685
40
0.5397041
50
205.1183774
51
209.6470015
0
ARC
8
DEFAULT_255_1_234
10
23.9202174
20
7.794483
40
0.6262326
50
188.7215458
51
204.8240747
0
ARC
8
DEFAULT_255_1_234
10
24.1199702
20
7.8281067
40
0.8287794
50
180.3723947
51
188.9252049
0
ARC
8
DEFAULT_255_1_234
10
24.1172453
20
7.9110402
40
0.8260467
50
169.5253763
51
180.2765336
0
ARC
8
DEFAULT_255_1_234
10
23.9269902
20
7.9460309
40
0.6326007
50
155.8315255
51
169.5089989
0
ARC
8
DEFAULT_255_1_234
10
23.7989404
20
8.0054348
40
0.4914567
50
139.6258461
51
156.0379525
0
ARC
8
DEFAULT_255_1_234
10
23.7399737
20
8.0528799
40
0.4158054
50
122.6416387
51
139.3430715
0
ARC
8
DEFAULT_255_1_234
10
23.7500357
20
8.0345451
40
0.4366739
50
93.0223692
51
122.455762
0
ARC
8
DEFAULT_255_1_234
10
23.7608353
20
7.9380709
40
0.5336137
50
89.975342
51
93.6341897
0
ARC
8
DEFAULT_255_1_234
10
23.7647133
20
7.9779242
40
0.4937738
50
73.746375
51
90.4233405
0
ARC
8
DEFAULT_255_1_234
10
23.7822711
20
8.0459287
40
0.4235786
50
57.662753
51
73.4518111
0
ARC
8
DEFAULT_255_1_234
10
23.7814718
20
8.0480832
40
0.4221899
50
29.1440151
51
57.414694
0
ARC
8
DEFAULT_255_1_234
10
23.6879912
20
7.9897005
40
0.5322966
50
24.0982783
51
29.7323517
0
ARC
8
DEFAULT_255_1_234
10
23.5846188
20
7.9468399
40
0.6441673
50
8.6655297
51
23.8241346
0
ARC
8
DEFAULT_255_1_234
10
23.3611926
20
7.9103854
40
0.8705386
50
359.7806941
51
8.8218784
0
ARC
8
DEFAULT_255_1_234
10
23.2464924
20
7.9129345
40
0.8318373
50
359.7055579
51
8.036044
0
ARC
8
DEFAULT_255_1_234
10
23.546493
20
7.9566239
40
0.5286768
50
7.8928306
51
20.2962107
0
ARC
8
DEFAULT_255_1_234
10
23.70925
20
8.0166395
40
0.3552073
50
20.3231126
51
36.4992797
0
ARC
8
DEFAULT_255_1_234
10
23.7778046
20
8.0694402
40
0.2686974
50
36.1437156
51
85.6627023
0
ARC
8
DEFAULT_255_1_234
10
23.7615592
20
7.9654221
40
0.373739
50
84.3852322
51
90.0757696
0
ARC
8
DEFAULT_255_1_234
10
23.7573265
20
8.0314839
40
0.3076997
50
89.3038458
51
109.9045693
0
ARC
8
DEFAULT_255_1_234
10
23.7480656
20
8.0697062
40
0.2686424
50
110.8228367
51
143.9179474
0
ARC
8
DEFAULT_255_1_234
10
23.8414316
20
7.9984236
40
0.3860887
50
143.5289163
51
163.2980757
0
ARC
8
DEFAULT_255_1_234
10
24.0322137
20
7.9384433
40
0.5860659
50
163.0418846
51
174.3140048
0
ARC
8
DEFAULT_255_1_234
10
24.2726249
20
7.9106854
40
0.8280531
50
174.0509143
51
179.4176892
0
ARC
8
DEFAULT_255_1_234
10
24.2221988
20
7.8289954
40
0.7775954
50
179.6930361
51
188.7906598
0
ARC
8
DEFAULT_255_1_234
10
23.9558467
20
7.7863935
40
0.5078633
50
188.6331305
51
202.5629587
0
ARC
8
DEFAULT_255_1_234
10
23.8304058
20
7.7359996
40
0.3726913
50
202.8081362
51
216.1193925
0
ARC
8
DEFAULT_255_1_234
10
23.7494629
20
7.6708676
40
0.2689577
50
215.0755913
51
264.6379694
0
ARC
8
DEFAULT_255_1_234
10
23.7621578
20
7.7539513
40
0.3528978
50
263.846392
51
270.0833719
0
ARC
8
DEFAULT_255_1_234
10
23.7662969
20
7.7281374
40
0.3271036
50
269.3649385
51
287.5152008
0
ARC
8
DEFAULT_255_1_234
10
23.7841126
20
7.6634238
40
0.2600406
50
288.0630309
51
323.8113348
0
ARC
8
DEFAULT_255_1_234
10
23.6969968
20
7.7284049
40
0.3687189
50
323.6547608
51
342.6590488
0
ARC
8
DEFAULT_255_1_234
10
23.4938583
20
7.7944952
40
0.5823286
50
342.4091907
51
353.6451149
0
ARC
8
DEFAULT_255_1_234
10
23.2107094
20
7.829719
40
0.8676442
50
353.4029884
51
359.4847795
0
LINE
8
DEFAULT_255_1_234
10
21.409823
20
12.9489663
11
21.5648355
21
12.9489663
0
LINE
8
DEFAULT_255_1_234
10
20.6644777
20
13.1079947
11
20.6644777
21
13.2204391
0
LINE
8
DEFAULT_255_1_234
10
21.5648355
20
13.3714357
11
21.409823
21
13.3714357
0
LINE
8
DEFAULT_255_1_234
10
20.8194902
20
13.2164232
11
20.8194902
21
13.1031757
0
ARC
8
DEFAULT_255_1_234
10
21.0167742
20
13.0086846
40
0.5513052
50
340.1774281
51
353.7814284
0
ARC
8
DEFAULT_255_1_234
10
21.1739095
20
12.9501582
40
0.3836379
50
311.4558989
51
340.4421614
0
ARC
8
DEFAULT_255_1_234
10
21.1705763
20
12.9612528
40
0.3941894
50
282.4333181
51
310.7513653
0
ARC
8
DEFAULT_255_1_234
10
21.1266502
20
13.1427679
40
0.5809175
50
269.9358511
51
282.809604
0
ARC
8
DEFAULT_255_1_234
10
21.1214568
20
13.2885212
40
0.7266847
50
270.0021091
51
270.3581957
0
ARC
8
DEFAULT_255_1_234
10
21.1161985
20
13.0284585
40
0.4666519
50
250.7884749
51
270.6489167
0
ARC
8
DEFAULT_255_1_234
10
21.099382
20
12.9647319
40
0.4009729
50
219.3627325
51
250.0611886
0
ARC
8
DEFAULT_255_1_234
10
21.1823031
20
13.0352042
40
0.5097822
50
193.5479632
51
219.5756669
0
ARC
8
DEFAULT_255_1_234
10
21.4194652
20
13.0967919
40
0.7547848
50
181.1218675
51
193.87563
0
ARC
8
DEFAULT_255_1_234
10
21.6264833
20
13.107858
40
0.9620055
50
179.9918545
51
181.5394234
0
ARC
8
DEFAULT_255_1_234
10
21.4413935
20
13.2241788
40
0.7769248
50
169.5837241
51
180.2757934
0
ARC
8
DEFAULT_255_1_234
10
21.2576873
20
13.2581229
40
0.590109
50
155.0365899
51
169.6003176
0
ARC
8
DEFAULT_255_1_234
10
21.1441337
20
13.3128677
40
0.4640625
50
136.783148
51
155.2472683
0
ARC
8
DEFAULT_255_1_234
10
21.1051814
20
13.3459562
40
0.4130255
50
121.7633186
51
136.428115
0
ARC
8
DEFAULT_255_1_234
10
21.1186776
20
13.3210227
40
0.4413323
50
95.6459699
51
121.5490577
0
ARC
8
DEFAULT_255_1_234
10
21.1344058
20
13.2101949
40
0.55319
50
89.924208
51
96.1377933
0
ARC
8
DEFAULT_255_1_234
10
21.1394491
20
13.2220542
40
0.5413475
50
76.6779277
51
90.4563316
0
ARC
8
DEFAULT_255_1_234
10
21.1788114
20
13.3811114
40
0.3775041
50
47.485847
51
76.9287264
0
ARC
8
DEFAULT_255_1_234
10
21.1641087
20
13.3711159
40
0.3948286
50
16.5424086
51
46.8933463
0
ARC
8
DEFAULT_255_1_234
10
21.0033244
20
13.3182861
40
0.564021
50
5.4072051
51
17.0365086
0
ARC
8
DEFAULT_255_1_234
10
20.8594261
20
13.2951679
40
0.5556559
50
7.8891745
51
15.9239216
0
ARC
8
DEFAULT_255_1_234
10
21.0581274
20
13.3528631
40
0.3487515
50
15.7653144
51
27.9410532
0
ARC
8
DEFAULT_255_1_234
10
21.1685492
20
13.411979
40
0.2235026
50
27.8166557
51
46.4008329
0
ARC
8
DEFAULT_255_1_234
10
21.1735135
20
13.4114082
40
0.2205286
50
47.4371857
51
75.0698205
0
ARC
8
DEFAULT_255_1_234
10
21.1426529
20
13.3039765
40
0.3322915
50
74.7008593
51
87.8124495
0
ARC
8
DEFAULT_255_1_234
10
21.1353217
20
13.1983844
40
0.4380987
50
87.3814673
51
90.0240855
0
ARC
8
DEFAULT_255_1_234
10
21.131476
20
13.3161291
40
0.3203749
50
89.3451631
51
108.5745436
0
ARC
8
DEFAULT_255_1_234
10
21.1177865
20
13.3674908
40
0.2673494
50
109.2998449
51
143.3037509
0
ARC
8
DEFAULT_255_1_234
10
21.1939938
20
13.3088881
40
0.3634757
50
143.0753173
51
163.1916937
0
ARC
8
DEFAULT_255_1_234
10
21.3891666
20
13.2472967
40
0.5681262
50
162.9373603
51
174.6208611
0
ARC
8
DEFAULT_255_1_234
10
21.6517708
20
13.218501
40
0.8322832
50
174.3419979
51
180.1430411
0
ARC
8
DEFAULT_255_1_234
10
21.5586864
20
13.0990698
40
0.7392076
50
179.6817502
51
189.150529
0
ARC
8
DEFAULT_255_1_234
10
21.3086112
20
13.057419
40
0.4856932
50
188.9910863
51
203.5773039
0
ARC
8
DEFAULT_255_1_234
10
21.2006445
20
13.0126211
40
0.3688271
50
203.9077269
51
215.1312379
0
ARC
8
DEFAULT_255_1_234
10
21.1083539
20
12.9410941
40
0.2522457
50
213.9071664
51
263.8849284
0
ARC
8
DEFAULT_255_1_234
10
21.1208868
20
13.0195518
40
0.3316174
50
263.1758525
51
270.1031083
0
ARC
8
DEFAULT_255_1_234
10
21.124096
20
13.1442365
40
0.4563091
50
269.6719807
51
279.0609165
0
ARC
8
DEFAULT_255_1_234
10
21.1507728
20
12.9829907
40
0.2928759
50
278.8750225
51
293.6346586
0
ARC
8
DEFAULT_255_1_234
10
21.1827936
20
12.90779
40
0.2111472
50
293.8553404
51
310.0518804
0
ARC
8
DEFAULT_255_1_234
10
21.183279
20
12.9015516
40
0.2060917
50
311.0646779
51
332.0108348
0
ARC
8
DEFAULT_255_1_234
10
21.0640517
20
12.9672978
40
0.3422352
50
331.6588543
51
343.2878891
0
ARC
8
DEFAULT_255_1_234
10
20.8578032
20
13.0306798
40
0.5580003
50
343.1446044
51
351.010618
0
ARC
8
DEFAULT_255_1_234
10
20.7036678
20
13.0587871
40
0.7146438
50
350.7157277
51
351.1602153
0
LINE
8
DEFAULT_255_1_234
10
22.6748218
20
13.1987534
11
22.6748218
21
13.1248614
0
LINE
8
DEFAULT_255_1_234
10
21.7343052
20
13.1144201
11
21.7343052
21
13.1987534
0
LINE
8
DEFAULT_255_1_234
10
22.5214156
20
13.1136169
11
22.5214156
21
13.2003597
0
LINE
8
DEFAULT_255_1_234
10
21.8877114
20
13.210801
11
21.8877114
21
13.1248614
0
ARC
8
DEFAULT_255_1_234
10
21.8106244
20
13.1209015
40
0.8642064
50
350.487711
51
0.2625388
0
ARC
8
DEFAULT_255_1_234
10
22.0399486
20
13.0814578
40
0.631518
50
336.0277639
51
350.5787438
0
ARC
8
DEFAULT_255_1_234
10
22.1744309
20
13.0206892
40
0.4839466
50
319.8877444
51
336.1328423
0
ARC
8
DEFAULT_255_1_234
10
22.234695
20
12.972458
40
0.4067874
50
302.4806467
51
319.6143626
0
ARC
8
DEFAULT_255_1_234
10
22.223196
20
12.9946202
40
0.4316636
50
275.8195682
51
302.1884709
0
ARC
8
DEFAULT_255_1_234
10
22.2065593
20
13.1088665
40
0.5470306
50
269.9171439
51
276.3397983
0
ARC
8
DEFAULT_255_1_234
10
22.2020803
20
13.0402681
40
0.4784458
50
252.5219675
51
270.4416499
0
ARC
8
DEFAULT_255_1_234
10
22.1877062
20
12.9863592
40
0.422716
50
237.5352116
51
252.1857531
0
ARC
8
DEFAULT_255_1_234
10
22.1966258
20
12.9977363
40
0.4371052
50
209.063312
51
237.3492538
0
ARC
8
DEFAULT_255_1_234
10
22.2836106
20
13.0523685
40
0.5397041
50
205.1183774
51
209.6470015
0
ARC
8
DEFAULT_255_1_234
10
22.3633143
20
13.086183
40
0.6262326
50
188.7215458
51
204.8240747
0
ARC
8
DEFAULT_255_1_234
10
22.5630671
20
13.1198067
40
0.8287794
50
180.3723947
51
188.9252049
0
ARC
8
DEFAULT_255_1_234
10
22.5603423
20
13.2027402
40
0.8260467
50
169.5253763
51
180.2765336
0
ARC
8
DEFAULT_255_1_234
10
22.3700871
20
13.2377309
40
0.6326007
50
155.8315255
51
169.5089989
0
ARC
8
DEFAULT_255_1_234
10
22.2420373
20
13.2971348
40
0.4914567
50
139.6258461
51
156.0379525
0
ARC
8
DEFAULT_255_1_234
10
22.1830706
20
13.3445799
40
0.4158054
50
122.6416387
51
139.3430715
0
ARC
8
DEFAULT_255_1_234
10
22.1931326
20
13.3262451
40
0.4366739
50
93.0223692
51
122.455762
0
ARC
8
DEFAULT_255_1_234
10
22.2039323
20
13.2297709
40
0.5336137
50
89.975342
51
93.6341897
0
ARC
8
DEFAULT_255_1_234
10
22.2078102
20
13.2696242
40
0.4937738
50
73.746375
51
90.4233405
0
ARC
8
DEFAULT_255_1_234
10
22.2253681
20
13.3376287
40
0.4235786
50
57.662753
51
73.4518111
0
ARC
8
DEFAULT_255_1_234
10
22.2245687
20
13.3397832
40
0.4221899
50
29.1440151
51
57.414694
0
ARC
8
DEFAULT_255_1_234
10
22.1310882
20
13.2814005
40
0.5322966
50
24.0982783
51
29.7323517
0
ARC
8
DEFAULT_255_1_234
10
22.0277157
20
13.2385399
40
0.6441673
50
8.6655297
51
23.8241346
0
ARC
8
DEFAULT_255_1_234
10
21.8042895
20
13.2020854
40
0.8705386
50
359.7806941
51
8.8218784
0
ARC
8
DEFAULT_255_1_234
10
21.6895893
20
13.2046345
40
0.8318373
50
359.7055579
51
8.036044
0
ARC
8
DEFAULT_255_1_234
10
21.9895899
20
13.2483239
40
0.5286768
50
7.8928306
51
20.2962107
0
ARC
8
DEFAULT_255_1_234
10
22.152347
20
13.3083395
40
0.3552073
50
20.3231126
51
36.4992797
0
ARC
8
DEFAULT_255_1_234
10
22.2209016
20
13.3611402
40
0.2686974
50
36.1437156
51
85.6627023
0
ARC
8
DEFAULT_255_1_234
10
22.2046562
20
13.2571221
40
0.373739
50
84.3852322
51
90.0757696
0
ARC
8
DEFAULT_255_1_234
10
22.2004234
20
13.3231839
40
0.3076997
50
89.3038458
51
109.9045693
0
ARC
8
DEFAULT_255_1_234
10
22.1911625
20
13.3614062
40
0.2686424
50
110.8228367
51
143.9179474
0
ARC
8
DEFAULT_255_1_234
10
22.2845285
20
13.2901236
40
0.3860887
50
143.5289163
51
163.2980757
0
ARC
8
DEFAULT_255_1_234
10
22.4753106
20
13.2301433
40
0.5860659
50
163.0418846
51
174.3140048
0
ARC
8
DEFAULT_255_1_234
10
22.7157218
20
13.2023854
40
0.8280531
50
174.0509143
51
179.4176892
0
ARC
8
DEFAULT_255_1_234
10
22.6652957
20
13.1206954
40
0.7775954
50
179.6930361
51
188.7906598
0
ARC
8
DEFAULT_255_1_234
10
22.3989436
20
13.0780935
40
0.5078633
50
188.6331305
51
202.5629587
0
ARC
8
DEFAULT_255_1_234
10
22.2735028
20
13.0276996
40
0.3726913
50
202.8081362
51
216.1193925
0
ARC
8
DEFAULT_255_1_234
10
22.1925598
20
12.9625676
40
0.2689577
50
215.0755913
51
264.6379694
0
ARC
8
DEFAULT_255_1_234
10
22.2052548
20
13.0456513
40
0.3528978
50
263.846392
51
270.0833719
0
ARC
8
DEFAULT_255_1_234
10
22.2093938
20
13.0198374
40
0.3271036
50
269.3649385
51
287.5152008
0
ARC
8
DEFAULT_255_1_234
10
22.2272096
20
12.9551238
40
0.2600406
50
288.0630309
51
323.8113348
0
ARC
8
DEFAULT_255_1_234
10
22.1400937
20
13.0201049
40
0.3687189
50
323.6547608
51
342.6590488
0
ARC
8
DEFAULT_255_1_234
10
21.9369552
20
13.0861952
40
0.5823286
50
342.4091907
51
353.6451149
0
ARC
8
DEFAULT_255_1_234
10
21.6538063
20
13.121419
40
0.8676442
50
353.4029884
51
359.4847795
0
LINE
8
DEFAULT_255_1_234
10
22.9061358
20
13.7473211
11
23.1053229
21
13.7473211
0
LINE
8
DEFAULT_255_1_234
10
23.1053229
20
13.7473211
11
23.4876337
21
12.7931506
0
LINE
8
DEFAULT_255_1_234
10
23.4876337
20
12.7931506
11
23.8699444
21
13.7473211
0
LINE
8
DEFAULT_255_1_234
10
23.8699444
20
13.7473211
11
24.0699347
21
13.7473211
0
LINE
8
DEFAULT_255_1_234
10
24.0699347
20
13.7473211
11
24.0699347
21
12.5779
0
LINE
8
DEFAULT_255_1_234
10
24.0699347
20
12.5779
11
23.9157253
21
12.5779
0
LINE
8
DEFAULT_255_1_234
10
23.9157253
20
12.5779
11
23.9157253
21
13.0332996
0
LINE
8
DEFAULT_255_1_234
10
23.9157253
20
13.0332996
11
23.9301825
21
13.5248419
0
LINE
8
DEFAULT_255_1_234
10
23.9301825
20
13.5248419
11
23.5462654
21
12.5779
0
LINE
8
DEFAULT_255_1_234
10
23.5462654
20
12.5779
11
23.4281988
21
12.5779
0
LINE
8
DEFAULT_255_1_234
10
23.4281988
20
12.5779
11
23.0450849
21
13.5224324
0
LINE
8
DEFAULT_255_1_234
10
23.0450849
20
13.5224324
11
23.0603452
21
13.0332996
0
LINE
8
DEFAULT_255_1_234
10
23.0603452
20
13.0332996
11
23.0603452
21
12.5779
0
LINE
8
DEFAULT_255_1_234
10
23.0603452
20
12.5779
11
22.9061358
21
12.5779
0
LINE
8
DEFAULT_255_1_234
10
22.9061358
20
12.5779
11
22.9061358
21
13.7473211
0
LINE
8
DEFAULT_255_1_234
10
22.0643341
20
17.8696
11
21.8105312
21
18.3426694
0
LINE
8
DEFAULT_255_1_234
10
21.8105312
20
18.3426694
11
21.5358458
21
18.3426694
0
LINE
8
DEFAULT_255_1_234
10
21.5358458
20
18.3426694
11
21.5358458
21
17.8696
0
LINE
8
DEFAULT_255_1_234
10
21.5358458
20
17.8696
11
21.3808332
21
17.8696
0
LINE
8
DEFAULT_255_1_234
10
21.3808332
20
17.8696
11
21.3808332
21
19.0390211
0
LINE
8
DEFAULT_255_1_234
10
21.3808332
20
19.0390211
11
21.767963
21
19.0390211
0
LINE
8
DEFAULT_255_1_234
10
21.9551025
20
18.3755995
11
22.2297879
21
17.8792381
0
LINE
8
DEFAULT_255_1_234
10
22.2297879
20
17.8792381
11
22.2297879
21
17.8696
0
LINE
8
DEFAULT_255_1_234
10
22.2297879
20
17.8696
11
22.0643341
21
17.8696
0
LINE
8
DEFAULT_255_1_234
10
21.5358458
20
18.9121196
11
21.5358458
21
18.4687677
0
LINE
8
DEFAULT_255_1_234
10
21.5358458
20
18.4687677
11
21.772782
21
18.4687677
0
LINE
8
DEFAULT_255_1_234
10
21.7719789
20
18.9121196
11
21.5358458
21
18.9121196
0
ARC
8
DEFAULT_255_1_234
10
21.7721269
20
18.3428761
40
0.6961575
50
80.653586
51
90.3427061
0
ARC
8
DEFAULT_255_1_234
10
21.8140744
20
18.5891348
40
0.4463577
50
65.6987447
51
80.8329603
0
ARC
8
DEFAULT_255_1_234
10
21.8618385
20
18.6986322
40
0.3269094
50
50.0017161
51
65.4305835
0
ARC
8
DEFAULT_255_1_234
10
21.8836849
20
18.7281482
40
0.2902647
50
11.628416
51
49.5603263
0
ARC
8
DEFAULT_255_1_234
10
21.7301185
20
18.6906299
40
0.4482792
50
359.5655735
51
12.3691
0
ARC
8
DEFAULT_255_1_234
10
21.8378045
20
18.6843644
40
0.3405924
50
341.9983148
51
0.4822259
0
ARC
8
DEFAULT_255_1_234
10
21.8772885
20
18.6736471
40
0.2997359
50
323.8609373
51
341.61416
0
ARC
8
DEFAULT_255_1_234
10
21.8471129
20
18.6969484
40
0.3378487
50
296.7018614
51
323.6876402
0
ARC
8
DEFAULT_255_1_234
10
21.8030024
20
18.7758235
40
0.4281516
50
290.8086567
51
297.2323311
0
ARC
8
DEFAULT_255_1_234
10
21.7753554
20
18.8281351
40
0.3593766
50
269.589728
51
281.8058135
0
ARC
8
DEFAULT_255_1_234
10
21.8004453
20
18.7133743
40
0.2419125
50
281.5501019
51
303.9357432
0
ARC
8
DEFAULT_255_1_234
10
21.8141641
20
18.6895936
40
0.2145323
50
304.4415616
51
311.2106213
0
ARC
8
DEFAULT_255_1_234
10
21.8273746
20
18.6756632
40
0.1953505
50
310.9875673
51
356.2715578
0
ARC
8
DEFAULT_255_1_234
10
21.7517395
20
18.6869422
40
0.2716331
50
354.9348262
51
0.0609027
0
ARC
8
DEFAULT_255_1_234
10
21.7330269
20
18.6896435
40
0.2903554
50
359.5239371
51
12.8808918
0
ARC
8
DEFAULT_255_1_234
10
21.8307824
20
18.7135728
40
0.1897315
50
12.4173452
51
43.1022135
0
ARC
8
DEFAULT_255_1_234
10
21.8369429
20
18.7172724
40
0.1827118
50
43.5751728
51
48.203944
0
ARC
8
DEFAULT_255_1_234
10
21.8199921
20
18.6951302
40
0.2105272
50
48.7809703
51
72.6969569
0
ARC
8
DEFAULT_255_1_234
10
21.7845546
20
18.587582
40
0.3237537
50
72.3702241
51
84.8791103
0
ARC
8
DEFAULT_255_1_234
10
21.7698022
20
18.4533769
40
0.4587478
50
84.5400526
51
89.7281406
0
LINE
8
DEFAULT_255_1_234
10
23.0554506
20
18.5362343
11
23.0554506
21
18.410136
0
LINE
8
DEFAULT_255_1_234
10
23.0554506
20
18.410136
11
22.5486479
21
18.410136
0
LINE
8
DEFAULT_255_1_234
10
22.5486479
20
18.410136
11
22.5486479
21
17.9956983
0
LINE
8
DEFAULT_255_1_234
10
22.5486479
20
17.9956983
11
23.1373744
21
17.9956983
0
LINE
8
DEFAULT_255_1_234
10
23.1373744
20
17.9956983
11
23.1373744
21
17.8696
0
LINE
8
DEFAULT_255_1_234
10
23.1373744
20
17.8696
11
22.3944386
21
17.8696
0
LINE
8
DEFAULT_255_1_234
10
22.3944386
20
17.8696
11
22.3944386
21
19.0390211
0
LINE
8
DEFAULT_255_1_234
10
22.3944386
20
19.0390211
11
23.1293426
21
19.0390211
0
LINE
8
DEFAULT_255_1_234
10
23.1293426
20
19.0390211
11
23.1293426
21
18.9121196
0
LINE
8
DEFAULT_255_1_234
10
23.1293426
20
18.9121196
11
22.5486479
21
18.9121196
0
LINE
8
DEFAULT_255_1_234
10
22.5486479
20
18.9121196
11
22.5486479
21
18.5362343
0
LINE
8
DEFAULT_255_1_234
10
22.5486479
20
18.5362343
11
23.0554506
21
18.5362343
0
LINE
8
DEFAULT_255_1_234
10
23.3839487
20
19.0390211
11
23.7164627
21
18.0744093
0
LINE
8
DEFAULT_255_1_234
10
23.7164627
20
18.0744093
11
24.050583
21
19.0390211
0
LINE
8
DEFAULT_255_1_234
10
24.050583
20
19.0390211
11
24.2192495
21
19.0390211
0
LINE
8
DEFAULT_255_1_234
10
24.2192495
20
19.0390211
11
23.7855356
21
17.8696
0
LINE
8
DEFAULT_255_1_234
10
23.7855356
20
17.8696
11
23.6489961
21
17.8696
0
LINE
8
DEFAULT_255_1_234
10
23.6489961
20
17.8696
11
23.2160854
21
19.0390211
0
LINE
8
DEFAULT_255_1_234
10
23.2160854
20
19.0390211
11
23.3839487
21
19.0390211
0
LINE
8
DEFAULT_255_1_234
10
21.562285
20
23.8037391
11
21.562285
21
23.6776408
0
LINE
8
DEFAULT_255_1_234
10
21.562285
20
23.6776408
11
21.0715458
21
23.6776408
0
LINE
8
DEFAULT_255_1_234
10
21.0715458
20
23.6776408
11
21.0715458
21
23.1612
0
LINE
8
DEFAULT_255_1_234
10
21.0715458
20
23.1612
11
20.9173364
21
23.1612
0
LINE
8
DEFAULT_255_1_234
10
20.9173364
20
23.1612
11
20.9173364
21
24.3306211
0
LINE
8
DEFAULT_255_1_234
10
20.9173364
20
24.3306211
11
21.6417992
21
24.3306211
0
LINE
8
DEFAULT_255_1_234
10
21.6417992
20
24.3306211
11
21.6417992
21
24.2037196
0
LINE
8
DEFAULT_255_1_234
10
21.6417992
20
24.2037196
11
21.0715458
21
24.2037196
0
LINE
8
DEFAULT_255_1_234
10
21.0715458
20
24.2037196
11
21.0715458
21
23.8037391
0
LINE
8
DEFAULT_255_1_234
10
21.0715458
20
23.8037391
11
21.562285
21
23.8037391
0
LINE
8
DEFAULT_255_1_234
10
21.8939958
20
24.3306211
11
22.0787257
21
23.5298568
0
LINE
8
DEFAULT_255_1_234
10
22.0787257
20
23.5298568
11
22.1012146
21
23.3756474
0
LINE
8
DEFAULT_255_1_234
10
22.1012146
20
23.3756474
11
22.1341447
21
23.5145965
0
LINE
8
DEFAULT_255_1_234
10
22.1341447
20
23.5145965
11
22.3654588
21
24.3306211
0
LINE
8
DEFAULT_255_1_234
10
22.3654588
20
24.3306211
11
22.4955729
21
24.3306211
0
LINE
8
DEFAULT_255_1_234
10
22.4955729
20
24.3306211
11
22.7212648
21
23.5145965
0
LINE
8
DEFAULT_255_1_234
10
22.7212648
20
23.5145965
11
22.7533917
21
23.3732379
0
LINE
8
DEFAULT_255_1_234
10
22.7533917
20
23.3732379
11
22.7782901
21
23.53066
0
LINE
8
DEFAULT_255_1_234
10
22.7782901
20
23.53066
11
22.9598074
21
24.3306211
0
LINE
8
DEFAULT_255_1_234
10
22.9598074
20
24.3306211
11
23.11482
21
24.3306211
0
LINE
8
DEFAULT_255_1_234
10
23.11482
20
24.3306211
11
22.8312996
21
23.1612
0
LINE
8
DEFAULT_255_1_234
10
22.8312996
20
23.1612
11
22.6907442
21
23.1612
0
LINE
8
DEFAULT_255_1_234
10
22.6907442
20
23.1612
11
22.449792
21
24.0133674
0
LINE
8
DEFAULT_255_1_234
10
22.449792
20
24.0133674
11
22.431319
21
24.1025197
0
LINE
8
DEFAULT_255_1_234
10
22.431319
20
24.1025197
11
22.412846
21
24.0133674
0
LINE
8
DEFAULT_255_1_234
10
22.412846
20
24.0133674
11
22.163059
21
23.1612
0
LINE
8
DEFAULT_255_1_234
10
22.163059
20
23.1612
11
22.0225036
21
23.1612
0
LINE
8
DEFAULT_255_1_234
10
22.0225036
20
23.1612
11
21.7397864
21
24.3306211
0
LINE
8
DEFAULT_255_1_234
10
21.7397864
20
24.3306211
11
21.8939958
21
24.3306211
0
LINE
8
DEFAULT_255_1_234
10
23.609575
20
23.1612
11
23.285896
21
23.1612
0
LINE
8
DEFAULT_255_1_234
10
23.285896
20
23.1612
11
23.285896
21
24.3306211
0
LINE
8
DEFAULT_255_1_234
10
23.285896
20
24.3306211
11
23.6160004
21
24.3306211
0
LINE
8
DEFAULT_255_1_234
10
24.131638
20
23.7852661
11
24.131638
21
23.7105709
0
LINE
8
DEFAULT_255_1_234
10
23.6200163
20
24.2037196
11
23.4401054
21
24.2037196
0
LINE
8
DEFAULT_255_1_234
10
23.4401054
20
24.2037196
11
23.4401054
21
23.2872983
0
LINE
8
DEFAULT_255_1_234
10
23.4401054
20
23.2872983
11
23.6023465
21
23.2872983
0
LINE
8
DEFAULT_255_1_234
10
23.979035
20
23.7137836
11
23.979035
21
23.7820534
0
ARC
8
DEFAULT_255_1_234
10
23.6198947
20
23.7440894
40
0.5865446
50
75.4101064
51
90.3804066
0
ARC
8
DEFAULT_255_1_234
10
23.6428461
20
23.8397492
40
0.4881916
50
60.145586
51
75.1888407
0
ARC
8
DEFAULT_255_1_234
10
23.6587236
20
23.8674199
40
0.4562893
50
26.5253612
51
60.1450928
0
ARC
8
DEFAULT_255_1_234
10
23.5466985
20
23.8080158
40
0.5830602
50
7.4030428
51
26.8320788
0
ARC
8
DEFAULT_255_1_234
10
23.3872742
20
23.7831804
40
0.7443669
50
0.1605367
51
7.7176192
0
ARC
8
DEFAULT_255_1_234
10
23.4036646
20
23.7067434
40
0.7279835
50
348.7289388
51
0.3012466
0
ARC
8
DEFAULT_255_1_234
10
23.5693077
20
23.6738386
40
0.559104
50
333.0706509
51
348.7181832
0
ARC
8
DEFAULT_255_1_234
10
23.6659834
20
23.6213319
40
0.4491417
50
299.2531685
51
333.4571258
0
ARC
8
DEFAULT_255_1_234
10
23.6298974
20
23.6898828
40
0.5265881
50
278.107187
51
299.0339503
0
ARC
8
DEFAULT_255_1_234
10
23.6043053
20
23.8406216
40
0.679442
50
270.4443897
51
278.4511052
0
ARC
8
DEFAULT_255_1_234
10
23.6063883
20
23.7477213
40
0.4604407
50
269.4970433
51
284.0205042
0
ARC
8
DEFAULT_255_1_234
10
23.6419184
20
23.6111978
40
0.3193797
50
283.7700273
51
318.1555492
0
ARC
8
DEFAULT_255_1_234
10
23.6081942
20
23.6364367
40
0.3613588
50
318.7415601
51
343.6873628
0
ARC
8
DEFAULT_255_1_234
10
23.4277966
20
23.6927832
40
0.5503313
50
343.3325091
51
355.8548958
0
ARC
8
DEFAULT_255_1_234
10
23.217965
20
23.7127319
40
0.7610708
50
355.4988528
51
0.0791727
0
ARC
8
DEFAULT_255_1_234
10
23.2962273
20
23.786278
40
0.6828208
50
359.6455037
51
9.8607896
0
ARC
8
DEFAULT_255_1_234
10
23.532297
20
23.8289099
40
0.4429406
50
9.6571907
51
26.1932807
0
ARC
8
DEFAULT_255_1_234
10
23.6250959
20
23.8720118
40
0.3406537
50
26.5777228
51
40.1532208
0
ARC
8
DEFAULT_255_1_234
10
23.6506685
20
23.8919619
40
0.308246
50
40.3840491
51
80.1431104
0
ARC
8
DEFAULT_255_1_234
10
23.6179803
20
23.7470333
40
0.4566909
50
79.2152159
51
89.7445637
0
LINE
8
DEFAULT_255_1_234
10
21.409823
20
28.8239663
11
21.5648355
21
28.8239663
0
LINE
8
DEFAULT_255_1_234
10
20.6644777
20
28.9829947
11
20.6644777
21
29.0954391
0
LINE
8
DEFAULT_255_1_234
10
21.5648355
20
29.2464357
11
21.409823
21
29.2464357
0
LINE
8
DEFAULT_255_1_234
10
20.8194902
20
29.0914232
11
20.8194902
21
28.9781757
0
ARC
8
DEFAULT_255_1_234
10
21.0167742
20
28.8836846
40
0.5513052
50
340.1774281
51
353.7814284
0
ARC
8
DEFAULT_255_1_234
10
21.1739095
20
28.8251582
40
0.3836379
50
311.4558989
51
340.4421614
0
ARC
8
DEFAULT_255_1_234
10
21.1705763
20
28.8362528
40
0.3941894
50
282.4333181
51
310.7513653
0
ARC
8
DEFAULT_255_1_234
10
21.1266502
20
29.0177679
40
0.5809175
50
269.9358511
51
282.809604
0
ARC
8
DEFAULT_255_1_234
10
21.1214568
20
29.1635212
40
0.7266847
50
270.0021091
51
270.3581957
0
ARC
8
DEFAULT_255_1_234
10
21.1161985
20
28.9034585
40
0.4666519
50
250.7884749
51
270.6489167
0
ARC
8
DEFAULT_255_1_234
10
21.099382
20
28.8397319
40
0.4009729
50
219.3627325
51
250.0611886
0
ARC
8
DEFAULT_255_1_234
10
21.1823031
20
28.9102042
40
0.5097822
50
193.5479632
51
219.5756669
0
ARC
8
DEFAULT_255_1_234
10
21.4194652
20
28.9717919
40
0.7547848
50
181.1218675
51
193.87563
0
ARC
8
DEFAULT_255_1_234
10
21.6264833
20
28.982858
40
0.9620055
50
179.9918545
51
181.5394234
0
ARC
8
DEFAULT_255_1_234
10
21.4413935
20
29.0991788
40
0.7769248
50
169.5837241
51
180.2757934
0
ARC
8
DEFAULT_255_1_234
10
21.2576873
20
29.1331229
40
0.590109
50
155.0365899
51
169.6003176
0
ARC
8
DEFAULT_255_1_234
10
21.1441337
20
29.1878677
40
0.4640625
50
136.783148
51
155.2472683
0
ARC
8
DEFAULT_255_1_234
10
21.1051814
20
29.2209562
40
0.4130255
50
121.7633186
51
136.428115
0
ARC
8
DEFAULT_255_1_234
10
21.1186776
20
29.1960227
40
0.4413323
50
95.6459699
51
121.5490577
0
ARC
8
DEFAULT_255_1_234
10
21.1344058
20
29.0851949
40
0.55319
50
89.924208
51
96.1377933
0
ARC
8
DEFAULT_255_1_234
10
21.1394491
20
29.0970542
40
0.5413475
50
76.6779277
51
90.4563316
0
ARC
8
DEFAULT_255_1_234
10
21.1788114
20
29.2561114
40
0.3775041
50
47.485847
51
76.9287264
0
ARC
8
DEFAULT_255_1_234
10
21.1641087
20
29.2461159
40
0.3948286
50
16.5424086
51
46.8933463
0
ARC
8
DEFAULT_255_1_234
10
21.0033244
20
29.1932861
40
0.564021
50
5.4072051
51
17.0365086
0
ARC
8
DEFAULT_255_1_234
10
20.8594261
20
29.1701679
40
0.5556559
50
7.8891745
51
15.9239216
0
ARC
8
DEFAULT_255_1_234
10
21.0581274
20
29.2278631
40
0.3487515
50
15.7653144
51
27.9410532
0
ARC
8
DEFAULT_255_1_234
10
21.1685492
20
29.286979
40
0.2235026
50
27.8166557
51
46.4008329
0
ARC
8
DEFAULT_255_1_234
10
21.1735135
20
29.2864082
40
0.2205286
50
47.4371857
51
75.0698205
0
ARC
8
DEFAULT_255_1_234
10
21.1426529
20
29.1789765
40
0.3322915
50
74.7008593
51
87.8124495
0
ARC
8
DEFAULT_255_1_234
10
21.1353217
20
29.0733844
40
0.4380987
50
87.3814673
51
90.0240855
0
ARC
8
DEFAULT_255_1_234
10
21.131476
20
29.1911291
40
0.3203749
50
89.3451631
51
108.5745436
0
ARC
8
DEFAULT_255_1_234
10
21.1177865
20
29.2424908
40
0.2673494
50
109.2998449
51
143.3037509
0
ARC
8
DEFAULT_255_1_234
10
21.1939938
20
29.1838881
40
0.3634757
50
143.0753173
51
163.1916937
0
ARC
8
DEFAULT_255_1_234
10
21.3891666
20
29.1222967
40
0.5681262
50
162.9373603
51
174.6208611
0
ARC
8
DEFAULT_255_1_234
10
21.6517708
20
29.093501
40
0.8322832
50
174.3419979
51
180.1430411
0
ARC
8
DEFAULT_255_1_234
10
21.5586864
20
28.9740698
40
0.7392076
50
179.6817502
51
189.150529
0
ARC
8
DEFAULT_255_1_234
10
21.3086112
20
28.932419
40
0.4856932
50
188.9910863
51
203.5773039
0
ARC
8
DEFAULT_255_1_234
10
21.2006445
20
28.8876211
40
0.3688271
50
203.9077269
51
215.1312379
0
ARC
8
DEFAULT_255_1_234
10
21.1083539
20
28.8160941
40
0.2522457
50
213.9071664
51
263.8849284
0
ARC
8
DEFAULT_255_1_234
10
21.1208868
20
28.8945518
40
0.3316174
50
263.1758525
51
270.1031083
0
ARC
8
DEFAULT_255_1_234
10
21.124096
20
29.0192365
40
0.4563091
50
269.6719807
51
279.0609165
0
ARC
8
DEFAULT_255_1_234
10
21.1507728
20
28.8579907
40
0.2928759
50
278.8750225
51
293.6346586
0
ARC
8
DEFAULT_255_1_234
10
21.1827936
20
28.78279
40
0.2111472
50
293.8553404
51
310.0518804
0
ARC
8
DEFAULT_255_1_234
10
21.183279
20
28.7765516
40
0.2060917
50
311.0646779
51
332.0108348
0
ARC
8
DEFAULT_255_1_234
10
21.0640517
20
28.8422978
40
0.3422352
50
331.6588543
51
343.2878891
0
ARC
8
DEFAULT_255_1_234
10
20.8578032
20
28.9056798
40
0.5580003
50
343.1446044
51
351.010618
0
ARC
8
DEFAULT_255_1_234
10
20.7036678
20
28.9337871
40
0.7146438
50
350.7157277
51
351.1602153
0
LINE
8
DEFAULT_255_1_234
10
22.6748218
20
29.0737534
11
22.6748218
21
28.9998614
0
LINE
8
DEFAULT_255_1_234
10
21.7343052
20
28.9894201
11
21.7343052
21
29.0737534
0
LINE
8
DEFAULT_255_1_234
10
22.5214156
20
28.9886169
11
22.5214156
21
29.0753597
0
LINE
8
DEFAULT_255_1_234
10
21.8877114
20
29.085801
11
21.8877114
21
28.9998614
0
ARC
8
DEFAULT_255_1_234
10
21.8106244
20
28.9959015
40
0.8642064
50
350.487711
51
0.2625388
0
ARC
8
DEFAULT_255_1_234
10
22.0399486
20
28.9564578
40
0.631518
50
336.0277639
51
350.5787438
0
ARC
8
DEFAULT_255_1_234
10
22.1744309
20
28.8956892
40
0.4839466
50
319.8877444
51
336.1328423
0
ARC
8
DEFAULT_255_1_234
10
22.234695
20
28.847458
40
0.4067874
50
302.4806467
51
319.6143626
0
ARC
8
DEFAULT_255_1_234
10
22.223196
20
28.8696202
40
0.4316636
50
275.8195682
51
302.1884709
0
ARC
8
DEFAULT_255_1_234
10
22.2065593
20
28.9838665
40
0.5470306
50
269.9171439
51
276.3397983
0
ARC
8
DEFAULT_255_1_234
10
22.2020803
20
28.9152681
40
0.4784458
50
252.5219675
51
270.4416499
0
ARC
8
DEFAULT_255_1_234
10
22.1877062
20
28.8613592
40
0.422716
50
237.5352116
51
252.1857531
0
ARC
8
DEFAULT_255_1_234
10
22.1966258
20
28.8727363
40
0.4371052
50
209.063312
51
237.3492538
0
ARC
8
DEFAULT_255_1_234
10
22.2836106
20
28.9273685
40
0.5397041
50
205.1183774
51
209.6470015
0
ARC
8
DEFAULT_255_1_234
10
22.3633143
20
28.961183
40
0.6262326
50
188.7215458
51
204.8240747
0
ARC
8
DEFAULT_255_1_234
10
22.5630671
20
28.9948067
40
0.8287794
50
180.3723947
51
188.9252049
0
ARC
8
DEFAULT_255_1_234
10
22.5603423
20
29.0777402
40
0.8260467
50
169.5253763
51
180.2765336
0
ARC
8
DEFAULT_255_1_234
10
22.3700871
20
29.1127309
40
0.6326007
50
155.8315255
51
169.5089989
0
ARC
8
DEFAULT_255_1_234
10
22.2420373
20
29.1721348
40
0.4914567
50
139.6258461
51
156.0379525
0
ARC
8
DEFAULT_255_1_234
10
22.1830706
20
29.2195799
40
0.4158054
50
122.6416387
51
139.3430715
0
ARC
8
DEFAULT_255_1_234
10
22.1931326
20
29.2012451
40
0.4366739
50
93.0223692
51
122.455762
0
ARC
8
DEFAULT_255_1_234
10
22.2039323
20
29.1047709
40
0.5336137
50
89.975342
51
93.6341897
0
ARC
8
DEFAULT_255_1_234
10
22.2078102
20
29.1446242
40
0.4937738
50
73.746375
51
90.4233405
0
ARC
8
DEFAULT_255_1_234
10
22.2253681
20
29.2126287
40
0.4235786
50
57.662753
51
73.4518111
0
ARC
8
DEFAULT_255_1_234
10
22.2245687
20
29.2147832
40
0.4221899
50
29.1440151
51
57.414694
0
ARC
8
DEFAULT_255_1_234
10
22.1310882
20
29.1564005
40
0.5322966
50
24.0982783
51
29.7323517
0
ARC
8
DEFAULT_255_1_234
10
22.0277157
20
29.1135399
40
0.6441673
50
8.6655297
51
23.8241346
0
ARC
8
DEFAULT_255_1_234
10
21.8042895
20
29.0770854
40
0.8705386
50
359.7806941
51
8.8218784
0
ARC
8
DEFAULT_255_1_234
10
21.6895893
20
29.0796345
40
0.8318373
50
359.7055579
51
8.036044
0
ARC
8
DEFAULT_255_1_234
10
21.9895899
20
29.1233239
40
0.5286768
50
7.8928306
51
20.2962107
0
ARC
8
DEFAULT_255_1_234
10
22.152347
20
29.1833395
40
0.3552073
50
20.3231126
51
36.4992797
0
ARC
8
DEFAULT_255_1_234
10
22.2209016
20
29.2361402
40
0.2686974
50
36.1437156
51
85.6627023
0
ARC
8
DEFAULT_255_1_234
10
22.2046562
20
29.1321221
40
0.373739
50
84.3852322
51
90.0757696
0
ARC
8
DEFAULT_255_1_234
10
22.2004234
20
29.1981839
40
0.3076997
50
89.3038458
51
109.9045693
0
ARC
8
DEFAULT_255_1_234
10
22.1911625
20
29.2364062
40
0.2686424
50
110.8228367
51
143.9179474
0
ARC
8
DEFAULT_255_1_234
10
22.2845285
20
29.1651236
40
0.3860887
50
143.5289163
51
163.2980757
0
ARC
8
DEFAULT_255_1_234
10
22.4753106
20
29.1051433
40
0.5860659
50
163.0418846
51
174.3140048
0
ARC
8
DEFAULT_255_1_234
10
22.7157218
20
29.0773854
40
0.8280531
50
174.0509143
51
179.4176892
0
ARC
8
DEFAULT_255_1_234
10
22.6652957
20
28.9956954
40
0.7775954
50
179.6930361
51
188.7906598
0
ARC
8
DEFAULT_255_1_234
10
22.3989436
20
28.9530935
40
0.5078633
50
188.6331305
51
202.5629587
0
ARC
8
DEFAULT_255_1_234
10
22.2735028
20
28.9026996
40
0.3726913
50
202.8081362
51
216.1193925
0
ARC
8
DEFAULT_255_1_234
10
22.1925598
20
28.8375676
40
0.2689577
50
215.0755913
51
264.6379694
0
ARC
8
DEFAULT_255_1_234
10
22.2052548
20
28.9206513
40
0.3528978
50
263.846392
51
270.0833719
0
ARC
8
DEFAULT_255_1_234
10
22.2093938
20
28.8948374
40
0.3271036
50
269.3649385
51
287.5152008
0
ARC
8
DEFAULT_255_1_234
10
22.2272096
20
28.8301238
40
0.2600406
50
288.0630309
51
323.8113348
0
ARC
8
DEFAULT_255_1_234
10
22.1400937
20
28.8951049
40
0.3687189
50
323.6547608
51
342.6590488
0
ARC
8
DEFAULT_255_1_234
10
21.9369552
20
28.9611952
40
0.5823286
50
342.4091907
51
353.6451149
0
ARC
8
DEFAULT_255_1_234
10
21.6538063
20
28.996419
40
0.8676442
50
353.4029884
51
359.4847795
0
LINE
8
DEFAULT_255_1_234
10
22.9061358
20
29.6223211
11
23.1053229
21
29.6223211
0
LINE
8
DEFAULT_255_1_234
10
23.1053229
20
29.6223211
11
23.4876337
21
28.6681506
0
LINE
8
DEFAULT_255_1_234
10
23.4876337
20
28.6681506
11
23.8699444
21
29.6223211
0
LINE
8
DEFAULT_255_1_234
10
23.8699444
20
29.6223211
11
24.0699347
21
29.6223211
0
LINE
8
DEFAULT_255_1_234
10
24.0699347
20
29.6223211
11
24.0699347
21
28.4529
0
LINE
8
DEFAULT_255_1_234
10
24.0699347
20
28.4529
11
23.9157253
21
28.4529
0
LINE
8
DEFAULT_255_1_234
10
23.9157253
20
28.4529
11
23.9157253
21
28.9082996
0
LINE
8
DEFAULT_255_1_234
10
23.9157253
20
28.9082996
11
23.9301825
21
29.3998419
0
LINE
8
DEFAULT_255_1_234
10
23.9301825
20
29.3998419
11
23.5462654
21
28.4529
0
LINE
8
DEFAULT_255_1_234
10
23.5462654
20
28.4529
11
23.4281988
21
28.4529
0
LINE
8
DEFAULT_255_1_234
10
23.4281988
20
28.4529
11
23.0450849
21
29.3974324
0
LINE
8
DEFAULT_255_1_234
10
23.0450849
20
29.3974324
11
23.0603452
21
28.9082996
0
LINE
8
DEFAULT_255_1_234
10
23.0603452
20
28.9082996
11
23.0603452
21
28.4529
0
LINE
8
DEFAULT_255_1_234
10
23.0603452
20
28.4529
11
22.9061358
21
28.4529
0
LINE
8
DEFAULT_255_1_234
10
22.9061358
20
28.4529
11
22.9061358
21
29.6223211
0
LINE
8
DEFAULT_255_1_234
10
22.3837293
20
33.7446
11
22.2720881
21
34.0498061
0
LINE
8
DEFAULT_255_1_234
10
22.2720881
20
34.0498061
11
21.7821521
21
34.0498061
0
LINE
8
DEFAULT_255_1_234
10
21.7821521
20
34.0498061
11
21.6721173
21
33.7446
0
LINE
8
DEFAULT_255_1_234
10
21.6721173
20
33.7446
11
21.5130889
21
33.7446
0
LINE
8
DEFAULT_255_1_234
10
21.5130889
20
33.7446
11
21.9596535
21
34.9140211
0
LINE
8
DEFAULT_255_1_234
10
21.9596535
20
34.9140211
11
22.0945867
21
34.9140211
0
LINE
8
DEFAULT_255_1_234
10
22.0945867
20
34.9140211
11
22.5419545
21
33.7446
0
LINE
8
DEFAULT_255_1_234
10
22.5419545
20
33.7446
11
22.3837293
21
33.7446
0
LINE
8
DEFAULT_255_1_234
10
22.0271201
20
34.7236689
11
21.8287362
21
34.1767075
0
LINE
8
DEFAULT_255_1_234
10
21.8287362
20
34.1767075
11
22.2263072
21
34.1767075
0
LINE
8
DEFAULT_255_1_234
10
22.2263072
20
34.1767075
11
22.0271201
21
34.7236689
0
LINE
8
DEFAULT_255_1_234
10
23.5900964
20
34.3654534
11
23.5900964
21
34.2915614
0
LINE
8
DEFAULT_255_1_234
10
22.6495798
20
34.2811201
11
22.6495798
21
34.3654534
0
LINE
8
DEFAULT_255_1_234
10
23.4366902
20
34.2803169
11
23.4366902
21
34.3670597
0
LINE
8
DEFAULT_255_1_234
10
22.802986
20
34.377501
11
22.802986
21
34.2915614
0
ARC
8
DEFAULT_255_1_234
10
22.725899
20
34.2876015
40
0.8642064
50
350.487711
51
0.2625388
0
ARC
8
DEFAULT_255_1_234
10
22.9552232
20
34.2481578
40
0.631518
50
336.0277639
51
350.5787438
0
ARC
8
DEFAULT_255_1_234
10
23.0897055
20
34.1873892
40
0.4839466
50
319.8877444
51
336.1328423
0
ARC
8
DEFAULT_255_1_234
10
23.1499696
20
34.139158
40
0.4067874
50
302.4806467
51
319.6143626
0
ARC
8
DEFAULT_255_1_234
10
23.1384706
20
34.1613202
40
0.4316636
50
275.8195682
51
302.1884709
0
ARC
8
DEFAULT_255_1_234
10
23.1218339
20
34.2755665
40
0.5470306
50
269.9171439
51
276.3397983
0
ARC
8
DEFAULT_255_1_234
10
23.1173549
20
34.2069681
40
0.4784458
50
252.5219675
51
270.4416499
0
ARC
8
DEFAULT_255_1_234
10
23.1029808
20
34.1530592
40
0.422716
50
237.5352116
51
252.1857531
0
ARC
8
DEFAULT_255_1_234
10
23.1119004
20
34.1644363
40
0.4371052
50
209.063312
51
237.3492538
0
ARC
8
DEFAULT_255_1_234
10
23.1988852
20
34.2190685
40
0.5397041
50
205.1183774
51
209.6470015
0
ARC
8
DEFAULT_255_1_234
10
23.2785889
20
34.252883
40
0.6262326
50
188.7215458
51
204.8240747
0
ARC
8
DEFAULT_255_1_234
10
23.4783417
20
34.2865067
40
0.8287794
50
180.3723947
51
188.9252049
0
ARC
8
DEFAULT_255_1_234
10
23.4756169
20
34.3694402
40
0.8260467
50
169.5253763
51
180.2765336
0
ARC
8
DEFAULT_255_1_234
10
23.2853618
20
34.4044309
40
0.6326007
50
155.8315255
51
169.5089989
0
ARC
8
DEFAULT_255_1_234
10
23.1573119
20
34.4638348
40
0.4914567
50
139.6258461
51
156.0379525
0
ARC
8
DEFAULT_255_1_234
10
23.0983452
20
34.5112799
40
0.4158054
50
122.6416387
51
139.3430715
0
ARC
8
DEFAULT_255_1_234
10
23.1084072
20
34.4929451
40
0.4366739
50
93.0223692
51
122.455762
0
ARC
8
DEFAULT_255_1_234
10
23.1192069
20
34.3964709
40
0.5336137
50
89.975342
51
93.6341897
0
ARC
8
DEFAULT_255_1_234
10
23.1230848
20
34.4363242
40
0.4937738
50
73.746375
51
90.4233405
0
ARC
8
DEFAULT_255_1_234
10
23.1406427
20
34.5043287
40
0.4235786
50
57.662753
51
73.4518111
0
ARC
8
DEFAULT_255_1_234
10
23.1398433
20
34.5064832
40
0.4221899
50
29.1440151
51
57.414694
0
ARC
8
DEFAULT_255_1_234
10
23.0463628
20
34.4481005
40
0.5322966
50
24.0982783
51
29.7323517
0
ARC
8
DEFAULT_255_1_234
10
22.9429903
20
34.4052399
40
0.6441673
50
8.6655297
51
23.8241346
0
ARC
8
DEFAULT_255_1_234
10
22.7195641
20
34.3687854
40
0.8705386
50
359.7806941
51
8.8218784
0
ARC
8
DEFAULT_255_1_234
10
22.6048639
20
34.3713345
40
0.8318373
50
359.7055579
51
8.036044
0
ARC
8
DEFAULT_255_1_234
10
22.9048645
20
34.4150239
40
0.5286768
50
7.8928306
51
20.2962107
0
ARC
8
DEFAULT_255_1_234
10
23.0676216
20
34.4750395
40
0.3552073
50
20.3231126
51
36.4992797
0
ARC
8
DEFAULT_255_1_234
10
23.1361762
20
34.5278402
40
0.2686974
50
36.1437156
51
85.6627023
0
ARC
8
DEFAULT_255_1_234
10
23.1199308
20
34.4238221
40
0.373739
50
84.3852322
51
90.0757696
0
ARC
8
DEFAULT_255_1_234
10
23.115698
20
34.4898839
40
0.3076997
50
89.3038458
51
109.9045693
0
ARC
8
DEFAULT_255_1_234
10
23.1064371
20
34.5281062
40
0.2686424
50
110.8228367
51
143.9179474
0
ARC
8
DEFAULT_255_1_234
10
23.1998031
20
34.4568236
40
0.3860887
50
143.5289163
51
163.2980757
0
ARC
8
DEFAULT_255_1_234
10
23.3905852
20
34.3968433
40
0.5860659
50
163.0418846
51
174.3140048
0
ARC
8
DEFAULT_255_1_234
10
23.6309964
20
34.3690854
40
0.8280531
50
174.0509143
51
179.4176892
0
ARC
8
DEFAULT_255_1_234
10
23.5805703
20
34.2873954
40
0.7775954
50
179.6930361
51
188.7906598
0
ARC
8
DEFAULT_255_1_234
10
23.3142182
20
34.2447935
40
0.5078633
50
188.6331305
51
202.5629587
0
ARC
8
DEFAULT_255_1_234
10
23.1887774
20
34.1943996
40
0.3726913
50
202.8081362
51
216.1193925
0
ARC
8
DEFAULT_255_1_234
10
23.1078344
20
34.1292676
40
0.2689577
50
215.0755913
51
264.6379694
0
ARC
8
DEFAULT_255_1_234
10
23.1205294
20
34.2123513
40
0.3528978
50
263.846392
51
270.0833719
0
ARC
8
DEFAULT_255_1_234
10
23.1246684
20
34.1865374
40
0.3271036
50
269.3649385
51
287.5152008
0
ARC
8
DEFAULT_255_1_234
10
23.1424842
20
34.1218238
40
0.2600406
50
288.0630309
51
323.8113348
0
ARC
8
DEFAULT_255_1_234
10
23.0553684
20
34.1868049
40
0.3687189
50
323.6547608
51
342.6590488
0
ARC
8
DEFAULT_255_1_234
10
22.8522299
20
34.2528952
40
0.5823286
50
342.4091907
51
353.6451149
0
ARC
8
DEFAULT_255_1_234
10
22.5690809
20
34.288119
40
0.8676442
50
353.4029884
51
359.4847795
0
LINE
8
DEFAULT_255_1_234
10
24.1073403
20
34.3020026
11
24.1073403
21
34.1807234
0
LINE
8
DEFAULT_255_1_234
10
24.1073403
20
34.1807234
11
23.7153915
21
34.1807234
0
LINE
8
DEFAULT_255_1_234
10
23.7153915
20
34.1807234
11
23.7153915
21
34.3020026
0
LINE
8
DEFAULT_255_1_234
10
23.7153915
20
34.3020026
11
24.1073403
21
34.3020026
0
LINE
8
DEFAULT_255_1_234
10
21.9322293
20
39.0362
11
21.8205881
21
39.3414061
0
LINE
8
DEFAULT_255_1_234
10
21.8205881
20
39.3414061
11
21.3306521
21
39.3414061
0
LINE
8
DEFAULT_255_1_234
10
21.3306521
20
39.3414061
11
21.2206173
21
39.0362
0
LINE
8
DEFAULT_255_1_234
10
21.2206173
20
39.0362
11
21.0615889
21
39.0362
0
LINE
8
DEFAULT_255_1_234
10
21.0615889
20
39.0362
11
21.5081535
21
40.2056211
0
LINE
8
DEFAULT_255_1_234
10
21.5081535
20
40.2056211
11
21.6430867
21
40.2056211
0
LINE
8
DEFAULT_255_1_234
10
21.6430867
20
40.2056211
11
22.0904545
21
39.0362
0
LINE
8
DEFAULT_255_1_234
10
22.0904545
20
39.0362
11
21.9322293
21
39.0362
0
LINE
8
DEFAULT_255_1_234
10
21.5756201
20
40.0152689
11
21.3772362
21
39.4683075
0
LINE
8
DEFAULT_255_1_234
10
21.3772362
20
39.4683075
11
21.7748072
21
39.4683075
0
LINE
8
DEFAULT_255_1_234
10
21.7748072
20
39.4683075
11
21.5756201
21
40.0152689
0
LINE
8
DEFAULT_255_1_234
10
23.1385964
20
39.6570534
11
23.1385964
21
39.5831614
0
LINE
8
DEFAULT_255_1_234
10
22.1980798
20
39.5727201
11
22.1980798
21
39.6570534
0
LINE
8
DEFAULT_255_1_234
10
22.9851902
20
39.5719169
11
22.9851902
21
39.6586597
0
LINE
8
DEFAULT_255_1_234
10
22.351486
20
39.669101
11
22.351486
21
39.5831614
0
ARC
8
DEFAULT_255_1_234
10
22.274399
20
39.5792015
40
0.8642064
50
350.487711
51
0.2625388
0
ARC
8
DEFAULT_255_1_234
10
22.5037232
20
39.5397578
40
0.631518
50
336.0277639
51
350.5787438
0
ARC
8
DEFAULT_255_1_234
10
22.6382055
20
39.4789892
40
0.4839466
50
319.8877444
51
336.1328423
0
ARC
8
DEFAULT_255_1_234
10
22.6984696
20
39.430758
40
0.4067874
50
302.4806467
51
319.6143626
0
ARC
8
DEFAULT_255_1_234
10
22.6869706
20
39.4529202
40
0.4316636
50
275.8195682
51
302.1884709
0
ARC
8
DEFAULT_255_1_234
10
22.6703339
20
39.5671665
40
0.5470306
50
269.9171439
51
276.3397983
0
ARC
8
DEFAULT_255_1_234
10
22.6658549
20
39.4985681
40
0.4784458
50
252.5219675
51
270.4416499
0
ARC
8
DEFAULT_255_1_234
10
22.6514808
20
39.4446592
40
0.422716
50
237.5352116
51
252.1857531
0
ARC
8
DEFAULT_255_1_234
10
22.6604004
20
39.4560363
40
0.4371052
50
209.063312
51
237.3492538
0
ARC
8
DEFAULT_255_1_234
10
22.7473852
20
39.5106685
40
0.5397041
50
205.1183774
51
209.6470015
0
ARC
8
DEFAULT_255_1_234
10
22.8270889
20
39.544483
40
0.6262326
50
188.7215458
51
204.8240747
0
ARC
8
DEFAULT_255_1_234
10
23.0268417
20
39.5781067
40
0.8287794
50
180.3723947
51
188.9252049
0
ARC
8
DEFAULT_255_1_234
10
23.0241169
20
39.6610402
40
0.8260467
50
169.5253763
51
180.2765336
0
ARC
8
DEFAULT_255_1_234
10
22.8338618
20
39.6960309
40
0.6326007
50
155.8315255
51
169.5089989
0
ARC
8
DEFAULT_255_1_234
10
22.7058119
20
39.7554348
40
0.4914567
50
139.6258461
51
156.0379525
0
ARC
8
DEFAULT_255_1_234
10
22.6468452
20
39.8028799
40
0.4158054
50
122.6416387
51
139.3430715
0
ARC
8
DEFAULT_255_1_234
10
22.6569072
20
39.7845451
40
0.4366739
50
93.0223692
51
122.455762
0
ARC
8
DEFAULT_255_1_234
10
22.6677069
20
39.6880709
40
0.5336137
50
89.975342
51
93.6341897
0
ARC
8
DEFAULT_255_1_234
10
22.6715848
20
39.7279242
40
0.4937738
50
73.746375
51
90.4233405
0
ARC
8
DEFAULT_255_1_234
10
22.6891427
20
39.7959287
40
0.4235786
50
57.662753
51
73.4518111
0
ARC
8
DEFAULT_255_1_234
10
22.6883433
20
39.7980832
40
0.4221899
50
29.1440151
51
57.414694
0
ARC
8
DEFAULT_255_1_234
10
22.5948628
20
39.7397005
40
0.5322966
50
24.0982783
51
29.7323517
0
ARC
8
DEFAULT_255_1_234
10
22.4914903
20
39.6968399
40
0.6441673
50
8.6655297
51
23.8241346
0
ARC
8
DEFAULT_255_1_234
10
22.2680641
20
39.6603854
40
0.8705386
50
359.7806941
51
8.8218784
0
ARC
8
DEFAULT_255_1_234
10
22.1533639
20
39.6629345
40
0.8318373
50
359.7055579
51
8.036044
0
ARC
8
DEFAULT_255_1_234
10
22.4533645
20
39.7066239
40
0.5286768
50
7.8928306
51
20.2962107
0
ARC
8
DEFAULT_255_1_234
10
22.6161216
20
39.7666395
40
0.3552073
50
20.3231126
51
36.4992797
0
ARC
8
DEFAULT_255_1_234
10
22.6846762
20
39.8194402
40
0.2686974
50
36.1437156
51
85.6627023
0
ARC
8
DEFAULT_255_1_234
10
22.6684308
20
39.7154221
40
0.373739
50
84.3852322
51
90.0757696
0
ARC
8
DEFAULT_255_1_234
10
22.664198
20
39.7814839
40
0.3076997
50
89.3038458
51
109.9045693
0
ARC
8
DEFAULT_255_1_234
10
22.6549371
20
39.8197062
40
0.2686424
50
110.8228367
51
143.9179474
0
ARC
8
DEFAULT_255_1_234
10
22.7483031
20
39.7484236
40
0.3860887
50
143.5289163
51
163.2980757
0
ARC
8
DEFAULT_255_1_234
10
22.9390852
20
39.6884433
40
0.5860659
50
163.0418846
51
174.3140048
0
ARC
8
DEFAULT_255_1_234
10
23.1794964
20
39.6606854
40
0.8280531
50
174.0509143
51
179.4176892
0
ARC
8
DEFAULT_255_1_234
10
23.1290703
20
39.5789954
40
0.7775954
50
179.6930361
51
188.7906598
0
ARC
8
DEFAULT_255_1_234
10
22.8627182
20
39.5363935
40
0.5078633
50
188.6331305
51
202.5629587
0
ARC
8
DEFAULT_255_1_234
10
22.7372774
20
39.4859996
40
0.3726913
50
202.8081362
51
216.1193925
0
ARC
8
DEFAULT_255_1_234
10
22.6563344
20
39.4208676
40
0.2689577
50
215.0755913
51
264.6379694
0
ARC
8
DEFAULT_255_1_234
10
22.6690294
20
39.5039513
40
0.3528978
50
263.846392
51
270.0833719
0
ARC
8
DEFAULT_255_1_234
10
22.6731684
20
39.4781374
40
0.3271036
50
269.3649385
51
287.5152008
0
ARC
8
DEFAULT_255_1_234
10
22.6909842
20
39.4134238
40
0.2600406
50
288.0630309
51
323.8113348
0
ARC
8
DEFAULT_255_1_234
10
22.6038684
20
39.4784049
40
0.3687189
50
323.6547608
51
342.6590488
0
ARC
8
DEFAULT_255_1_234
10
22.4007299
20
39.5444952
40
0.5823286
50
342.4091907
51
353.6451149
0
ARC
8
DEFAULT_255_1_234
10
22.1175809
20
39.579719
40
0.8676442
50
353.4029884
51
359.4847795
0
LINE
8
DEFAULT_255_1_234
10
23.7723005
20
40.0048276
11
23.7723005
21
39.6634788
0
LINE
8
DEFAULT_255_1_234
10
23.7723005
20
39.6634788
11
24.0983891
21
39.6634788
0
LINE
8
DEFAULT_255_1_234
10
24.0983891
20
39.6634788
11
24.0983891
21
39.5229233
0
LINE
8
DEFAULT_255_1_234
10
24.0983891
20
39.5229233
11
23.7723005
21
39.5229233
0
LINE
8
DEFAULT_255_1_234
10
23.7723005
20
39.5229233
11
23.7723005
21
39.1534634
0
LINE
8
DEFAULT_255_1_234
10
23.7723005
20
39.1534634
11
23.6229102
21
39.1534634
0
LINE
8
DEFAULT_255_1_234
10
23.6229102
20
39.1534634
11
23.6229102
21
39.5229233
0
LINE
8
DEFAULT_255_1_234
10
23.6229102
20
39.5229233
11
23.2968216
21
39.5229233
0
LINE
8
DEFAULT_255_1_234
10
23.2968216
20
39.5229233
11
23.2968216
21
39.6634788
0
LINE
8
DEFAULT_255_1_234
10
23.2968216
20
39.6634788
11
23.6229102
21
39.6634788
0
LINE
8
DEFAULT_255_1_234
10
23.6229102
20
39.6634788
11
23.6229102
21
40.0048276
0
LINE
8
DEFAULT_255_1_234
10
23.6229102
20
40.0048276
11
23.7723005
21
40.0048276
0
LINE
8
DEFAULT_255_1_234
10
23.1517293
20
44.3279
11
23.0400881
21
44.6331061
0
LINE
8
DEFAULT_255_1_234
10
23.0400881
20
44.6331061
11
22.5501521
21
44.6331061
0
LINE
8
DEFAULT_255_1_234
10
22.5501521
20
44.6331061
11
22.4401173
21
44.3279
0
LINE
8
DEFAULT_255_1_234
10
22.4401173
20
44.3279
11
22.2810889
21
44.3279
0
LINE
8
DEFAULT_255_1_234
10
22.2810889
20
44.3279
11
22.7276535
21
45.4973211
0
LINE
8
DEFAULT_255_1_234
10
22.7276535
20
45.4973211
11
22.8625867
21
45.4973211
0
LINE
8
DEFAULT_255_1_234
10
22.8625867
20
45.4973211
11
23.3099545
21
44.3279
0
LINE
8
DEFAULT_255_1_234
10
23.3099545
20
44.3279
11
23.1517293
21
44.3279
0
LINE
8
DEFAULT_255_1_234
10
22.7951201
20
45.3069689
11
22.5967362
21
44.7600075
0
LINE
8
DEFAULT_255_1_234
10
22.5967362
20
44.7600075
11
22.9943072
21
44.7600075
0
LINE
8
DEFAULT_255_1_234
10
22.9943072
20
44.7600075
11
22.7951201
21
45.3069689
0
LINE
8
DEFAULT_255_1_234
10
23.6055225
20
45.561575
11
23.6055225
21
44.3279
0
LINE
8
DEFAULT_255_1_234
10
23.6055225
20
44.3279
11
23.4569354
21
44.3279
0
LINE
8
DEFAULT_255_1_234
10
23.4569354
20
44.3279
11
23.4569354
21
45.561575
0
LINE
8
DEFAULT_255_1_234
10
23.4569354
20
45.561575
11
23.6055225
21
45.561575
0
LINE
8
DEFAULT_255_1_234
10
24.1524839
20
44.8853026
11
24.1524839
21
44.7640234
0
LINE
8
DEFAULT_255_1_234
10
24.1524839
20
44.7640234
11
23.7605351
21
44.7640234
0
LINE
8
DEFAULT_255_1_234
10
23.7605351
20
44.7640234
11
23.7605351
21
44.8853026
0
LINE
8
DEFAULT_255_1_234
10
23.7605351
20
44.8853026
11
24.1524839
21
44.8853026
0
LINE
8
DEFAULT_255_1_234
10
22.7002293
20
49.6196
11
22.5885881
21
49.9248061
0
LINE
8
DEFAULT_255_1_234
10
22.5885881
20
49.9248061
11
22.0986521
21
49.9248061
0
LINE
8
DEFAULT_255_1_234
10
22.0986521
20
49.9248061
11
21.9886173
21
49.6196
0
LINE
8
DEFAULT_255_1_234
10
21.9886173
20
49.6196
11
21.8295889
21
49.6196
0
LINE
8
DEFAULT_255_1_234
10
21.8295889
20
49.6196
11
22.2761535
21
50.7890211
0
LINE
8
DEFAULT_255_1_234
10
22.2761535
20
50.7890211
11
22.4110867
21
50.7890211
0
LINE
8
DEFAULT_255_1_234
10
22.4110867
20
50.7890211
11
22.8584545
21
49.6196
0
LINE
8
DEFAULT_255_1_234
10
22.8584545
20
49.6196
11
22.7002293
21
49.6196
0
LINE
8
DEFAULT_255_1_234
10
22.3436201
20
50.5986689
11
22.1452362
21
50.0517075
0
LINE
8
DEFAULT_255_1_234
10
22.1452362
20
50.0517075
11
22.5428072
21
50.0517075
0
LINE
8
DEFAULT_255_1_234
10
22.5428072
20
50.0517075
11
22.3436201
21
50.5986689
0
LINE
8
DEFAULT_255_1_234
10
23.1540225
20
50.853275
11
23.1540225
21
49.6196
0
LINE
8
DEFAULT_255_1_234
10
23.1540225
20
49.6196
11
23.0054354
21
49.6196
0
LINE
8
DEFAULT_255_1_234
10
23.0054354
20
49.6196
11
23.0054354
21
50.853275
0
LINE
8
DEFAULT_255_1_234
10
23.0054354
20
50.853275
11
23.1540225
21
50.853275
0
LINE
8
DEFAULT_255_1_234
10
23.8174441
20
50.5882276
11
23.8174441
21
50.2468788
0
LINE
8
DEFAULT_255_1_234
10
23.8174441
20
50.2468788
11
24.1435327
21
50.2468788
0
LINE
8
DEFAULT_255_1_234
10
24.1435327
20
50.2468788
11
24.1435327
21
50.1063233
0
LINE
8
DEFAULT_255_1_234
10
24.1435327
20
50.1063233
11
23.8174441
21
50.1063233
0
LINE
8
DEFAULT_255_1_234
10
23.8174441
20
50.1063233
11
23.8174441
21
49.7368634
0
LINE
8
DEFAULT_255_1_234
10
23.8174441
20
49.7368634
11
23.6680538
21
49.7368634
0
LINE
8
DEFAULT_255_1_234
10
23.6680538
20
49.7368634
11
23.6680538
21
50.1063233
0
LINE
8
DEFAULT_255_1_234
10
23.6680538
20
50.1063233
11
23.3419652
21
50.1063233
0
LINE
8
DEFAULT_255_1_234
10
23.3419652
20
50.1063233
11
23.3419652
21
50.2468788
0
LINE
8
DEFAULT_255_1_234
10
23.3419652
20
50.2468788
11
23.6680538
21
50.2468788
0
LINE
8
DEFAULT_255_1_234
10
23.6680538
20
50.2468788
11
23.6680538
21
50.5882276
0
LINE
8
DEFAULT_255_1_234
10
23.6680538
20
50.5882276
11
23.8174441
21
50.5882276
0
LINE
8
DEFAULT_255_1_234
10
23.3953817
20
55.6027327
11
23.3953817
21
55.4099709
0
LINE
8
DEFAULT_255_1_234
10
22.657265
20
55.3898916
11
22.657265
21
55.5882755
0
LINE
8
DEFAULT_255_1_234
10
23.2467946
20
55.3698123
11
23.2467946
21
55.6131739
0
LINE
8
DEFAULT_255_1_234
10
22.8058521
20
55.6244184
11
22.8058521
21
55.3866789
0
ARC
8
DEFAULT_255_1_234
10
22.1706707
20
55.4050805
40
1.2247208
50
353.8441951
51
0.2287902
0
ARC
8
DEFAULT_255_1_234
10
22.6346211
20
55.3532806
40
0.7578929
50
344.4934747
51
353.9765454
0
ARC
8
DEFAULT_255_1_234
10
22.9338801
20
55.2681981
40
0.4467846
50
329.2803592
51
344.7472793
0
ARC
8
DEFAULT_255_1_234
10
23.0331626
20
55.2137018
40
0.3336173
50
324.9352394
51
328.6160465
0
ARC
8
DEFAULT_255_1_234
10
23.0708734
20
55.1873427
40
0.2876076
50
280.580143
51
324.9173126
0
ARC
8
DEFAULT_255_1_234
10
23.0307527
20
55.3544099
40
0.4592847
50
269.5977311
51
281.6734359
0
ARC
8
DEFAULT_255_1_234
10
23.0235433
20
55.3424173
40
0.4472986
50
256.6228859
51
270.51044
0
ARC
8
DEFAULT_255_1_234
10
22.983341
20
55.1875877
40
0.2873874
50
215.8618325
51
257.2788573
0
ARC
8
DEFAULT_255_1_234
10
23.0854442
20
55.2560977
40
0.4102928
50
197.9693508
51
215.2623606
0
ARC
8
DEFAULT_255_1_234
10
23.3339558
20
55.3399709
40
0.6725652
50
187.8816417
51
198.2346507
0
ARC
8
DEFAULT_255_1_234
10
23.7297766
20
55.3971079
40
1.0724845
50
180.8976217
51
188.0055519
0
ARC
8
DEFAULT_255_1_234
10
24.0097954
20
55.4074777
40
1.3526448
50
180.7449369
51
181.1510016
0
ARC
8
DEFAULT_255_1_234
10
23.8520683
20
55.5931042
40
1.1948131
50
173.7675579
51
180.231553
0
ARC
8
DEFAULT_255_1_234
10
23.400283
20
55.6441666
40
0.7401564
50
164.3058563
51
173.9002247
0
ARC
8
DEFAULT_255_1_234
10
23.1090899
20
55.7280656
40
0.4371288
50
148.7922025
51
164.568378
0
ARC
8
DEFAULT_255_1_234
10
23.0139351
20
55.7811929
40
0.3282386
50
144.5883898
51
148.1176286
0
ARC
8
DEFAULT_255_1_234
10
22.9796249
20
55.8051315
40
0.2864044
50
101.6440918
51
144.514236
0
ARC
8
DEFAULT_255_1_234
10
23.0221315
20
55.6362069
40
0.4604934
50
89.5284041
51
102.5819763
0
ARC
8
DEFAULT_255_1_234
10
23.0300403
20
55.6323018
40
0.464401
50
77.0437873
51
90.5081339
0
ARC
8
DEFAULT_255_1_234
10
23.0702405
20
55.7965615
40
0.2953195
50
48.2778575
51
77.4994676
0
ARC
8
DEFAULT_255_1_234
10
23.0775036
20
55.8094746
40
0.2808655
50
36.3142134
51
47.6305865
0
ARC
8
DEFAULT_255_1_234
10
22.9906343
20
55.7509515
40
0.3855453
50
18.2931786
51
35.6769206
0
ARC
8
DEFAULT_255_1_234
10
22.7363102
20
55.6636593
40
0.654423
50
8.024666
51
18.5605216
0
ARC
8
DEFAULT_255_1_234
10
22.3200022
20
55.6021792
40
1.0752407
50
1.1274072
51
8.1718305
0
ARC
8
DEFAULT_255_1_234
10
21.9964213
20
55.5894885
40
1.3990231
50
0.5424119
51
1.3863029
0
ARC
8
DEFAULT_255_1_234
10
22.178559
20
55.6167342
40
1.0682415
50
359.8090433
51
4.9407866
0
ARC
8
DEFAULT_255_1_234
10
22.5995604
20
55.6543113
40
0.6455691
50
4.8362157
51
12.2904523
0
ARC
8
DEFAULT_255_1_234
10
22.8750719
20
55.7156965
40
0.3633074
50
12.0805627
51
23.8173984
0
ARC
8
DEFAULT_255_1_234
10
22.9924425
20
55.7653919
40
0.2358723
50
24.2871213
51
31.3935614
0
ARC
8
DEFAULT_255_1_234
10
23.0449122
20
55.7997233
40
0.1732111
50
30.7407893
51
82.4657128
0
ARC
8
DEFAULT_255_1_234
10
23.0269256
20
55.7113691
40
0.263235
50
81.1060089
51
90.2184952
0
ARC
8
DEFAULT_255_1_234
10
23.0233555
20
55.7371924
40
0.2374236
50
89.3806855
51
105.6762551
0
ARC
8
DEFAULT_255_1_234
10
23.0050186
20
55.8038567
40
0.1682847
50
105.7981136
51
149.7388061
0
ARC
8
DEFAULT_255_1_234
10
23.1114264
20
55.739895
40
0.2924306
50
149.4208916
51
163.6286378
0
ARC
8
DEFAULT_255_1_234
10
23.3205152
20
55.676125
40
0.5110213
50
163.3763315
51
172.1410975
0
ARC
8
DEFAULT_255_1_234
10
23.6505871
20
55.6288518
40
0.8444586
50
172.0259487
51
178.0703232
0
ARC
8
DEFAULT_255_1_234
10
23.953596
20
55.6144906
40
1.1477868
50
177.8631668
51
179.5044149
0
ARC
8
DEFAULT_255_1_234
10
23.8463365
20
55.3830389
40
1.0404907
50
179.7995573
51
185.2460446
0
ARC
8
DEFAULT_255_1_234
10
23.4420404
20
55.3447513
40
0.6343885
50
185.1411642
51
193.0079639
0
ARC
8
DEFAULT_255_1_234
10
23.1776877
20
55.2822641
40
0.3627568
50
192.7897626
51
205.2507664
0
ARC
8
DEFAULT_255_1_234
10
23.0730424
20
55.2355415
40
0.2481908
50
205.8005384
51
211.2537509
0
ARC
8
DEFAULT_255_1_234
10
23.0206864
20
55.200458
40
0.1852521
50
210.3789793
51
238.4008143
0
ARC
8
DEFAULT_255_1_234
10
23.0187386
20
55.2051376
40
0.1882621
50
239.6520629
51
265.9793761
0
ARC
8
DEFAULT_255_1_234
10
23.0272586
20
55.2723427
40
0.2559272
50
265.1315437
51
270.060332
0
ARC
8
DEFAULT_255_1_234
10
23.0301365
20
55.2399534
40
0.2235528
50
269.3314664
51
287.2178029
0
ARC
8
DEFAULT_255_1_234
10
23.0439217
20
55.1896279
40
0.1714108
50
287.7958004
51
329.080874
0
ARC
8
DEFAULT_255_1_234
10
22.9481674
20
55.249393
40
0.2842745
50
328.6634704
51
343.3325132
0
ARC
8
DEFAULT_255_1_234
10
22.7308694
20
55.3170863
40
0.5118644
50
343.0499468
51
351.9393422
0
ARC
8
DEFAULT_255_1_234
10
22.3841994
20
55.3681949
40
0.8622784
50
351.8069023
51
357.7959224
0
ARC
8
DEFAULT_255_1_234
10
22.060655
20
55.3849721
40
1.1862365
50
357.5871873
51
359.2677531
0
LINE
8
DEFAULT_255_1_234
10
23.6668545
20
55.7802341
11
23.8877273
21
55.1127966
0
LINE
8
DEFAULT_255_1_234
10
23.8877273
20
55.1127966
11
24.1029779
21
55.7802341
0
LINE
8
DEFAULT_255_1_234
10
24.1029779
20
55.7802341
11
24.2547777
21
55.7802341
0
LINE
8
DEFAULT_255_1_234
10
24.2547777
20
55.7802341
11
23.9431463
21
54.9112
0
LINE
8
DEFAULT_255_1_234
10
23.9431463
20
54.9112
11
23.8298988
21
54.9112
0
LINE
8
DEFAULT_255_1_234
10
23.8298988
20
54.9112
11
23.5150546
21
55.7802341
0
LINE
8
DEFAULT_255_1_234
10
23.5150546
20
55.7802341
11
23.6668545
21
55.7802341
0
LINE
8
DEFAULT_255_1_234
10
21.1306265
20
61.1715276
11
21.1306265
21
60.8301788
0
LINE
8
DEFAULT_255_1_234
10
21.1306265
20
60.8301788
11
21.456715
21
60.8301788
0
LINE
8
DEFAULT_255_1_234
10
21.456715
20
60.8301788
11
21.456715
21
60.6896233
0
LINE
8
DEFAULT_255_1_234
10
21.456715
20
60.6896233
11
21.1306265
21
60.6896233
0
LINE
8
DEFAULT_255_1_234
10
21.1306265
20
60.6896233
11
21.1306265
21
60.3201634
0
LINE
8
DEFAULT_255_1_234
10
21.1306265
20
60.3201634
11
20.9812361
21
60.3201634
0
LINE
8
DEFAULT_255_1_234
10
20.9812361
20
60.3201634
11
20.9812361
21
60.6896233
0
LINE
8
DEFAULT_255_1_234
10
20.9812361
20
60.6896233
11
20.6551476
21
60.6896233
0
LINE
8
DEFAULT_255_1_234
10
20.6551476
20
60.6896233
11
20.6551476
21
60.8301788
0
LINE
8
DEFAULT_255_1_234
10
20.6551476
20
60.8301788
11
20.9812361
21
60.8301788
0
LINE
8
DEFAULT_255_1_234
10
20.9812361
20
60.8301788
11
20.9812361
21
61.1715276
0
LINE
8
DEFAULT_255_1_234
10
20.9812361
20
61.1715276
11
21.1306265
21
61.1715276
0
LINE
8
DEFAULT_255_1_234
10
22.1104985
20
61.3779433
11
22.1104985
21
60.2029
0
LINE
8
DEFAULT_255_1_234
10
22.1104985
20
60.2029
11
21.9611082
21
60.2029
0
LINE
8
DEFAULT_255_1_234
10
21.9611082
20
60.2029
11
21.9611082
21
61.1932133
0
LINE
8
DEFAULT_255_1_234
10
21.9611082
20
61.1932133
11
21.6615244
21
61.0831785
0
LINE
8
DEFAULT_255_1_234
10
21.6615244
20
61.0831785
11
21.6615244
21
61.2181117
0
LINE
8
DEFAULT_255_1_234
10
21.6615244
20
61.2181117
11
22.0872065
21
61.3779433
0
LINE
8
DEFAULT_255_1_234
10
22.0872065
20
61.3779433
11
22.1104985
21
61.3779433
0
LINE
8
DEFAULT_255_1_234
10
23.2791165
20
60.8944327
11
23.2791165
21
60.7016709
0
LINE
8
DEFAULT_255_1_234
10
22.5409997
20
60.6815916
11
22.5409997
21
60.8799755
0
LINE
8
DEFAULT_255_1_234
10
23.1305293
20
60.6615123
11
23.1305293
21
60.9048739
0
LINE
8
DEFAULT_255_1_234
10
22.6895869
20
60.9161184
11
22.6895869
21
60.6783789
0
ARC
8
DEFAULT_255_1_234
10
22.0544054
20
60.6967805
40
1.2247208
50
353.8441951
51
0.2287902
0
ARC
8
DEFAULT_255_1_234
10
22.5183558
20
60.6449806
40
0.7578929
50
344.4934747
51
353.9765454
0
ARC
8
DEFAULT_255_1_234
10
22.8176148
20
60.5598981
40
0.4467846
50
329.2803592
51
344.7472793
0
ARC
8
DEFAULT_255_1_234
10
22.9168973
20
60.5054018
40
0.3336173
50
324.9352394
51
328.6160465
0
ARC
8
DEFAULT_255_1_234
10
22.9546082
20
60.4790427
40
0.2876076
50
280.580143
51
324.9173126
0
ARC
8
DEFAULT_255_1_234
10
22.9144874
20
60.6461099
40
0.4592847
50
269.5977311
51
281.6734359
0
ARC
8
DEFAULT_255_1_234
10
22.907278
20
60.6341173
40
0.4472986
50
256.6228859
51
270.51044
0
ARC
8
DEFAULT_255_1_234
10
22.8670758
20
60.4792877
40
0.2873874
50
215.8618325
51
257.2788573
0
ARC
8
DEFAULT_255_1_234
10
22.9691789
20
60.5477977
40
0.4102928
50
197.9693508
51
215.2623606
0
ARC
8
DEFAULT_255_1_234
10
23.2176905
20
60.6316709
40
0.6725652
50
187.8816417
51
198.2346507
0
ARC
8
DEFAULT_255_1_234
10
23.6135113
20
60.6888079
40
1.0724845
50
180.8976217
51
188.0055519
0
ARC
8
DEFAULT_255_1_234
10
23.8935301
20
60.6991777
40
1.3526448
50
180.7449369
51
181.1510016
0
ARC
8
DEFAULT_255_1_234
10
23.735803
20
60.8848042
40
1.1948131
50
173.7675579
51
180.231553
0
ARC
8
DEFAULT_255_1_234
10
23.2840177
20
60.9358666
40
0.7401564
50
164.3058563
51
173.9002247
0
ARC
8
DEFAULT_255_1_234
10
22.9928246
20
61.0197656
40
0.4371288
50
148.7922025
51
164.568378
0
ARC
8
DEFAULT_255_1_234
10
22.8976698
20
61.0728929
40
0.3282386
50
144.5883898
51
148.1176286
0
ARC
8
DEFAULT_255_1_234
10
22.8633596
20
61.0968315
40
0.2864044
50
101.6440918
51
144.514236
0
ARC
8
DEFAULT_255_1_234
10
22.9058663
20
60.9279069
40
0.4604934
50
89.5284041
51
102.5819763
0
ARC
8
DEFAULT_255_1_234
10
22.913775
20
60.9240018
40
0.464401
50
77.0437873
51
90.5081339
0
ARC
8
DEFAULT_255_1_234
10
22.9539752
20
61.0882615
40
0.2953195
50
48.2778575
51
77.4994676
0
ARC
8
DEFAULT_255_1_234
10
22.9612383
20
61.1011746
40
0.2808655
50
36.3142134
51
47.6305865
0
ARC
8
DEFAULT_255_1_234
10
22.874369
20
61.0426515
40
0.3855453
50
18.2931786
51
35.6769206
0
ARC
8
DEFAULT_255_1_234
10
22.6200449
20
60.9553593
40
0.654423
50
8.024666
51
18.5605216
0
ARC
8
DEFAULT_255_1_234
10
22.2037369
20
60.8938792
40
1.0752407
50
1.1274072
51
8.1718305
0
ARC
8
DEFAULT_255_1_234
10
21.880156
20
60.8811885
40
1.3990231
50
0.5424119
51
1.3863029
0
ARC
8
DEFAULT_255_1_234
10
22.0622938
20
60.9084342
40
1.0682415
50
359.8090433
51
4.9407866
0
ARC
8
DEFAULT_255_1_234
10
22.4832952
20
60.9460113
40
0.6455691
50
4.8362157
51
12.2904523
0
ARC
8
DEFAULT_255_1_234
10
22.7588066
20
61.0073965
40
0.3633074
50
12.0805627
51
23.8173984
0
ARC
8
DEFAULT_255_1_234
10
22.8761772
20
61.0570919
40
0.2358723
50
24.2871213
51
31.3935614
0
ARC
8
DEFAULT_255_1_234
10
22.9286469
20
61.0914233
40
0.1732111
50
30.7407893
51
82.4657128
0
ARC
8
DEFAULT_255_1_234
10
22.9106603
20
61.0030691
40
0.263235
50
81.1060089
51
90.2184952
0
ARC
8
DEFAULT_255_1_234
10
22.9070902
20
61.0288924
40
0.2374236
50
89.3806855
51
105.6762551
0
ARC
8
DEFAULT_255_1_234
10
22.8887533
20
61.0955567
40
0.1682847
50
105.7981136
51
149.7388061
0
ARC
8
DEFAULT_255_1_234
10
22.9951611
20
61.031595
40
0.2924306
50
149.4208916
51
163.6286378
0
ARC
8
DEFAULT_255_1_234
10
23.2042499
20
60.967825
40
0.5110213
50
163.3763315
51
172.1410975
0
ARC
8
DEFAULT_255_1_234
10
23.5343218
20
60.9205518
40
0.8444586
50
172.0259487
51
178.0703232
0
ARC
8
DEFAULT_255_1_234
10
23.8373308
20
60.9061906
40
1.1477868
50
177.8631668
51
179.5044149
0
ARC
8
DEFAULT_255_1_234
10
23.7300712
20
60.6747389
40
1.0404907
50
179.7995573
51
185.2460446
0
ARC
8
DEFAULT_255_1_234
10
23.3257751
20
60.6364513
40
0.6343885
50
185.1411642
51
193.0079639
0
ARC
8
DEFAULT_255_1_234
10
23.0614224
20
60.5739641
40
0.3627568
50
192.7897626
51
205.2507664
0
ARC
8
DEFAULT_255_1_234
10
22.9567771
20
60.5272415
40
0.2481908
50
205.8005384
51
211.2537509
0
ARC
8
DEFAULT_255_1_234
10
22.9044211
20
60.492158
40
0.1852521
50
210.3789793
51
238.4008143
0
ARC
8
DEFAULT_255_1_234
10
22.9024733
20
60.4968376
40
0.1882621
50
239.6520629
51
265.9793761
0
ARC
8
DEFAULT_255_1_234
10
22.9109934
20
60.5640427
40
0.2559272
50
265.1315437
51
270.060332
0
ARC
8
DEFAULT_255_1_234
10
22.9138712
20
60.5316534
40
0.2235528
50
269.3314664
51
287.2178029
0
ARC
8
DEFAULT_255_1_234
10
22.9276564
20
60.4813279
40
0.1714108
50
287.7958004
51
329.080874
0
ARC
8
DEFAULT_255_1_234
10
22.8319021
20
60.541093
40
0.2842745
50
328.6634704
51
343.3325132
0
ARC
8
DEFAULT_255_1_234
10
22.6146041
20
60.6087863
40
0.5118644
50
343.0499468
51
351.9393422
0
ARC
8
DEFAULT_255_1_234
10
22.2679341
20
60.6598949
40
0.8622784
50
351.8069023
51
357.7959224
0
ARC
8
DEFAULT_255_1_234
10
21.9443897
20
60.6766721
40
1.1862365
50
357.5871873
51
359.2677531
0
LINE
8
DEFAULT_255_1_234
10
23.5505892
20
61.0719341
11
23.771462
21
60.4044966
0
LINE
8
DEFAULT_255_1_234
10
23.771462
20
60.4044966
11
23.9867126
21
61.0719341
0
LINE
8
DEFAULT_255_1_234
10
23.9867126
20
61.0719341
11
24.1385125
21
61.0719341
0
LINE
8
DEFAULT_255_1_234
10
24.1385125
20
61.0719341
11
23.826881
21
60.2029
0
LINE
8
DEFAULT_255_1_234
10
23.826881
20
60.2029
11
23.7136335
21
60.2029
0
LINE
8
DEFAULT_255_1_234
10
23.7136335
20
60.2029
11
23.3987894
21
61.0719341
0
LINE
8
DEFAULT_255_1_234
10
23.3987894
20
61.0719341
11
23.5505892
21
61.0719341
0
LINE
8
DEFAULT_255_1_234
10
20.8849292
20
66.6640211
11
20.8849292
21
66.5371196
0
LINE
8
DEFAULT_255_1_234
10
20.8849292
20
66.5371196
11
20.5090439
21
66.5371196
0
LINE
8
DEFAULT_255_1_234
10
20.5090439
20
66.5371196
11
20.5090439
21
65.4946
0
LINE
8
DEFAULT_255_1_234
10
20.5090439
20
65.4946
11
20.3556377
21
65.4946
0
LINE
8
DEFAULT_255_1_234
10
20.3556377
20
65.4946
11
20.3556377
21
66.5371196
0
LINE
8
DEFAULT_255_1_234
10
20.3556377
20
66.5371196
11
19.9805555
21
66.5371196
0
LINE
8
DEFAULT_255_1_234
10
19.9805555
20
66.5371196
11
19.9805555
21
66.6640211
0
LINE
8
DEFAULT_255_1_234
10
19.9805555
20
66.6640211
11
20.8849292
21
66.6640211
0
LINE
8
DEFAULT_255_1_234
10
21.2359162
20
66.0303169
11
21.2359162
21
66.1515962
0
LINE
8
DEFAULT_255_1_234
10
21.2359162
20
66.1515962
11
21.3475574
21
66.1515962
0
LINE
8
DEFAULT_255_1_234
10
21.1572052
20
66.3572087
11
21.008618
21
66.3572087
0
LINE
8
DEFAULT_255_1_234
10
20.9981768
20
65.8030188
11
21.1475671
21
65.8030188
0
LINE
8
DEFAULT_255_1_234
10
21.3475574
20
66.0303169
11
21.2359162
21
66.0303169
0
ARC
8
DEFAULT_255_1_234
10
21.344644
20
66.4908713
40
0.3392876
50
270.4919872
51
281.8951556
0
ARC
8
DEFAULT_255_1_234
10
21.3687702
20
66.3806702
40
0.2264817
50
281.6691735
51
301.2943132
0
ARC
8
DEFAULT_255_1_234
10
21.3857912
20
66.3495304
40
0.1910381
50
301.7833094
51
311.7545298
0
ARC
8
DEFAULT_255_1_234
10
21.3949488
20
66.3393748
40
0.1773635
50
311.7323931
51
354.2802411
0
ARC
8
DEFAULT_255_1_234
10
21.3223113
20
66.3518722
40
0.2509385
50
353.0937916
51
0.1181479
0
ARC
8
DEFAULT_255_1_234
10
21.2761898
20
66.3566386
40
0.2970898
50
359.1805295
51
15.0453146
0
ARC
8
DEFAULT_255_1_234
10
21.4107735
20
66.3958992
40
0.1569564
50
13.9577229
51
77.6713066
0
ARC
8
DEFAULT_255_1_234
10
21.3721264
20
66.2573949
40
0.3006298
50
76.1116566
51
90.7026153
0
ARC
8
DEFAULT_255_1_234
10
21.3662102
20
66.2847545
40
0.2732568
50
89.5324876
51
103.531937
0
ARC
8
DEFAULT_255_1_234
10
21.3461547
20
66.3646884
40
0.1908508
50
103.2931773
51
133.5619022
0
ARC
8
DEFAULT_255_1_234
10
21.3417035
20
66.3706375
40
0.1834746
50
133.8349307
51
173.5344437
0
ARC
8
DEFAULT_255_1_234
10
21.4140078
20
66.3578213
40
0.2568033
50
172.5096846
51
180.1366907
0
ARC
8
DEFAULT_255_1_234
10
21.3188972
20
66.3612622
40
0.3103056
50
155.3484492
51
180.7484736
0
ARC
8
DEFAULT_255_1_234
10
21.3140061
20
66.3583846
40
0.3070957
50
131.5744599
51
154.4798489
0
ARC
8
DEFAULT_255_1_234
10
21.3453208
20
66.326731
40
0.3515643
50
96.9875458
51
131.9690667
0
ARC
8
DEFAULT_255_1_234
10
21.3672688
20
66.2021636
40
0.4779224
50
89.8596053
51
97.7825159
0
ARC
8
DEFAULT_255_1_234
10
21.3720751
20
66.1759616
40
0.5041361
50
78.3655447
51
90.4131539
0
ARC
8
DEFAULT_255_1_234
10
21.4078669
20
66.3418887
40
0.3344039
50
56.6229102
51
78.638727
0
ARC
8
DEFAULT_255_1_234
10
21.4293613
20
66.3794805
40
0.2912001
50
47.0253525
51
56.0854072
0
ARC
8
DEFAULT_255_1_234
10
21.4313393
20
66.3834223
40
0.2869704
50
10.9208013
51
46.7778124
0
ARC
8
DEFAULT_255_1_234
10
21.294946
20
66.3518857
40
0.426899
50
359.6364486
51
11.6087304
0
ARC
8
DEFAULT_255_1_234
10
21.4784304
20
66.3503752
40
0.243409
50
332.3549906
51
359.7179418
0
ARC
8
DEFAULT_255_1_234
10
21.4133905
20
66.3812142
40
0.3153459
50
325.2333722
51
332.8745602
0
ARC
8
DEFAULT_255_1_234
10
21.4286529
20
66.3705828
40
0.2967456
50
292.9802137
51
325.2392345
0
ARC
8
DEFAULT_255_1_234
10
21.4011903
20
66.4239863
40
0.3566604
50
292.5402179
51
293.6924929
0
ARC
8
DEFAULT_255_1_234
10
21.4404499
20
65.7785091
40
0.3307468
50
57.6435486
51
72.8625112
0
ARC
8
DEFAULT_255_1_234
10
21.4758998
20
65.8359549
40
0.2632492
50
36.7248896
51
57.4697979
0
ARC
8
DEFAULT_255_1_234
10
21.4747631
20
65.837222
40
0.2634081
50
8.0545065
51
36.356114
0
ARC
8
DEFAULT_255_1_234
10
21.3884816
20
65.8217174
40
0.3510261
50
359.8320645
51
8.5869982
0
ARC
8
DEFAULT_255_1_234
10
21.3509592
20
65.8169101
40
0.3885653
50
343.9829931
51
0.5571613
0
ARC
8
DEFAULT_255_1_234
10
21.439579
20
65.7926438
40
0.2966924
50
311.6359546
51
343.7651759
0
ARC
8
DEFAULT_255_1_234
10
21.4017359
20
65.8353102
40
0.3537231
50
279.7829875
51
311.6255694
0
ARC
8
DEFAULT_255_1_234
10
21.3716135
20
65.979028
40
0.5004971
50
269.7286406
51
280.3856417
0
ARC
8
DEFAULT_255_1_234
10
21.3654208
20
65.9748996
40
0.4963778
50
256.6828919
51
270.4412052
0
ARC
8
DEFAULT_255_1_234
10
21.3315503
20
65.8364394
40
0.3538406
50
229.4223008
51
256.8556159
0
ARC
8
DEFAULT_255_1_234
10
21.2900896
20
65.7897736
40
0.2914296
50
181.818294
51
229.6455059
0
ARC
8
DEFAULT_255_1_234
10
21.3940852
20
65.8028496
40
0.3959084
50
179.9755256
51
183.2323064
0
ARC
8
DEFAULT_255_1_234
10
21.3768598
20
65.8008037
40
0.2293034
50
179.4465117
51
196.2869258
0
ARC
8
DEFAULT_255_1_234
10
21.3281006
20
65.7874651
40
0.1787621
50
196.5661473
51
227.705904
0
ARC
8
DEFAULT_255_1_234
10
21.3445101
20
65.8058155
40
0.2033784
50
227.7652068
51
257.8762805
0
ARC
8
DEFAULT_255_1_234
10
21.3670071
20
65.9001156
40
0.3003081
50
257.4584385
51
270.426602
0
ARC
8
DEFAULT_255_1_234
10
21.3715637
20
65.9290996
40
0.329292
50
269.5962073
51
280.8789248
0
ARC
8
DEFAULT_255_1_234
10
21.3945166
20
65.8144685
40
0.2123908
50
280.6346389
51
299.8595945
0
ARC
8
DEFAULT_255_1_234
10
21.4136073
20
65.7782212
40
0.171457
50
300.3576302
51
314.5517981
0
ARC
8
DEFAULT_255_1_234
10
21.4053133
20
65.7842919
40
0.1816095
50
315.0728369
51
345.0431014
0
ARC
8
DEFAULT_255_1_234
10
21.3129947
20
65.8111841
40
0.2777492
50
344.5986631
51
357.9269593
0
ARC
8
DEFAULT_255_1_234
10
21.2234274
20
65.8173276
40
0.3674917
50
357.4748886
51
0.0231117
0
ARC
8
DEFAULT_255_1_234
10
21.3257383
20
65.8197679
40
0.2651907
50
359.5047933
51
13.4239635
0
ARC
8
DEFAULT_255_1_234
10
21.4124027
20
65.8419478
40
0.1757509
50
12.9498199
51
48.7551375
0
ARC
8
DEFAULT_255_1_234
10
21.3941761
20
65.81704
40
0.2065134
50
49.5088623
51
72.1836453
0
ARC
8
DEFAULT_255_1_234
10
21.3583913
20
65.7108291
40
0.3185836
50
71.9010081
51
84.3554254
0
ARC
8
DEFAULT_255_1_234
10
21.3422545
20
65.5747326
40
0.4556151
50
84.0193428
51
89.333121
0
LINE
8
DEFAULT_255_1_234
10
22.4760166
20
66.6640211
11
21.9884901
21
65.3942033
0
LINE
8
DEFAULT_255_1_234
10
21.9884901
20
65.3942033
11
21.8607854
21
65.3942033
0
LINE
8
DEFAULT_255_1_234
10
21.8607854
20
65.3942033
11
22.3491151
21
66.6640211
0
LINE
8
DEFAULT_255_1_234
10
22.3491151
20
66.6640211
11
22.4760166
21
66.6640211
0
LINE
8
DEFAULT_255_1_234
10
22.72741
20
66.6640211
11
22.91214
21
65.8632568
0
LINE
8
DEFAULT_255_1_234
10
22.91214
20
65.8632568
11
22.9346289
21
65.7090474
0
LINE
8
DEFAULT_255_1_234
10
22.9346289
20
65.7090474
11
22.967559
21
65.8479965
0
LINE
8
DEFAULT_255_1_234
10
22.967559
20
65.8479965
11
23.198873
21
66.6640211
0
LINE
8
DEFAULT_255_1_234
10
23.198873
20
66.6640211
11
23.3289872
21
66.6640211
0
LINE
8
DEFAULT_255_1_234
10
23.3289872
20
66.6640211
11
23.5546791
21
65.8479965
0
LINE
8
DEFAULT_255_1_234
10
23.5546791
20
65.8479965
11
23.586806
21
65.7066379
0
LINE
8
DEFAULT_255_1_234
10
23.586806
20
65.7066379
11
23.6117044
21
65.86406
0
LINE
8
DEFAULT_255_1_234
10
23.6117044
20
65.86406
11
23.7932217
21
66.6640211
0
LINE
8
DEFAULT_255_1_234
10
23.7932217
20
66.6640211
11
23.9482342
21
66.6640211
0
LINE
8
DEFAULT_255_1_234
10
23.9482342
20
66.6640211
11
23.6647139
21
65.4946
0
LINE
8
DEFAULT_255_1_234
10
23.6647139
20
65.4946
11
23.5241584
21
65.4946
0
LINE
8
DEFAULT_255_1_234
10
23.5241584
20
65.4946
11
23.2832063
21
66.3467674
0
LINE
8
DEFAULT_255_1_234
10
23.2832063
20
66.3467674
11
23.2647333
21
66.4359197
0
LINE
8
DEFAULT_255_1_234
10
23.2647333
20
66.4359197
11
23.2462603
21
66.3467674
0
LINE
8
DEFAULT_255_1_234
10
23.2462603
20
66.3467674
11
22.9964732
21
65.4946
0
LINE
8
DEFAULT_255_1_234
10
22.9964732
20
65.4946
11
22.8559178
21
65.4946
0
LINE
8
DEFAULT_255_1_234
10
22.8559178
20
65.4946
11
22.5732006
21
66.6640211
0
LINE
8
DEFAULT_255_1_234
10
22.5732006
20
66.6640211
11
22.72741
21
66.6640211
0
LINE
8
DEFAULT_255_1_234
10
21.4078292
20
71.9556211
11
21.4078292
21
71.8287196
0
LINE
8
DEFAULT_255_1_234
10
21.4078292
20
71.8287196
11
21.0319439
21
71.8287196
0
LINE
8
DEFAULT_255_1_234
10
21.0319439
20
71.8287196
11
21.0319439
21
70.7862
0
LINE
8
DEFAULT_255_1_234
10
21.0319439
20
70.7862
11
20.8785377
21
70.7862
0
LINE
8
DEFAULT_255_1_234
10
20.8785377
20
70.7862
11
20.8785377
21
71.8287196
0
LINE
8
DEFAULT_255_1_234
10
20.8785377
20
71.8287196
11
20.5034555
21
71.8287196
0
LINE
8
DEFAULT_255_1_234
10
20.5034555
20
71.8287196
11
20.5034555
21
71.9556211
0
LINE
8
DEFAULT_255_1_234
10
20.5034555
20
71.9556211
11
21.4078292
21
71.9556211
0
LINE
8
DEFAULT_255_1_234
10
22.3089903
20
70.9074792
11
22.3089903
21
70.7862
0
LINE
8
DEFAULT_255_1_234
10
22.3089903
20
70.7862
11
21.5427625
21
70.7862
0
LINE
8
DEFAULT_255_1_234
10
21.5427625
20
70.7862
11
21.5427625
21
70.8930221
0
LINE
8
DEFAULT_255_1_234
10
21.5427625
20
70.8930221
11
21.9475621
21
71.3427995
0
LINE
8
DEFAULT_255_1_234
10
21.6688607
20
71.6110595
11
21.5202736
21
71.6110595
0
LINE
8
DEFAULT_255_1_234
10
22.035108
20
71.2472218
11
21.7218702
21
70.9074792
0
LINE
8
DEFAULT_255_1_234
10
21.7218702
20
70.9074792
11
22.3089903
21
70.9074792
0
ARC
8
DEFAULT_255_1_234
10
20.5985454
20
72.5357527
40
1.8008286
50
318.5132453
51
320.7828378
0
ARC
8
DEFAULT_255_1_234
10
21.1272428
20
72.1054426
40
1.1191493
50
320.7372736
51
323.9737074
0
ARC
8
DEFAULT_255_1_234
10
21.5192285
20
71.8214361
40
0.6350923
50
323.8961724
51
328.6421089
0
ARC
8
DEFAULT_255_1_234
10
21.723888
20
71.6952031
40
0.3946393
50
328.8299013
51
331.789948
0
ARC
8
DEFAULT_255_1_234
10
21.8236059
20
71.6437509
40
0.2824501
50
331.4255242
51
352.9364833
0
ARC
8
DEFAULT_255_1_234
10
21.8372559
20
71.6406976
40
0.2685315
50
353.2248685
51
0.0169286
0
ARC
8
DEFAULT_255_1_234
10
21.8582436
20
71.642995
40
0.2475536
50
359.4866256
51
15.9339782
0
ARC
8
DEFAULT_255_1_234
10
21.9089421
20
71.6566286
40
0.1950618
50
16.1714718
51
43.5284424
0
ARC
8
DEFAULT_255_1_234
10
21.916673
20
71.6643573
40
0.184134
50
43.4415429
51
83.1661404
0
ARC
8
DEFAULT_255_1_234
10
21.9032648
20
71.5906771
40
0.258926
50
82.160215
51
90.1505798
0
ARC
8
DEFAULT_255_1_234
10
21.9001076
20
71.5369865
40
0.3126255
50
89.5460705
51
102.5418777
0
ARC
8
DEFAULT_255_1_234
10
21.8758162
20
71.6400665
40
0.2067346
50
102.1739365
51
129.2061916
0
ARC
8
DEFAULT_255_1_234
10
21.8679233
20
71.6525094
40
0.1921118
50
129.7279328
51
135.7542026
0
ARC
8
DEFAULT_255_1_234
10
21.8800761
20
71.6428045
40
0.2075944
50
136.175737
51
166.3674722
0
ARC
8
DEFAULT_255_1_234
10
21.980768
20
71.6158182
40
0.3118201
50
165.9092917
51
178.8683903
0
ARC
8
DEFAULT_255_1_234
10
22.0672542
20
71.6111179
40
0.3983935
50
178.438168
51
180.0083905
0
ARC
8
DEFAULT_255_1_234
10
21.9271144
20
71.6150231
40
0.4068601
50
163.2878735
51
180.5581814
0
ARC
8
DEFAULT_255_1_234
10
21.8469405
20
71.637084
40
0.3237344
50
133.454115
51
162.9470031
0
ARC
8
DEFAULT_255_1_234
10
21.8647947
20
71.6181
40
0.349795
50
100.7869394
51
133.4384016
0
ARC
8
DEFAULT_255_1_234
10
21.8995718
20
71.4632319
40
0.5084616
50
89.6605301
51
101.3704185
0
ARC
8
DEFAULT_255_1_234
10
21.9062057
20
71.4693496
40
0.502348
50
78.2171172
51
90.4130393
0
ARC
8
DEFAULT_255_1_234
10
21.9417135
20
71.6317637
40
0.3361092
50
55.9268222
51
78.4888551
0
ARC
8
DEFAULT_255_1_234
10
21.9613575
20
71.6656324
40
0.2970617
50
47.9292255
51
55.4054003
0
ARC
8
DEFAULT_255_1_234
10
21.9715136
20
71.6759502
40
0.2825983
50
4.3347696
51
48.0560701
0
ARC
8
DEFAULT_255_1_234
10
21.861953
20
71.6589601
40
0.393225
50
359.925209
51
5.5967654
0
ARC
8
DEFAULT_255_1_234
10
21.9048421
20
71.6645816
40
0.3503892
50
337.8914096
51
358.9967724
0
ARC
8
DEFAULT_255_1_234
10
21.6334833
20
71.7692706
40
0.6412172
50
326.9135351
51
338.3505194
0
ARC
8
DEFAULT_255_1_234
10
21.2349137
20
72.0247284
40
1.1146189
50
319.6472867
51
327.095818
0
ARC
8
DEFAULT_255_1_234
10
20.851614
20
72.3409
40
1.6114559
50
317.2586784
51
319.9046139
0
LINE
8
DEFAULT_255_1_234
10
22.9989166
20
71.9556211
11
22.5113901
21
70.6858033
0
LINE
8
DEFAULT_255_1_234
10
22.5113901
20
70.6858033
11
22.3836854
21
70.6858033
0
LINE
8
DEFAULT_255_1_234
10
22.3836854
20
70.6858033
11
22.8720151
21
71.9556211
0
LINE
8
DEFAULT_255_1_234
10
22.8720151
20
71.9556211
11
22.9989166
21
71.9556211
0
LINE
8
DEFAULT_255_1_234
10
23.2374592
20
71.9556211
11
23.5699732
21
70.9910093
0
LINE
8
DEFAULT_255_1_234
10
23.5699732
20
70.9910093
11
23.9040935
21
71.9556211
0
LINE
8
DEFAULT_255_1_234
10
23.9040935
20
71.9556211
11
24.07276
21
71.9556211
0
LINE
8
DEFAULT_255_1_234
10
24.07276
20
71.9556211
11
23.6390461
21
70.7862
0
LINE
8
DEFAULT_255_1_234
10
23.6390461
20
70.7862
11
23.5025066
21
70.7862
0
LINE
8
DEFAULT_255_1_234
10
23.5025066
20
70.7862
11
23.0695959
21
71.9556211
0
LINE
8
DEFAULT_255_1_234
10
23.0695959
20
71.9556211
11
23.2374592
21
71.9556211
0
LINE
8
DEFAULT_255_2_778
10
12.0385084
20
51.7260999
11
18.6531084
21
51.7260999
0
LINE
8
DEFAULT_255_2_778
10
18.6531084
20
51.7260999
11
18.6531084
21
42.2010999
0
LINE
8
DEFAULT_255_2_778
10
18.6531084
20
42.2010999
11
12.0385084
21
42.2010999
0
LINE
8
DEFAULT_255_2_778
10
12.0385084
20
42.2010999
11
12.0385084
21
51.7260999
0
LINE
8
DEFAULT_255_1_604
10
13.6915301
20
49.4276
11
13.5464013
21
49.8243549
0
LINE
8
DEFAULT_255_1_604
10
13.5464013
20
49.8243549
11
12.9095053
21
49.8243549
0
LINE
8
DEFAULT_255_1_604
10
12.9095053
20
49.8243549
11
12.7664647
21
49.4276
0
LINE
8
DEFAULT_255_1_604
10
12.7664647
20
49.4276
11
12.5597346
21
49.4276
0
LINE
8
DEFAULT_255_1_604
10
12.5597346
20
49.4276
11
13.1402496
21
50.9477977
0
LINE
8
DEFAULT_255_1_604
10
13.1402496
20
50.9477977
11
13.315657
21
50.9477977
0
LINE
8
DEFAULT_255_1_604
10
13.315657
20
50.9477977
11
13.8972162
21
49.4276
0
LINE
8
DEFAULT_255_1_604
10
13.8972162
20
49.4276
11
13.6915301
21
49.4276
0
LINE
8
DEFAULT_255_1_604
10
13.2279533
20
50.7003479
11
12.9700626
21
49.9893214
0
LINE
8
DEFAULT_255_1_604
10
12.9700626
20
49.9893214
11
13.4868881
21
49.9893214
0
LINE
8
DEFAULT_255_1_604
10
13.4868881
20
49.9893214
11
13.2279533
21
50.7003479
0
LINE
8
DEFAULT_255_1_604
10
16.2999205
20
43.3422
11
15.8791515
21
43.3422
0
LINE
8
DEFAULT_255_1_604
10
15.8791515
20
43.3422
11
15.8791515
21
44.8623977
0
LINE
8
DEFAULT_255_1_604
10
15.8791515
20
44.8623977
11
16.3082732
21
44.8623977
0
LINE
8
DEFAULT_255_1_604
10
16.9785802
20
44.1534593
11
16.9785802
21
44.0563588
0
LINE
8
DEFAULT_255_1_604
10
16.3134937
20
44.6974312
11
16.0796171
21
44.6974312
0
LINE
8
DEFAULT_255_1_604
10
16.0796171
20
44.6974312
11
16.0796171
21
43.5061224
0
LINE
8
DEFAULT_255_1_604
10
16.0796171
20
43.5061224
11
16.2905237
21
43.5061224
0
LINE
8
DEFAULT_255_1_604
10
16.7802027
20
44.0605352
11
16.7802027
21
44.149283
0
ARC
8
DEFAULT_255_1_604
10
16.3133353
20
44.0999318
40
0.7624827
50
75.4100774
51
90.3803846
0
ARC
8
DEFAULT_255_1_604
10
16.3431716
20
44.2242839
40
0.6346294
50
60.1456505
51
75.1888808
0
ARC
8
DEFAULT_255_1_604
10
16.3638109
20
44.2602547
40
0.5931579
50
26.5254235
51
60.1450903
0
ARC
8
DEFAULT_255_1_604
10
16.2181949
20
44.1830364
40
0.757942
50
7.4029017
51
26.832236
0
ARC
8
DEFAULT_255_1_604
10
16.010931
20
44.150749
40
0.967653
50
0.1604823
51
7.717504
0
ARC
8
DEFAULT_255_1_604
10
16.0322451
20
44.051382
40
0.9463482
50
348.7290162
51
0.3013178
0
ARC
8
DEFAULT_255_1_604
10
16.2475764
20
44.0086071
40
0.7268094
50
333.0706801
51
348.7182579
0
ARC
8
DEFAULT_255_1_604
10
16.3732499
20
43.9403513
40
0.583864
50
299.2531206
51
333.4571395
0
ARC
8
DEFAULT_255_1_604
10
16.3263381
20
44.0294642
40
0.6845416
50
278.1072459
51
299.0340304
0
ARC
8
DEFAULT_255_1_604
10
16.2930688
20
44.2254393
40
0.8832658
50
270.4444611
51
278.4509945
0
ARC
8
DEFAULT_255_1_604
10
16.2957785
20
44.1046535
40
0.5985542
50
269.4969829
51
284.020426
0
ARC
8
DEFAULT_255_1_604
10
16.3419654
20
43.9271776
40
0.4151796
50
283.7700501
51
318.1556027
0
ARC
8
DEFAULT_255_1_604
10
16.2981226
20
43.9599891
40
0.4697543
50
318.7416475
51
343.6872757
0
ARC
8
DEFAULT_255_1_604
10
16.0636015
20
44.0332391
40
0.7154224
50
343.3325746
51
355.8546968
0
ARC
8
DEFAULT_255_1_604
10
15.7907445
20
44.059171
40
0.9894591
50
355.4991336
51
0.0789924
0
ARC
8
DEFAULT_255_1_604
10
15.8925851
20
44.1547758
40
0.8876346
50
359.6454412
51
9.8607665
0
ARC
8
DEFAULT_255_1_604
10
16.1994588
20
44.2101934
40
0.5758076
50
9.657244
51
26.1932279
0
ARC
8
DEFAULT_255_1_604
10
16.3201028
20
44.2662282
40
0.4428288
50
26.5777141
51
40.1534131
0
ARC
8
DEFAULT_255_1_604
10
16.3533408
20
44.2921604
40
0.4007056
50
40.3839847
51
80.1431575
0
ARC
8
DEFAULT_255_1_604
10
16.3108485
20
44.1037702
40
0.5936668
50
79.2151462
51
89.7447056
0
LINE
8
DEFAULT_255_2_778
10
18.6531084
20
51.7260999
11
12.0385084
21
42.2010999
0
LINE
8
DEFAULT_255_2_778
10
19.9760417
20
49.0802667
11
19.9760417
21
50.1385667
0
LINE
8
DEFAULT_255_2_778
10
19.9760417
20
50.1385667
11
18.6531417
21
49.6093667
0
LINE
8
DEFAULT_255_2_778
10
18.6531417
20
49.6093667
11
19.9760417
21
49.0802667
0
LINE
8
DEFAULT_255_2_778
10
21.2989417
20
49.6094
11
19.9760417
21
49.6094
0
LINE
8
DEFAULT_255_2_778
10
19.9760417
20
43.7885667
11
19.9760417
21
44.8468667
0
LINE
8
DEFAULT_255_2_778
10
19.9760417
20
44.8468667
11
18.6531417
21
44.3176667
0
LINE
8
DEFAULT_255_2_778
10
18.6531417
20
44.3176667
11
19.9760417
21
43.7885667
0
LINE
8
DEFAULT_255_2_778
10
21.2989417
20
44.3177
11
19.9760417
21
44.3177
0
LINE
8
DEFAULT_255_2_778
10
12.0385084
20
41.1426999
11
18.6531084
21
41.1426999
0
LINE
8
DEFAULT_255_2_778
10
18.6531084
20
41.1426999
11
18.6531084
21
31.6176999
0
LINE
8
DEFAULT_255_2_778
10
18.6531084
20
31.6176999
11
12.0385084
21
31.6176999
0
LINE
8
DEFAULT_255_2_778
10
12.0385084
20
31.6176999
11
12.0385084
21
41.1426999
0
LINE
8
DEFAULT_255_1_604
10
13.6915301
20
38.8443
11
13.5464013
21
39.2410549
0
LINE
8
DEFAULT_255_1_604
10
13.5464013
20
39.2410549
11
12.9095053
21
39.2410549
0
LINE
8
DEFAULT_255_1_604
10
12.9095053
20
39.2410549
11
12.7664647
21
38.8443
0
LINE
8
DEFAULT_255_1_604
10
12.7664647
20
38.8443
11
12.5597346
21
38.8443
0
LINE
8
DEFAULT_255_1_604
10
12.5597346
20
38.8443
11
13.1402496
21
40.3644977
0
LINE
8
DEFAULT_255_1_604
10
13.1402496
20
40.3644977
11
13.315657
21
40.3644977
0
LINE
8
DEFAULT_255_1_604
10
13.315657
20
40.3644977
11
13.8972162
21
38.8443
0
LINE
8
DEFAULT_255_1_604
10
13.8972162
20
38.8443
11
13.6915301
21
38.8443
0
LINE
8
DEFAULT_255_1_604
10
13.2279533
20
40.1170479
11
12.9700626
21
39.4060214
0
LINE
8
DEFAULT_255_1_604
10
12.9700626
20
39.4060214
11
13.4868881
21
39.4060214
0
LINE
8
DEFAULT_255_1_604
10
13.4868881
20
39.4060214
11
13.2279533
21
40.1170479
0
LINE
8
DEFAULT_255_1_604
10
16.2999205
20
32.7589
11
15.8791515
21
32.7589
0
LINE
8
DEFAULT_255_1_604
10
15.8791515
20
32.7589
11
15.8791515
21
34.2790977
0
LINE
8
DEFAULT_255_1_604
10
15.8791515
20
34.2790977
11
16.3082732
21
34.2790977
0
LINE
8
DEFAULT_255_1_604
10
16.9785802
20
33.5701593
11
16.9785802
21
33.4730588
0
LINE
8
DEFAULT_255_1_604
10
16.3134937
20
34.1141312
11
16.0796171
21
34.1141312
0
LINE
8
DEFAULT_255_1_604
10
16.0796171
20
34.1141312
11
16.0796171
21
32.9228224
0
LINE
8
DEFAULT_255_1_604
10
16.0796171
20
32.9228224
11
16.2905237
21
32.9228224
0
LINE
8
DEFAULT_255_1_604
10
16.7802027
20
33.4772352
11
16.7802027
21
33.565983
0
ARC
8
DEFAULT_255_1_604
10
16.3133353
20
33.5166318
40
0.7624827
50
75.4100774
51
90.3803846
0
ARC
8
DEFAULT_255_1_604
10
16.3431716
20
33.6409839
40
0.6346294
50
60.1456505
51
75.1888808
0
ARC
8
DEFAULT_255_1_604
10
16.3638109
20
33.6769547
40
0.5931579
50
26.5254235
51
60.1450903
0
ARC
8
DEFAULT_255_1_604
10
16.2181949
20
33.5997364
40
0.757942
50
7.4029017
51
26.832236
0
ARC
8
DEFAULT_255_1_604
10
16.010931
20
33.567449
40
0.967653
50
0.1604823
51
7.717504
0
ARC
8
DEFAULT_255_1_604
10
16.0322451
20
33.468082
40
0.9463482
50
348.7290162
51
0.3013178
0
ARC
8
DEFAULT_255_1_604
10
16.2475764
20
33.4253071
40
0.7268094
50
333.0706801
51
348.7182579
0
ARC
8
DEFAULT_255_1_604
10
16.3732499
20
33.3570513
40
0.583864
50
299.2531206
51
333.4571395
0
ARC
8
DEFAULT_255_1_604
10
16.3263381
20
33.4461642
40
0.6845416
50
278.1072459
51
299.0340304
0
ARC
8
DEFAULT_255_1_604
10
16.2930688
20
33.6421393
40
0.8832658
50
270.4444611
51
278.4509945
0
ARC
8
DEFAULT_255_1_604
10
16.2957785
20
33.5213535
40
0.5985542
50
269.4969829
51
284.020426
0
ARC
8
DEFAULT_255_1_604
10
16.3419654
20
33.3438776
40
0.4151796
50
283.7700501
51
318.1556027
0
ARC
8
DEFAULT_255_1_604
10
16.2981226
20
33.3766891
40
0.4697543
50
318.7416475
51
343.6872757
0
ARC
8
DEFAULT_255_1_604
10
16.0636015
20
33.4499391
40
0.7154224
50
343.3325746
51
355.8546968
0
ARC
8
DEFAULT_255_1_604
10
15.7907445
20
33.475871
40
0.9894591
50
355.4991336
51
0.0789924
0
ARC
8
DEFAULT_255_1_604
10
15.8925851
20
33.5714758
40
0.8876346
50
359.6454412
51
9.8607665
0
ARC
8
DEFAULT_255_1_604
10
16.1994588
20
33.6268934
40
0.5758076
50
9.657244
51
26.1932279
0
ARC
8
DEFAULT_255_1_604
10
16.3201028
20
33.6829282
40
0.4428288
50
26.5777141
51
40.1534131
0
ARC
8
DEFAULT_255_1_604
10
16.3533408
20
33.7088604
40
0.4007056
50
40.3839847
51
80.1431575
0
ARC
8
DEFAULT_255_1_604
10
16.3108485
20
33.5204702
40
0.5936668
50
79.2151462
51
89.7447056
0
LINE
8
DEFAULT_255_2_778
10
18.6531084
20
41.1426999
11
12.0385084
21
31.6176999
0
LINE
8
DEFAULT_255_2_778
10
19.9760417
20
38.4969667
11
19.9760417
21
39.5552667
0
LINE
8
DEFAULT_255_2_778
10
19.9760417
20
39.5552667
11
21.2989417
21
39.0260667
0
LINE
8
DEFAULT_255_2_778
10
21.2989417
20
39.0260667
11
19.9760417
21
38.4969667
0
LINE
8
DEFAULT_255_2_778
10
18.6531417
20
39.0261
11
19.9760417
21
39.0261
0
LINE
8
DEFAULT_255_2_778
10
19.9760417
20
33.2052667
11
19.9760417
21
34.2635667
0
LINE
8
DEFAULT_255_2_778
10
19.9760417
20
34.2635667
11
21.2989417
21
33.7343667
0
LINE
8
DEFAULT_255_2_778
10
21.2989417
20
33.7343667
11
19.9760417
21
33.2052667
0
LINE
8
DEFAULT_255_2_778
10
18.6531417
20
33.7344
11
19.9760417
21
33.7344
0
LINE
8
DEFAULT_255_2_778
10
12.0385084
20
14.4197831
11
18.6531084
21
14.4197831
0
LINE
8
DEFAULT_255_2_778
10
18.6531084
20
14.4197831
11
18.6531084
21
1.1905831
0
LINE
8
DEFAULT_255_2_778
10
18.6531084
20
1.1905831
11
12.0385084
21
1.1905831
0
LINE
8
DEFAULT_255_2_778
10
12.0385084
20
1.1905831
11
12.0385084
21
14.4197831
0
LINE
8
DEFAULT_255_2_778
10
21.2989959
20
13.0969457
11
13.4937959
21
13.0969457
0
LINE
8
DEFAULT_255_2_778
10
13.4937959
20
13.0969457
11
13.4937959
21
5.0271457
0
LINE
8
DEFAULT_255_2_778
10
13.4937959
20
5.0271457
11
18.1239959
21
3.4396457
0
LINE
8
DEFAULT_255_2_778
10
21.2989251
20
2.6458958
11
17.3302251
21
2.6458958
0
LINE
8
DEFAULT_255_2_778
10
17.3302251
20
2.6458958
11
17.3302251
21
4.3656958
0
LINE
8
DEFAULT_255_2_778
10
17.3302251
20
6.0853958
11
17.3302251
21
7.8051958
0
LINE
8
DEFAULT_255_2_778
10
17.3302251
20
7.8051958
11
21.2989251
21
7.8051958
0
LINE
8
DEFAULT_255_1_604
10
12.4199023
20
19.9197344
11
13.9401
21
19.9197344
0
LINE
8
DEFAULT_255_1_604
10
13.9401
20
19.9197344
11
13.9401
21
19.7192688
0
LINE
8
DEFAULT_255_1_604
10
13.9401
20
19.7192688
11
12.4199023
21
19.7192688
0
LINE
8
DEFAULT_255_1_604
10
12.4199023
20
19.7192688
11
12.4199023
21
19.9197344
0
LINE
8
DEFAULT_255_1_604
10
12.8103927
20
20.255932
11
12.8103927
21
20.438648
0
LINE
8
DEFAULT_255_1_604
10
12.8103927
20
20.438648
11
12.9523892
21
20.4449126
0
LINE
8
DEFAULT_255_1_604
10
13.1935744
20
21.1444541
11
13.9401
21
21.1444541
0
LINE
8
DEFAULT_255_1_604
10
13.9401
20
21.1444541
11
13.9401
21
20.9512971
0
LINE
8
DEFAULT_255_1_604
10
13.9401
20
20.9512971
11
13.1925303
21
20.9512971
0
LINE
8
DEFAULT_255_1_604
10
13.1351052
20
20.449089
11
13.9401
21
20.449089
0
LINE
8
DEFAULT_255_1_604
10
13.9401
20
20.449089
11
13.9401
21
20.255932
0
LINE
8
DEFAULT_255_1_604
10
13.9401
20
20.255932
11
12.8103927
21
20.255932
0
ARC
8
DEFAULT_255_1_604
10
13.2138683
20
20.7835164
40
0.4278129
50
206.4595546
51
232.3236941
0
ARC
8
DEFAULT_255_1_604
10
13.2166009
20
20.7761535
40
0.4270501
50
179.9345352
51
205.4117707
0
ARC
8
DEFAULT_255_1_604
10
13.320064
20
20.7831725
40
0.530553
50
179.9972106
51
180.7053225
0
ARC
8
DEFAULT_255_1_604
10
13.2420335
20
20.7912276
40
0.4525939
50
161.6503515
51
181.0165077
0
ARC
8
DEFAULT_255_1_604
10
13.0884218
20
20.8375703
40
0.2922361
50
103.4487069
51
160.7929643
0
ARC
8
DEFAULT_255_1_604
10
13.1833106
20
20.5383284
40
0.6057663
50
91.3249592
51
105.5953856
0
ARC
8
DEFAULT_255_1_604
10
13.2001323
20
20.2736972
40
0.8707816
50
90.4315055
51
92.0288997
0
ARC
8
DEFAULT_255_1_604
10
13.1937844
20
20.5149405
40
0.4363584
50
90.1646784
51
98.9345445
0
ARC
8
DEFAULT_255_1_604
10
13.1671422
20
20.6789101
40
0.2702421
50
98.7535731
51
112.2901327
0
ARC
8
DEFAULT_255_1_604
10
13.1312935
20
20.7658438
40
0.1762072
50
112.226329
51
132.653346
0
ARC
8
DEFAULT_255_1_604
10
13.1281662
20
20.7740529
40
0.1680823
50
133.765423
51
161.2770854
0
ARC
8
DEFAULT_255_1_604
10
13.2200018
20
20.7409584
40
0.2656878
50
160.8749447
51
174.3178576
0
ARC
8
DEFAULT_255_1_604
10
13.3477541
20
20.7257856
40
0.3943224
50
173.9619404
51
180.1535005
0
ARC
8
DEFAULT_255_1_604
10
13.2510949
20
20.722174
40
0.2976726
50
179.5081708
51
198.7921956
0
ARC
8
DEFAULT_255_1_604
10
13.2213301
20
20.7140064
40
0.2668697
50
199.1906925
51
215.3081532
0
ARC
8
DEFAULT_255_1_604
10
13.2813088
20
20.7564032
40
0.3403199
50
215.2967086
51
244.5574093
0
LINE
8
DEFAULT_255_1_604
10
12.8103927
20
21.5213712
11
13.678033
21
21.8084965
0
LINE
8
DEFAULT_255_1_604
10
13.678033
20
21.8084965
11
12.8103927
21
22.0883131
0
LINE
8
DEFAULT_255_1_604
10
12.8103927
20
22.0883131
11
12.8103927
21
22.2856464
0
LINE
8
DEFAULT_255_1_604
10
12.8103927
20
22.2856464
11
13.9401
21
21.8805388
0
LINE
8
DEFAULT_255_1_604
10
13.9401
20
21.8805388
11
13.9401
21
21.7333219
0
LINE
8
DEFAULT_255_1_604
10
13.9401
20
21.7333219
11
12.8103927
21
21.3240379
0
LINE
8
DEFAULT_255_1_604
10
12.8103927
20
21.3240379
11
12.8103927
21
21.5213712
0
LINE
8
DEFAULT_255_1_604
10
13.4065691
20
22.4088493
11
13.37107
21
22.4088493
0
LINE
8
DEFAULT_255_1_604
10
13.3501881
20
23.3673255
11
13.4305832
21
23.3673255
0
LINE
8
DEFAULT_255_1_604
10
13.4305832
20
23.3673255
11
13.4305832
21
22.6020063
0
LINE
8
DEFAULT_255_1_604
10
13.6508866
20
23.2347259
11
13.7427667
21
23.3527083
0
LINE
8
DEFAULT_255_1_604
10
13.2718812
20
22.6082708
11
13.2718812
21
23.1741686
0
LINE
8
DEFAULT_255_1_604
10
13.2718812
20
23.1741686
11
13.257264
21
23.1741686
0
ARC
8
DEFAULT_255_1_604
10
13.3921274
20
22.9209499
40
0.5688837
50
342.3265389
51
0.5810275
0
ARC
8
DEFAULT_255_1_604
10
13.4884112
20
22.8943119
40
0.469073
50
313.3000907
51
341.8562406
0
ARC
8
DEFAULT_255_1_604
10
13.4617243
20
22.9217876
40
0.5073717
50
280.9374269
51
313.3654367
0
ARC
8
DEFAULT_255_1_604
10
13.4110323
20
23.1460234
40
0.7371878
50
269.6531083
51
281.4990061
0
ARC
8
DEFAULT_255_1_604
10
13.3668942
20
23.1618844
40
0.7530468
50
257.4007028
51
270.3177172
0
ARC
8
DEFAULT_255_1_604
10
13.3379678
20
23.0251221
40
0.6132701
50
244.1833926
51
257.2510008
0
ARC
8
DEFAULT_255_1_604
10
13.2947509
20
22.9430507
40
0.520579
50
224.315176
51
244.5314211
0
ARC
8
DEFAULT_255_1_604
10
13.2699518
20
22.9147772
40
0.4830918
50
212.8617774
51
223.9706154
0
ARC
8
DEFAULT_255_1_604
10
13.241021
20
22.9013247
40
0.4515123
50
179.8248792
51
213.419936
0
ARC
8
DEFAULT_255_1_604
10
13.3250875
20
22.9078305
40
0.5356012
50
164.7874713
51
180.5483389
0
ARC
8
DEFAULT_255_1_604
10
13.1840411
20
22.9460155
40
0.3894774
50
129.8178634
51
164.7634032
0
ARC
8
DEFAULT_255_1_604
10
13.2359972
20
22.8793707
40
0.4739443
50
106.8991162
51
129.4830757
0
ARC
8
DEFAULT_255_1_604
10
13.3148791
20
22.6330805
40
0.7325394
50
94.9635001
51
107.2027603
0
ARC
8
DEFAULT_255_1_604
10
13.3480545
20
22.3186989
40
1.0486288
50
89.883421
51
95.2831589
0
ARC
8
DEFAULT_255_1_604
10
13.4219633
20
23.1035906
40
0.5016584
50
270.9845526
51
284.9402599
0
ARC
8
DEFAULT_255_1_604
10
13.4592667
20
22.9671362
40
0.3602007
50
284.803019
51
312.0413236
0
ARC
8
DEFAULT_255_1_604
10
13.4984899
20
22.9276038
40
0.3045866
50
311.5416852
51
358.8615074
0
ARC
8
DEFAULT_255_1_604
10
13.4108973
20
22.9370818
40
0.3924265
50
357.7319899
51
0.0113829
0
ARC
8
DEFAULT_255_1_604
10
13.3843546
20
22.9394087
40
0.4189754
50
359.6924514
51
10.4117236
0
ARC
8
DEFAULT_255_1_604
10
13.5037995
20
22.9623375
40
0.297355
50
10.22574
51
28.6335021
0
ARC
8
DEFAULT_255_1_604
10
13.5343699
20
22.9768565
40
0.2635725
50
29.0478643
51
30.4619896
0
ARC
8
DEFAULT_255_1_604
10
13.3881312
20
22.8891252
40
0.4341046
50
30.6577543
51
52.0377941
0
ARC
8
DEFAULT_255_1_604
10
13.3481851
20
22.8430119
40
0.4950435
50
51.6757688
51
52.3045346
0
ARC
8
DEFAULT_255_1_604
10
13.5002764
20
22.964589
40
0.4576441
50
6.9728716
51
58.0035687
0
ARC
8
DEFAULT_255_1_604
10
13.3078373
20
22.928589
40
0.6531473
50
359.8359436
51
8.0582185
0
ARC
8
DEFAULT_255_1_604
10
13.2109841
20
22.8990436
40
0.2627969
50
179.2017676
51
207.2852172
0
ARC
8
DEFAULT_255_1_604
10
13.2164414
20
22.9059522
40
0.2708383
50
208.0549075
51
227.4542471
0
ARC
8
DEFAULT_255_1_604
10
13.2607039
20
22.9546716
40
0.3366612
50
227.5109473
51
248.8515134
0
ARC
8
DEFAULT_255_1_604
10
13.3204023
20
23.1025863
40
0.4961573
50
248.5845224
51
260.1720121
0
ARC
8
DEFAULT_255_1_604
10
13.3506017
20
23.2546575
40
0.6511625
50
259.837727
51
263.0564047
0
ARC
8
DEFAULT_255_1_604
10
13.2842024
20
22.6440373
40
0.5308152
50
92.9089609
51
102.8848339
0
ARC
8
DEFAULT_255_1_604
10
13.2422687
20
22.8222069
40
0.3477829
50
102.6958044
51
118.6407234
0
ARC
8
DEFAULT_255_1_604
10
13.2058155
20
22.8926283
40
0.2685114
50
119.0165315
51
131.1489785
0
ARC
8
DEFAULT_255_1_604
10
13.1828729
20
22.9189785
40
0.2335729
50
131.1644762
51
175.0015347
0
ARC
8
DEFAULT_255_1_604
10
13.2783406
20
22.9032646
40
0.3301282
50
173.7281987
51
180.0971732
0
LINE
8
DEFAULT_255_1_604
10
12.8041281
20
24.1368212
11
12.9837119
21
24.1368212
0
LINE
8
DEFAULT_255_1_604
10
13.1382375
20
23.7839182
11
13.9401
21
23.7839182
0
LINE
8
DEFAULT_255_1_604
10
13.9401
20
23.7839182
11
13.9401
21
23.5907612
0
LINE
8
DEFAULT_255_1_604
10
13.9401
20
23.5907612
11
12.8103927
21
23.5907612
0
LINE
8
DEFAULT_255_1_604
10
12.8103927
20
23.5907612
11
12.8103927
21
23.7786977
0
LINE
8
DEFAULT_255_1_604
10
12.8103927
20
23.7786977
11
12.9409042
21
23.78183
0
ARC
8
DEFAULT_255_1_604
10
13.511376
20
24.0501766
40
0.5347305
50
170.6750133
51
176.8938552
0
ARC
8
DEFAULT_255_1_604
10
13.6375006
20
24.0422986
40
0.6610976
50
176.8043921
51
180.0424441
0
ARC
8
DEFAULT_255_1_604
10
13.3178304
20
24.0374939
40
0.3414543
50
179.2759316
51
196.6212113
0
ARC
8
DEFAULT_255_1_604
10
13.2212459
20
24.0109185
40
0.2413135
50
197.1346409
51
247.645781
0
ARC
8
DEFAULT_255_1_604
10
13.2706697
20
24.0998498
40
0.3425654
50
245.6573462
51
247.2575463
0
ARC
8
DEFAULT_255_1_604
10
13.1191606
20
24.074205
40
0.3424303
50
217.8167322
51
238.6299905
0
ARC
8
DEFAULT_255_1_604
10
13.0853503
20
24.0412429
40
0.2955584
50
181.333022
51
216.7875291
0
ARC
8
DEFAULT_255_1_604
10
13.1779465
20
24.0511102
40
0.3884357
50
179.9859132
51
182.4704204
0
ARC
8
DEFAULT_255_1_604
10
13.1424228
20
24.0522113
40
0.3529134
50
175.3579682
51
180.1632676
0
ARC
8
DEFAULT_255_1_604
10
13.0120614
20
24.0631901
40
0.2220914
50
168.402434
51
175.4592432
0
ARC
8
DEFAULT_255_1_604
10
12.9221916
20
24.0820296
40
0.1302696
50
157.7850617
51
168.5730171
0
ARC
8
DEFAULT_255_1_604
10
12.8858314
20
24.0960577
40
0.0913078
50
153.4843993
51
157.3079256
0
LINE
8
DEFAULT_255_1_604
10
12.5368406
20
24.4354314
11
12.5368406
21
24.6285884
0
LINE
8
DEFAULT_255_1_604
10
12.5368406
20
24.6285884
11
12.8103927
21
24.6285884
0
LINE
8
DEFAULT_255_1_604
10
12.8103927
20
24.6285884
11
12.8103927
21
24.839495
0
LINE
8
DEFAULT_255_1_604
10
12.8103927
20
24.839495
11
12.9596978
21
24.839495
0
LINE
8
DEFAULT_255_1_604
10
12.9596978
20
24.839495
11
12.9596978
21
24.6285884
0
LINE
8
DEFAULT_255_1_604
10
12.9596978
20
24.6285884
11
13.6602834
21
24.6285884
0
LINE
8
DEFAULT_255_1_604
10
13.7834862
20
24.8447154
11
13.9401
21
24.8447154
0
LINE
8
DEFAULT_255_1_604
10
13.6602834
20
24.4354314
11
12.9596978
21
24.4354314
0
LINE
8
DEFAULT_255_1_604
10
12.9596978
20
24.4354314
11
12.9596978
21
24.2297454
0
LINE
8
DEFAULT_255_1_604
10
12.9596978
20
24.2297454
11
12.8103927
21
24.2297454
0
LINE
8
DEFAULT_255_1_604
10
12.8103927
20
24.2297454
11
12.8103927
21
24.4354314
0
LINE
8
DEFAULT_255_1_604
10
12.8103927
20
24.4354314
11
12.5368406
21
24.4354314
0
ARC
8
DEFAULT_255_1_604
10
13.6616367
20
24.889567
40
0.2609821
50
269.702903
51
277.9179327
0
ARC
8
DEFAULT_255_1_604
10
13.6755921
20
24.792592
40
0.1630098
50
277.7549681
51
290.2443173
0
ARC
8
DEFAULT_255_1_604
10
13.6959841
20
24.7378992
40
0.1046397
50
290.1308413
51
309.1737818
0
ARC
8
DEFAULT_255_1_604
10
13.7079897
20
24.7202397
40
0.0833864
50
310.4435912
51
339.6168984
0
ARC
8
DEFAULT_255_1_604
10
13.6573537
20
24.7403717
40
0.1378692
50
339.1035965
51
352.7744543
0
ARC
8
DEFAULT_255_1_604
10
13.575636
20
24.7518294
40
0.2203816
50
352.4914347
51
0.2615426
0
ARC
8
DEFAULT_255_1_604
10
13.5476256
20
24.7514974
40
0.2483934
50
0.3086122
51
5.6618631
0
ARC
8
DEFAULT_255_1_604
10
13.3523058
20
24.7329157
40
0.4445941
50
5.5615117
51
9.0871672
0
ARC
8
DEFAULT_255_1_604
10
13.0798213
20
24.6899712
40
0.7204415
50
9.03708
51
11.5007436
0
ARC
8
DEFAULT_255_1_604
10
12.8520734
20
24.6449765
40
0.9525887
50
11.4215134
51
12.1036044
0
ARC
8
DEFAULT_255_1_604
10
13.3761764
20
24.6882387
40
0.5852305
50
5.2598766
51
15.5081955
0
ARC
8
DEFAULT_255_1_604
10
13.4484649
20
24.6962144
40
0.512517
50
0.0268303
51
5.1128482
0
ARC
8
DEFAULT_255_1_604
10
13.6210217
20
24.693609
40
0.3399721
50
347.3570581
51
0.4795354
0
ARC
8
DEFAULT_255_1_604
10
13.7377731
20
24.6659075
40
0.2199932
50
320.8036837
51
347.7414702
0
ARC
8
DEFAULT_255_1_604
10
13.7520181
20
24.6570619
40
0.2033747
50
309.9743127
51
320.1987154
0
ARC
8
DEFAULT_255_1_604
10
13.7190338
20
24.7002019
40
0.2576364
50
286.5082621
51
309.4320783
0
ARC
8
DEFAULT_255_1_604
10
13.677614
20
24.832207
40
0.3959757
50
274.6404304
51
286.8269894
0
ARC
8
DEFAULT_255_1_604
10
13.6612704
20
24.9940972
40
0.5586666
50
269.8987732
51
274.9678704
0
LINE
8
DEFAULT_255_1_604
10
13.4065691
20
25.0159465
11
13.37107
21
25.0159465
0
LINE
8
DEFAULT_255_1_604
10
13.3501881
20
25.9744228
11
13.4305832
21
25.9744228
0
LINE
8
DEFAULT_255_1_604
10
13.4305832
20
25.9744228
11
13.4305832
21
25.2091035
0
LINE
8
DEFAULT_255_1_604
10
13.6508866
20
25.8418231
11
13.7427667
21
25.9598055
0
LINE
8
DEFAULT_255_1_604
10
13.2718813
20
25.215368
11
13.2718813
21
25.7812658
0
LINE
8
DEFAULT_255_1_604
10
13.2718813
20
25.7812658
11
13.257264
21
25.7812658
0
ARC
8
DEFAULT_255_1_604
10
13.3921274
20
25.5280472
40
0.5688837
50
342.3265389
51
0.5810275
0
ARC
8
DEFAULT_255_1_604
10
13.4884112
20
25.5014091
40
0.469073
50
313.3000907
51
341.8562406
0
ARC
8
DEFAULT_255_1_604
10
13.4617243
20
25.5288848
40
0.5073717
50
280.9374269
51
313.3654367
0
ARC
8
DEFAULT_255_1_604
10
13.4110323
20
25.7531206
40
0.7371878
50
269.6531083
51
281.4990061
0
ARC
8
DEFAULT_255_1_604
10
13.3668942
20
25.7689817
40
0.7530468
50
257.4007028
51
270.3177172
0
ARC
8
DEFAULT_255_1_604
10
13.3379678
20
25.6322193
40
0.6132701
50
244.1833926
51
257.2510008
0
ARC
8
DEFAULT_255_1_604
10
13.2947509
20
25.5501479
40
0.520579
50
224.315176
51
244.5314211
0
ARC
8
DEFAULT_255_1_604
10
13.2699518
20
25.5218744
40
0.4830918
50
212.8617774
51
223.9706154
0
ARC
8
DEFAULT_255_1_604
10
13.241021
20
25.5084219
40
0.4515123
50
179.8248792
51
213.419936
0
ARC
8
DEFAULT_255_1_604
10
13.3250875
20
25.5149277
40
0.5356012
50
164.7874713
51
180.5483389
0
ARC
8
DEFAULT_255_1_604
10
13.1840411
20
25.5531127
40
0.3894774
50
129.8178634
51
164.7634032
0
ARC
8
DEFAULT_255_1_604
10
13.2359972
20
25.4864679
40
0.4739443
50
106.8991162
51
129.4830757
0
ARC
8
DEFAULT_255_1_604
10
13.3148791
20
25.2401777
40
0.7325394
50
94.9635001
51
107.2027603
0
ARC
8
DEFAULT_255_1_604
10
13.3480545
20
24.9257961
40
1.0486288
50
89.883421
51
95.2831589
0
ARC
8
DEFAULT_255_1_604
10
13.4219633
20
25.7106878
40
0.5016584
50
270.9845526
51
284.9402599
0
ARC
8
DEFAULT_255_1_604
10
13.4592667
20
25.5742334
40
0.3602007
50
284.803019
51
312.0413236
0
ARC
8
DEFAULT_255_1_604
10
13.4984899
20
25.534701
40
0.3045866
50
311.5416852
51
358.8615074
0
ARC
8
DEFAULT_255_1_604
10
13.4108973
20
25.544179
40
0.3924265
50
357.7319899
51
0.0113829
0
ARC
8
DEFAULT_255_1_604
10
13.3843546
20
25.5465059
40
0.4189754
50
359.6924514
51
10.4117236
0
ARC
8
DEFAULT_255_1_604
10
13.5037995
20
25.5694348
40
0.297355
50
10.22574
51
28.6335021
0
ARC
8
DEFAULT_255_1_604
10
13.5343699
20
25.5839537
40
0.2635725
50
29.0478643
51
30.4619896
0
ARC
8
DEFAULT_255_1_604
10
13.3881312
20
25.4962224
40
0.4341046
50
30.6577543
51
52.0377941
0
ARC
8
DEFAULT_255_1_604
10
13.3481851
20
25.4501091
40
0.4950435
50
51.6757688
51
52.3045346
0
ARC
8
DEFAULT_255_1_604
10
13.5002764
20
25.5716862
40
0.4576441
50
6.9728716
51
58.0035687
0
ARC
8
DEFAULT_255_1_604
10
13.3078373
20
25.5356862
40
0.6531473
50
359.8359436
51
8.0582185
0
ARC
8
DEFAULT_255_1_604
10
13.2109841
20
25.5061408
40
0.2627969
50
179.2017676
51
207.2852172
0
ARC
8
DEFAULT_255_1_604
10
13.2164414
20
25.5130494
40
0.2708383
50
208.0549075
51
227.4542471
0
ARC
8
DEFAULT_255_1_604
10
13.2607039
20
25.5617688
40
0.3366612
50
227.5109473
51
248.8515134
0
ARC
8
DEFAULT_255_1_604
10
13.3204023
20
25.7096835
40
0.4961573
50
248.5845224
51
260.1720121
0
ARC
8
DEFAULT_255_1_604
10
13.3506017
20
25.8617547
40
0.6511625
50
259.837727
51
263.0564047
0
ARC
8
DEFAULT_255_1_604
10
13.2842024
20
25.2511346
40
0.5308152
50
92.9089609
51
102.8848339
0
ARC
8
DEFAULT_255_1_604
10
13.2422687
20
25.4293041
40
0.3477829
50
102.6958044
51
118.6407234
0
ARC
8
DEFAULT_255_1_604
10
13.2058155
20
25.4997255
40
0.2685114
50
119.0165315
51
131.1489785
0
ARC
8
DEFAULT_255_1_604
10
13.1828729
20
25.5260757
40
0.2335729
50
131.1644762
51
175.0015347
0
ARC
8
DEFAULT_255_1_604
10
13.2783406
20
25.5103618
40
0.3301282
50
173.7281987
51
180.0971732
0
LINE
8
DEFAULT_255_1_604
10
12.8041281
20
26.7439184
11
12.9837119
21
26.7439184
0
LINE
8
DEFAULT_255_1_604
10
13.1382375
20
26.3910154
11
13.9401
21
26.3910154
0
LINE
8
DEFAULT_255_1_604
10
13.9401
20
26.3910154
11
13.9401
21
26.1978584
0
LINE
8
DEFAULT_255_1_604
10
13.9401
20
26.1978584
11
12.8103927
21
26.1978584
0
LINE
8
DEFAULT_255_1_604
10
12.8103927
20
26.1978584
11
12.8103927
21
26.3857949
0
LINE
8
DEFAULT_255_1_604
10
12.8103927
20
26.3857949
11
12.9409042
21
26.3889272
0
ARC
8
DEFAULT_255_1_604
10
13.511376
20
26.6572738
40
0.5347305
50
170.6750133
51
176.8938552
0
ARC
8
DEFAULT_255_1_604
10
13.6375006
20
26.6493958
40
0.6610976
50
176.8043921
51
180.0424441
0
ARC
8
DEFAULT_255_1_604
10
13.3178304
20
26.6445911
40
0.3414543
50
179.2759316
51
196.6212113
0
ARC
8
DEFAULT_255_1_604
10
13.2212459
20
26.6180157
40
0.2413135
50
197.1346409
51
247.645781
0
ARC
8
DEFAULT_255_1_604
10
13.2706697
20
26.706947
40
0.3425654
50
245.6573462
51
247.2575463
0
ARC
8
DEFAULT_255_1_604
10
13.1191606
20
26.6813022
40
0.3424303
50
217.8167322
51
238.6299905
0
ARC
8
DEFAULT_255_1_604
10
13.0853503
20
26.6483401
40
0.2955584
50
181.333022
51
216.7875291
0
ARC
8
DEFAULT_255_1_604
10
13.1779465
20
26.6582074
40
0.3884357
50
179.9859132
51
182.4704204
0
ARC
8
DEFAULT_255_1_604
10
13.1424228
20
26.6593085
40
0.3529134
50
175.3579682
51
180.1632676
0
ARC
8
DEFAULT_255_1_604
10
13.0120614
20
26.6702873
40
0.2220914
50
168.402434
51
175.4592432
0
ARC
8
DEFAULT_255_1_604
10
12.9221916
20
26.6891268
40
0.1302696
50
157.7850617
51
168.5730171
0
ARC
8
DEFAULT_255_1_604
10
12.8858314
20
26.7031549
40
0.0913078
50
153.4843993
51
157.3079256
0
ENDSEC
0
EOF