0
SECTION
2
HEADER
9
$MEASUREMENT
70
1
0
ENDSEC
0
SECTION
2
TABLES
0
TABLE
2
LTYPE
0
LTYPE
72
65
70
64
2
CONTINUOUS
3
______
73
0
40
0
0
ENDTAB
0
TABLE
2
LAYER
0
LAYER
2
DEFAULT_255_2_778
70
0
62
255
6
CONTINUOUS
0
LAYER
2
DEFAULT_255_2_778_3
70
0
62
255
6
CONTINUOUS
0
LAYER
2
DEFAULT_255_1_234
70
0
62
255
6
CONTINUOUS
0
ENDTAB
0
ENDSEC
0
SECTION
2
ENTITIES
0
LINE
8
DEFAULT_255_2_778
10
2.7781542
20
7.705
11
6.0854542
21
7.705
0
ARC
8
DEFAULT_255_2_778
10
6.7454557
20
7.7064443
40
0.6600157
50
89.871003
51
180.128997
0
ARC
8
DEFAULT_255_2_778
10
6.748349
20
7.7064655
40
0.6599943
50
359.8691577
51
90.1221758
0
ARC
8
DEFAULT_255_2_778
10
6.7483705
20
7.7035295
40
0.6599728
50
269.8759594
51
0.1240406
0
ARC
8
DEFAULT_255_2_778
10
6.7454345
20
7.7035508
40
0.6599942
50
179.8778094
51
270.1308423
0
LINE
8
DEFAULT_255_2_778
10
6.0854417
20
7.7049583
11
6.0854417
21
7.7049583
0
ARC
8
DEFAULT_255_2_778
10
12.0370557
20
7.7064443
40
0.6600157
50
89.871003
51
180.128997
0
ARC
8
DEFAULT_255_2_778
10
12.039949
20
7.7064655
40
0.6599943
50
359.8691577
51
90.1221758
0
ARC
8
DEFAULT_255_2_778
10
12.0399705
20
7.7035295
40
0.6599728
50
269.8759594
51
0.1240406
0
ARC
8
DEFAULT_255_2_778
10
12.0370345
20
7.7035508
40
0.6599942
50
179.8778094
51
270.1308423
0
LINE
8
DEFAULT_255_2_778
10
11.3770417
20
7.7049583
11
11.3770417
21
7.7049583
0
LINE
8
DEFAULT_255_2_778
10
2.7781542
20
2.4133
11
6.0854542
21
2.4133
0
ARC
8
DEFAULT_255_2_778
10
6.7454557
20
2.4147443
40
0.6600157
50
89.871003
51
180.128997
0
ARC
8
DEFAULT_255_2_778
10
6.748349
20
2.4147655
40
0.6599943
50
359.8691577
51
90.1221758
0
ARC
8
DEFAULT_255_2_778
10
6.7483705
20
2.4118295
40
0.6599728
50
269.8759594
51
0.1240406
0
ARC
8
DEFAULT_255_2_778
10
6.7454345
20
2.4118508
40
0.6599942
50
179.8778094
51
270.1308423
0
LINE
8
DEFAULT_255_2_778
10
6.0854417
20
2.4132583
11
6.0854417
21
2.4132583
0
ARC
8
DEFAULT_255_2_778
10
12.0370557
20
2.4147443
40
0.6600157
50
89.871003
51
180.128997
0
ARC
8
DEFAULT_255_2_778
10
12.039949
20
2.4147655
40
0.6599943
50
359.8691577
51
90.1221758
0
ARC
8
DEFAULT_255_2_778
10
12.0399705
20
2.4118295
40
0.6599728
50
269.8759594
51
0.1240406
0
ARC
8
DEFAULT_255_2_778
10
12.0370345
20
2.4118508
40
0.6599942
50
179.8778094
51
270.1308423
0
LINE
8
DEFAULT_255_2_778
10
11.3770417
20
2.4132583
11
11.3770417
21
2.4132583
0
LINE
8
DEFAULT_255_2_778
10
2.7781542
20
-2.8784
11
6.0854542
21
-2.8784
0
ARC
8
DEFAULT_255_2_778
10
6.7454557
20
-2.8769557
40
0.6600157
50
89.871003
51
180.128997
0
ARC
8
DEFAULT_255_2_778
10
6.748349
20
-2.8769345
40
0.6599943
50
359.8691577
51
90.1221758
0
ARC
8
DEFAULT_255_2_778
10
6.7483705
20
-2.8798705
40
0.6599728
50
269.8759594
51
0.1240406
0
ARC
8
DEFAULT_255_2_778
10
6.7454345
20
-2.8798492
40
0.6599942
50
179.8778094
51
270.1308423
0
LINE
8
DEFAULT_255_2_778
10
6.0854417
20
-2.8784417
11
6.0854417
21
-2.8784417
0
ARC
8
DEFAULT_255_2_778
10
12.0370557
20
-2.8769557
40
0.6600157
50
89.871003
51
180.128997
0
ARC
8
DEFAULT_255_2_778
10
12.039949
20
-2.8769345
40
0.6599943
50
359.8691577
51
90.1221758
0
ARC
8
DEFAULT_255_2_778
10
12.0399705
20
-2.8798705
40
0.6599728
50
269.8759594
51
0.1240406
0
ARC
8
DEFAULT_255_2_778
10
12.0370345
20
-2.8798492
40
0.6599942
50
179.8778094
51
270.1308423
0
LINE
8
DEFAULT_255_2_778
10
11.3770417
20
-2.8784417
11
11.3770417
21
-2.8784417
0
ARC
8
DEFAULT_255_2_778
10
8.9984875
20
2.976195
40
6.772323
50
63.3270255
51
70.9251681
0
ARC
8
DEFAULT_255_2_778
10
9.3212028
20
3.9200322
40
5.7748463
50
70.8909106
51
81.9325437
0
ARC
8
DEFAULT_255_2_778
10
9.3913102
20
4.3527851
40
5.3365441
50
82.0257535
51
89.9854359
0
ARC
8
DEFAULT_255_2_778
10
9.4019656
20
4.234771
40
5.454566
50
90.0976772
51
105.0340903
0
ARC
8
DEFAULT_255_2_778
10
9.6211462
20
3.4012116
40
6.3164498
50
104.9928929
51
113.855152
0
ARC
8
DEFAULT_255_2_778
10
9.9407508
20
2.6451601
40
7.1371816
50
113.7470522
51
116.5833575
0
ARC
8
DEFAULT_255_2_778
10
8.9984875
20
-2.315505
40
6.772323
50
63.3270255
51
70.9251681
0
ARC
8
DEFAULT_255_2_778
10
9.3212028
20
-1.3716678
40
5.7748463
50
70.8909106
51
81.9325437
0
ARC
8
DEFAULT_255_2_778
10
9.3913102
20
-0.9389149
40
5.3365441
50
82.0257535
51
89.9854359
0
ARC
8
DEFAULT_255_2_778
10
9.4019656
20
-1.056929
40
5.454566
50
90.0976772
51
105.0340903
0
ARC
8
DEFAULT_255_2_778
10
9.6211462
20
-1.8904884
40
6.3164498
50
104.9928929
51
113.855152
0
ARC
8
DEFAULT_255_2_778
10
9.9407508
20
-2.6465399
40
7.1371816
50
113.7470522
51
116.5833575
0
ARC
8
DEFAULT_255_2_778
10
8.9984875
20
-7.607105
40
6.772323
50
63.3270255
51
70.9251681
0
ARC
8
DEFAULT_255_2_778
10
9.3212028
20
-6.6632678
40
5.7748463
50
70.8909106
51
81.9325437
0
ARC
8
DEFAULT_255_2_778
10
9.3913102
20
-6.2305149
40
5.3365441
50
82.0257535
51
89.9854359
0
ARC
8
DEFAULT_255_2_778
10
9.4019656
20
-6.348529
40
5.454566
50
90.0976772
51
105.0340903
0
ARC
8
DEFAULT_255_2_778
10
9.6211462
20
-7.1820884
40
6.3164498
50
104.9928929
51
113.855152
0
ARC
8
DEFAULT_255_2_778
10
9.9407508
20
-7.9381399
40
7.1371816
50
113.7470522
51
116.5833575
0
LINE
8
DEFAULT_255_2_778_3
10
9.3927
20
9.6893665
11
9.3927
21
-0.8939335
0
ARC
8
DEFAULT_255_2_778
10
17.0020256
20
7.7336485
40
0.9635442
50
89.9956602
51
90.1522665
0
ARC
8
DEFAULT_255_2_778
10
17.0020724
20
7.7076336
40
0.9895592
50
45.0025854
51
89.9984837
0
ARC
8
DEFAULT_255_2_778
10
17.0023736
20
7.7077065
40
0.9892948
50
359.9952172
51
45.0119349
0
ARC
8
DEFAULT_255_2_778
10
17.0274666
20
7.7075509
40
0.9642018
50
359.8477797
51
0.0043385
0
ARC
8
DEFAULT_255_2_778
10
17.0031387
20
7.7035847
40
0.9885273
50
317.8377165
51
0.081414
0
ARC
8
DEFAULT_255_2_778
10
17.0006083
20
7.7024698
40
0.9896578
50
271.5145282
51
317.9838913
0
ARC
8
DEFAULT_255_2_778
10
16.9994926
20
7.7224757
40
1.0096864
50
269.9984298
51
271.5478121
0
ARC
8
DEFAULT_255_2_778
10
16.9980277
20
7.7013185
40
0.9885303
50
228.0131039
51
270.0833043
0
ARC
8
DEFAULT_255_2_778
10
16.9969381
20
7.7038007
40
0.9896493
50
181.5303314
51
228.1561218
0
ARC
8
DEFAULT_255_2_778
10
17.0185748
20
7.704975
40
1.0113097
50
179.9991879
51
181.564101
0
LINE
8
DEFAULT_255_2_778
10
16.0072649
20
7.7049893
11
12.6999649
21
7.7049893
0
ARC
8
DEFAULT_255_2_778
10
18.9875065
20
7.7064266
40
0.9885303
50
359.9166957
51
41.9868961
0
ARC
8
DEFAULT_255_2_778
10
18.9850244
20
7.7075161
40
0.9896493
50
41.8438782
51
88.4696686
0
ARC
8
DEFAULT_255_2_778
10
18.9838501
20
7.6858794
40
1.0113097
50
88.435899
51
90.0008121
0
ARC
8
DEFAULT_255_2_778
10
18.9823985
20
7.7086601
40
0.9885303
50
89.9166957
51
131.9868961
0
ARC
8
DEFAULT_255_2_778
10
18.981309
20
7.7061779
40
0.9896493
50
131.8438782
51
178.4696686
0
ARC
8
DEFAULT_255_2_778
10
19.0029456
20
7.7050036
40
1.0113097
50
178.435899
51
180.0008121
0
ARC
8
DEFAULT_255_2_778
10
18.9558329
20
7.7024277
40
0.9642005
50
179.8477797
51
180.0043385
0
ARC
8
DEFAULT_255_2_778
10
18.9814237
20
7.702378
40
0.9897915
50
180.0013532
51
224.9918457
0
ARC
8
DEFAULT_255_2_778
10
18.9812245
20
7.7025772
40
0.9897916
50
225.0081543
51
269.9986468
0
ARC
8
DEFAULT_255_2_778
10
18.9812741
20
7.6769864
40
0.9642006
50
269.9956615
51
270.1522203
0
LINE
8
DEFAULT_255_2_778
10
23.9447358
20
7.7049893
11
19.9760358
21
7.7049893
0
ARC
8
DEFAULT_255_2_778
10
18.9875065
20
2.4147266
40
0.9885303
50
359.9166957
51
41.9868961
0
ARC
8
DEFAULT_255_2_778
10
18.9850244
20
2.4158161
40
0.9896493
50
41.8438782
51
88.4696686
0
ARC
8
DEFAULT_255_2_778
10
18.9838501
20
2.3941794
40
1.0113097
50
88.435899
51
90.0008121
0
ARC
8
DEFAULT_255_2_778
10
18.9823985
20
2.4169601
40
0.9885303
50
89.9166957
51
131.9868961
0
ARC
8
DEFAULT_255_2_778
10
18.981309
20
2.4144779
40
0.9896493
50
131.8438782
51
178.4696686
0
ARC
8
DEFAULT_255_2_778
10
19.0029456
20
2.4133036
40
1.0113097
50
178.435899
51
180.0008121
0
ARC
8
DEFAULT_255_2_778
10
18.9558329
20
2.4107277
40
0.9642005
50
179.8477797
51
180.0043385
0
ARC
8
DEFAULT_255_2_778
10
18.9814237
20
2.410678
40
0.9897915
50
180.0013532
51
224.9918457
0
ARC
8
DEFAULT_255_2_778
10
18.9812245
20
2.4108772
40
0.9897916
50
225.0081543
51
269.9986468
0
ARC
8
DEFAULT_255_2_778
10
18.9812741
20
2.3852864
40
0.9642006
50
269.9956615
51
270.1522203
0
LINE
8
DEFAULT_255_2_778
10
23.9447358
20
2.4132893
11
19.9760358
21
2.4132893
0
ARC
8
DEFAULT_255_2_778
10
17.0008518
20
2.4169424
40
0.9885811
50
47.7557814
51
90.0802722
0
ARC
8
DEFAULT_255_2_778
10
17.0020503
20
2.4144911
40
0.9895932
50
1.5105593
51
47.9025687
0
ARC
8
DEFAULT_255_2_778
10
16.9809075
20
2.4133352
40
1.0107593
50
359.9992809
51
1.544466
0
ARC
8
DEFAULT_255_2_778
10
17.0031405
20
2.4119179
40
0.9885273
50
317.8377165
51
0.081414
0
ARC
8
DEFAULT_255_2_778
10
17.0006101
20
2.4108031
40
0.9896578
50
271.5145282
51
317.9838913
0
ARC
8
DEFAULT_255_2_778
10
16.9994944
20
2.430809
40
1.0096864
50
269.9984298
51
271.5478121
0
ARC
8
DEFAULT_255_2_778
10
16.9969051
20
2.3853197
40
0.9642005
50
269.9956615
51
270.1522203
0
ARC
8
DEFAULT_255_2_778
10
16.9968555
20
2.4109105
40
0.9897915
50
225.0081543
51
269.9986468
0
ARC
8
DEFAULT_255_2_778
10
16.9970547
20
2.4107113
40
0.9897916
50
180.0013532
51
224.9918457
0
ARC
8
DEFAULT_255_2_778
10
16.9714638
20
2.4107609
40
0.9642006
50
179.8477797
51
180.0043385
0
ARC
8
DEFAULT_255_2_778
10
17.0008518
20
-2.8747576
40
0.9885811
50
47.7557814
51
90.0802722
0
ARC
8
DEFAULT_255_2_778
10
17.0020503
20
-2.8772089
40
0.9895932
50
1.5105593
51
47.9025687
0
ARC
8
DEFAULT_255_2_778
10
16.9809075
20
-2.8783648
40
1.0107593
50
359.9992809
51
1.544466
0
ARC
8
DEFAULT_255_2_778
10
17.0032792
20
-2.8797531
40
0.9883885
50
317.7484515
51
0.0797466
0
ARC
8
DEFAULT_255_2_778
10
17.0006109
20
-2.8807748
40
0.9896799
50
271.5115605
51
317.8961031
0
ARC
8
DEFAULT_255_2_778
10
16.9994794
20
-2.8600756
40
1.010402
50
269.9992815
51
271.5447396
0
ARC
8
DEFAULT_255_2_778
10
16.9963928
20
-2.8439315
40
1.0265506
50
270.0038252
51
270.171567
0
ARC
8
DEFAULT_255_2_778
10
16.9966859
20
-2.8811014
40
0.9893806
50
224.9982343
51
269.9869969
0
ARC
8
DEFAULT_255_2_778
10
16.9968224
20
-2.8809849
40
0.9895593
50
180.0015163
51
224.9974146
0
ARC
8
DEFAULT_255_2_778
10
16.9708075
20
-2.8809381
40
0.9635443
50
179.8477335
51
180.0043398
0
LINE
8
DEFAULT_255_2_778
10
16.0072667
20
2.4133226
11
12.6999667
21
2.4133226
0
LINE
8
DEFAULT_255_2_778
10
16.0072667
20
-2.8783774
11
12.6999667
21
-2.8783774
0
ARC
8
DEFAULT_255_2_778
10
18.9875065
20
-2.8769734
40
0.9885303
50
359.9166957
51
41.9868961
0
ARC
8
DEFAULT_255_2_778
10
18.9850244
20
-2.8758839
40
0.9896493
50
41.8438782
51
88.4696686
0
ARC
8
DEFAULT_255_2_778
10
18.9838501
20
-2.8975206
40
1.0113097
50
88.435899
51
90.0008121
0
ARC
8
DEFAULT_255_2_778
10
18.9823985
20
-2.8747399
40
0.9885303
50
89.9166957
51
131.9868961
0
ARC
8
DEFAULT_255_2_778
10
18.981309
20
-2.8772221
40
0.9896493
50
131.8438782
51
178.4696686
0
ARC
8
DEFAULT_255_2_778
10
19.0029456
20
-2.8783964
40
1.0113097
50
178.435899
51
180.0008121
0
ARC
8
DEFAULT_255_2_778
10
18.9558329
20
-2.8809723
40
0.9642005
50
179.8477797
51
180.0043385
0
ARC
8
DEFAULT_255_2_778
10
18.9814237
20
-2.881022
40
0.9897915
50
180.0013532
51
224.9918457
0
ARC
8
DEFAULT_255_2_778
10
18.9812245
20
-2.8808228
40
0.9897916
50
225.0081543
51
269.9986468
0
ARC
8
DEFAULT_255_2_778
10
18.9812741
20
-2.9064136
40
0.9642006
50
269.9956615
51
270.1522203
0
LINE
8
DEFAULT_255_2_778
10
23.9447358
20
-2.8784107
11
19.9760358
21
-2.8784107
0
LINE
8
DEFAULT_255_1_234
10
4.4821137
20
9.8167433
11
4.4821137
21
8.6417
0
LINE
8
DEFAULT_255_1_234
10
4.4821137
20
8.6417
11
4.3327234
21
8.6417
0
LINE
8
DEFAULT_255_1_234
10
4.3327234
20
8.6417
11
4.3327234
21
9.6320133
0
LINE
8
DEFAULT_255_1_234
10
4.3327234
20
9.6320133
11
4.0331396
21
9.5219785
0
LINE
8
DEFAULT_255_1_234
10
4.0331396
20
9.5219785
11
4.0331396
21
9.6569117
0
LINE
8
DEFAULT_255_1_234
10
4.0331396
20
9.6569117
11
4.4588217
21
9.8167433
0
LINE
8
DEFAULT_255_1_234
10
4.4588217
20
9.8167433
11
4.4821137
21
9.8167433
0
LINE
8
DEFAULT_255_1_234
10
21.7016119
20
8.7629792
11
21.7016119
21
8.6417
0
LINE
8
DEFAULT_255_1_234
10
21.7016119
20
8.6417
11
20.935384
21
8.6417
0
LINE
8
DEFAULT_255_1_234
10
20.935384
20
8.6417
11
20.935384
21
8.7485221
0
LINE
8
DEFAULT_255_1_234
10
20.935384
20
8.7485221
11
21.3401836
21
9.1982995
0
LINE
8
DEFAULT_255_1_234
10
21.0614823
20
9.4665595
11
20.9128952
21
9.4665595
0
LINE
8
DEFAULT_255_1_234
10
21.4277296
20
9.1027218
11
21.1144918
21
8.7629792
0
LINE
8
DEFAULT_255_1_234
10
21.1144918
20
8.7629792
11
21.7016119
21
8.7629792
0
ARC
8
DEFAULT_255_1_234
10
19.991167
20
10.3912527
40
1.8008286
50
318.5132453
51
320.7828378
0
ARC
8
DEFAULT_255_1_234
10
20.5198644
20
9.9609426
40
1.1191493
50
320.7372736
51
323.9737074
0
ARC
8
DEFAULT_255_1_234
10
20.9118501
20
9.6769361
40
0.6350923
50
323.8961724
51
328.6421089
0
ARC
8
DEFAULT_255_1_234
10
21.1165096
20
9.5507031
40
0.3946393
50
328.8299013
51
331.789948
0
ARC
8
DEFAULT_255_1_234
10
21.2162274
20
9.4992509
40
0.2824501
50
331.4255242
51
352.9364833
0
ARC
8
DEFAULT_255_1_234
10
21.2298775
20
9.4961976
40
0.2685315
50
353.2248685
51
0.0169286
0
ARC
8
DEFAULT_255_1_234
10
21.2508652
20
9.498495
40
0.2475536
50
359.4866256
51
15.9339782
0
ARC
8
DEFAULT_255_1_234
10
21.3015637
20
9.5121286
40
0.1950618
50
16.1714718
51
43.5284424
0
ARC
8
DEFAULT_255_1_234
10
21.3092946
20
9.5198573
40
0.184134
50
43.4415429
51
83.1661404
0
ARC
8
DEFAULT_255_1_234
10
21.2958864
20
9.4461771
40
0.258926
50
82.160215
51
90.1505798
0
ARC
8
DEFAULT_255_1_234
10
21.2927291
20
9.3924865
40
0.3126255
50
89.5460705
51
102.5418777
0
ARC
8
DEFAULT_255_1_234
10
21.2684377
20
9.4955665
40
0.2067346
50
102.1739365
51
129.2061916
0
ARC
8
DEFAULT_255_1_234
10
21.2605449
20
9.5080094
40
0.1921118
50
129.7279328
51
135.7542026
0
ARC
8
DEFAULT_255_1_234
10
21.2726977
20
9.4983045
40
0.2075944
50
136.175737
51
166.3674722
0
ARC
8
DEFAULT_255_1_234
10
21.3733896
20
9.4713182
40
0.3118201
50
165.9092917
51
178.8683903
0
ARC
8
DEFAULT_255_1_234
10
21.4598757
20
9.4666179
40
0.3983935
50
178.438168
51
180.0083905
0
ARC
8
DEFAULT_255_1_234
10
21.3197359
20
9.4705231
40
0.4068601
50
163.2878735
51
180.5581814
0
ARC
8
DEFAULT_255_1_234
10
21.2395621
20
9.492584
40
0.3237344
50
133.454115
51
162.9470031
0
ARC
8
DEFAULT_255_1_234
10
21.2574162
20
9.4736
40
0.349795
50
100.7869394
51
133.4384016
0
ARC
8
DEFAULT_255_1_234
10
21.2921934
20
9.3187319
40
0.5084616
50
89.6605301
51
101.3704185
0
ARC
8
DEFAULT_255_1_234
10
21.2988273
20
9.3248496
40
0.502348
50
78.2171172
51
90.4130393
0
ARC
8
DEFAULT_255_1_234
10
21.3343351
20
9.4872637
40
0.3361092
50
55.9268222
51
78.4888551
0
ARC
8
DEFAULT_255_1_234
10
21.3539791
20
9.5211324
40
0.2970617
50
47.9292255
51
55.4054003
0
ARC
8
DEFAULT_255_1_234
10
21.3641352
20
9.5314502
40
0.2825983
50
4.3347696
51
48.0560701
0
ARC
8
DEFAULT_255_1_234
10
21.2545745
20
9.5144601
40
0.393225
50
359.925209
51
5.5967654
0
ARC
8
DEFAULT_255_1_234
10
21.2974637
20
9.5200816
40
0.3503892
50
337.8914096
51
358.9967724
0
ARC
8
DEFAULT_255_1_234
10
21.0261049
20
9.6247706
40
0.6412172
50
326.9135351
51
338.3505194
0
ARC
8
DEFAULT_255_1_234
10
20.6275353
20
9.8802284
40
1.1146189
50
319.6472867
51
327.095818
0
ARC
8
DEFAULT_255_1_234
10
20.2442356
20
10.1964
40
1.6114559
50
317.2586784
51
319.9046139
0
LINE
8
DEFAULT_255_1_234
10
4.2181378
20
3.8847169
11
4.2181378
21
4.0059962
0
LINE
8
DEFAULT_255_1_234
10
4.2181378
20
4.0059962
11
4.329779
21
4.0059962
0
LINE
8
DEFAULT_255_1_234
10
4.1394268
20
4.2116087
11
3.9908396
21
4.2116087
0
LINE
8
DEFAULT_255_1_234
10
3.9803983
20
3.6574187
11
4.1297887
21
3.6574187
0
LINE
8
DEFAULT_255_1_234
10
4.329779
20
3.8847169
11
4.2181378
21
3.8847169
0
ARC
8
DEFAULT_255_1_234
10
4.3268656
20
4.3452713
40
0.3392876
50
270.4919872
51
281.8951556
0
ARC
8
DEFAULT_255_1_234
10
4.3509918
20
4.2350702
40
0.2264817
50
281.6691735
51
301.2943132
0
ARC
8
DEFAULT_255_1_234
10
4.3680128
20
4.2039304
40
0.1910381
50
301.7833094
51
311.7545298
0
ARC
8
DEFAULT_255_1_234
10
4.3771704
20
4.1937748
40
0.1773635
50
311.7323931
51
354.2802411
0
ARC
8
DEFAULT_255_1_234
10
4.3045329
20
4.2062722
40
0.2509385
50
353.0937916
51
0.1181479
0
ARC
8
DEFAULT_255_1_234
10
4.2584114
20
4.2110386
40
0.2970898
50
359.1805295
51
15.0453146
0
ARC
8
DEFAULT_255_1_234
10
4.3929951
20
4.2502992
40
0.1569564
50
13.9577229
51
77.6713066
0
ARC
8
DEFAULT_255_1_234
10
4.354348
20
4.1117949
40
0.3006298
50
76.1116566
51
90.7026153
0
ARC
8
DEFAULT_255_1_234
10
4.3484318
20
4.1391545
40
0.2732568
50
89.5324876
51
103.531937
0
ARC
8
DEFAULT_255_1_234
10
4.3283762
20
4.2190884
40
0.1908508
50
103.2931773
51
133.5619022
0
ARC
8
DEFAULT_255_1_234
10
4.3239251
20
4.2250375
40
0.1834746
50
133.8349307
51
173.5344437
0
ARC
8
DEFAULT_255_1_234
10
4.3962294
20
4.2122213
40
0.2568033
50
172.5096846
51
180.1366907
0
ARC
8
DEFAULT_255_1_234
10
4.3011188
20
4.2156622
40
0.3103056
50
155.3484492
51
180.7484736
0
ARC
8
DEFAULT_255_1_234
10
4.2962277
20
4.2127846
40
0.3070957
50
131.5744599
51
154.4798489
0
ARC
8
DEFAULT_255_1_234
10
4.3275424
20
4.181131
40
0.3515643
50
96.9875458
51
131.9690667
0
ARC
8
DEFAULT_255_1_234
10
4.3494904
20
4.0565636
40
0.4779224
50
89.8596053
51
97.7825159
0
ARC
8
DEFAULT_255_1_234
10
4.3542967
20
4.0303616
40
0.5041361
50
78.3655447
51
90.4131539
0
ARC
8
DEFAULT_255_1_234
10
4.3900885
20
4.1962887
40
0.3344039
50
56.6229102
51
78.638727
0
ARC
8
DEFAULT_255_1_234
10
4.4115829
20
4.2338805
40
0.2912001
50
47.0253525
51
56.0854072
0
ARC
8
DEFAULT_255_1_234
10
4.4135609
20
4.2378223
40
0.2869704
50
10.9208013
51
46.7778124
0
ARC
8
DEFAULT_255_1_234
10
4.2771675
20
4.2062857
40
0.426899
50
359.6364486
51
11.6087304
0
ARC
8
DEFAULT_255_1_234
10
4.4606519
20
4.2047752
40
0.243409
50
332.3549906
51
359.7179418
0
ARC
8
DEFAULT_255_1_234
10
4.3956121
20
4.2356142
40
0.3153459
50
325.2333722
51
332.8745602
0
ARC
8
DEFAULT_255_1_234
10
4.4108744
20
4.2249828
40
0.2967456
50
292.9802137
51
325.2392345
0
ARC
8
DEFAULT_255_1_234
10
4.3834118
20
4.2783863
40
0.3566604
50
292.5402179
51
293.6924929
0
ARC
8
DEFAULT_255_1_234
10
4.4226714
20
3.6329091
40
0.3307468
50
57.6435486
51
72.8625112
0
ARC
8
DEFAULT_255_1_234
10
4.4581214
20
3.6903549
40
0.2632492
50
36.7248896
51
57.4697979
0
ARC
8
DEFAULT_255_1_234
10
4.4569847
20
3.691622
40
0.2634081
50
8.0545065
51
36.356114
0
ARC
8
DEFAULT_255_1_234
10
4.3707032
20
3.6761174
40
0.3510261
50
359.8320645
51
8.5869982
0
ARC
8
DEFAULT_255_1_234
10
4.3331808
20
3.6713101
40
0.3885653
50
343.9829931
51
0.5571613
0
ARC
8
DEFAULT_255_1_234
10
4.4218005
20
3.6470438
40
0.2966924
50
311.6359546
51
343.7651759
0
ARC
8
DEFAULT_255_1_234
10
4.3839574
20
3.6897102
40
0.3537231
50
279.7829875
51
311.6255694
0
ARC
8
DEFAULT_255_1_234
10
4.3538351
20
3.833428
40
0.5004971
50
269.7286406
51
280.3856417
0
ARC
8
DEFAULT_255_1_234
10
4.3476423
20
3.8292996
40
0.4963778
50
256.6828919
51
270.4412052
0
ARC
8
DEFAULT_255_1_234
10
4.3137719
20
3.6908394
40
0.3538406
50
229.4223008
51
256.8556159
0
ARC
8
DEFAULT_255_1_234
10
4.2723112
20
3.6441736
40
0.2914296
50
181.818294
51
229.6455059
0
ARC
8
DEFAULT_255_1_234
10
4.3763068
20
3.6572496
40
0.3959084
50
179.9755256
51
183.2323064
0
ARC
8
DEFAULT_255_1_234
10
4.3590814
20
3.6552037
40
0.2293034
50
179.4465117
51
196.2869258
0
ARC
8
DEFAULT_255_1_234
10
4.3103222
20
3.6418651
40
0.1787621
50
196.5661473
51
227.705904
0
ARC
8
DEFAULT_255_1_234
10
4.3267317
20
3.6602155
40
0.2033784
50
227.7652068
51
257.8762805
0
ARC
8
DEFAULT_255_1_234
10
4.3492287
20
3.7545156
40
0.3003081
50
257.4584385
51
270.426602
0
ARC
8
DEFAULT_255_1_234
10
4.3537853
20
3.7834996
40
0.329292
50
269.5962073
51
280.8789248
0
ARC
8
DEFAULT_255_1_234
10
4.3767382
20
3.6688685
40
0.2123908
50
280.6346389
51
299.8595945
0
ARC
8
DEFAULT_255_1_234
10
4.3958289
20
3.6326212
40
0.171457
50
300.3576302
51
314.5517981
0
ARC
8
DEFAULT_255_1_234
10
4.3875349
20
3.6386919
40
0.1816095
50
315.0728369
51
345.0431014
0
ARC
8
DEFAULT_255_1_234
10
4.2952163
20
3.6655841
40
0.2777492
50
344.5986631
51
357.9269593
0
ARC
8
DEFAULT_255_1_234
10
4.2056489
20
3.6717276
40
0.3674917
50
357.4748886
51
0.0231117
0
ARC
8
DEFAULT_255_1_234
10
4.3079599
20
3.6741679
40
0.2651907
50
359.5047933
51
13.4239635
0
ARC
8
DEFAULT_255_1_234
10
4.3946242
20
3.6963478
40
0.1757509
50
12.9498199
51
48.7551375
0
ARC
8
DEFAULT_255_1_234
10
4.3763976
20
3.67144
40
0.2065134
50
49.5088623
51
72.1836453
0
ARC
8
DEFAULT_255_1_234
10
4.3406129
20
3.5652291
40
0.3185836
50
71.9010081
51
84.3554254
0
ARC
8
DEFAULT_255_1_234
10
4.3244761
20
3.4291326
40
0.4556151
50
84.0193428
51
89.333121
0
LINE
8
DEFAULT_255_1_234
10
21.3510628
20
4.5184211
11
21.3510628
21
3.741752
0
LINE
8
DEFAULT_255_1_234
10
21.3510628
20
3.741752
11
21.5133039
21
3.741752
0
LINE
8
DEFAULT_255_1_234
10
21.5133039
20
3.741752
11
21.5133039
21
3.6204728
0
LINE
8
DEFAULT_255_1_234
10
21.5133039
20
3.6204728
11
21.3510628
21
3.6204728
0
LINE
8
DEFAULT_255_1_234
10
21.3510628
20
3.6204728
11
21.3510628
21
3.349
0
LINE
8
DEFAULT_255_1_234
10
21.3510628
20
3.349
11
21.2016725
21
3.349
0
LINE
8
DEFAULT_255_1_234
10
21.2016725
20
3.349
11
21.2016725
21
3.6204728
0
LINE
8
DEFAULT_255_1_234
10
21.2016725
20
3.6204728
11
20.6691682
21
3.6204728
0
LINE
8
DEFAULT_255_1_234
10
20.6691682
20
3.6204728
11
20.6691682
21
3.7080187
0
LINE
8
DEFAULT_255_1_234
10
20.6691682
20
3.7080187
11
21.1928375
21
4.5184211
0
LINE
8
DEFAULT_255_1_234
10
21.1928375
20
4.5184211
11
21.3510628
21
4.5184211
0
LINE
8
DEFAULT_255_1_234
10
21.1840026
20
4.2830912
11
20.8378347
21
3.741752
0
LINE
8
DEFAULT_255_1_234
10
20.8378347
20
3.741752
11
21.2016725
21
3.741752
0
LINE
8
DEFAULT_255_1_234
10
21.2016725
20
3.741752
11
21.2016725
21
4.3152181
0
LINE
8
DEFAULT_255_1_234
10
21.2016725
20
4.3152181
11
21.1840026
21
4.2830912
0
LINE
8
DEFAULT_255_1_234
10
4.1892235
20
-1.3864037
11
4.0703538
21
-1.3558831
0
LINE
8
DEFAULT_255_1_234
10
4.0703538
20
-1.3558831
11
4.1297887
21
-0.7727789
0
LINE
8
DEFAULT_255_1_234
10
4.1297887
20
-0.7727789
11
4.7289563
21
-0.7727789
0
LINE
8
DEFAULT_255_1_234
10
4.7289563
20
-0.7727789
11
4.7289563
21
-0.9101216
0
LINE
8
DEFAULT_255_1_234
10
4.7289563
20
-0.9101216
11
4.255887
21
-0.9101216
0
LINE
8
DEFAULT_255_1_234
10
4.255887
20
-0.9101216
11
4.2205473
21
-1.2289816
0
LINE
8
DEFAULT_255_1_234
10
4.0285888
20
-1.6345844
11
4.1691442
21
-1.6345844
0
LINE
8
DEFAULT_255_1_234
10
4.2285791
20
-1.3542768
11
4.1892235
21
-1.3864037
0
ARC
8
DEFAULT_255_1_234
10
4.4060257
20
-1.546977
40
0.3681349
50
93.7182161
51
120.2538958
0
ARC
8
DEFAULT_255_1_234
10
4.415452
20
-1.6277606
40
0.449379
50
89.9660152
51
94.2496022
0
ARC
8
DEFAULT_255_1_234
10
4.4195254
20
-1.5688451
40
0.390482
50
73.8043271
51
90.5585896
0
ARC
8
DEFAULT_255_1_234
10
4.4430151
20
-1.4830398
40
0.3015334
50
41.3071453
51
73.5430202
0
ARC
8
DEFAULT_255_1_234
10
4.4013978
20
-1.5188676
40
0.3564457
50
13.5075983
51
41.2174222
0
ARC
8
DEFAULT_255_1_234
10
4.2372182
20
-1.5618514
40
0.5261351
50
1.1331335
51
13.8829381
0
ARC
8
DEFAULT_255_1_234
10
4.0960551
20
-1.5694335
40
0.6674378
50
359.9919444
51
1.544251
0
ARC
8
DEFAULT_255_1_234
10
4.2237377
20
-1.573572
40
0.5397702
50
347.8572367
51
0.4293338
0
ARC
8
DEFAULT_255_1_234
10
4.3987695
20
-1.6132264
40
0.3603188
50
323.673004
51
348.1672506
0
ARC
8
DEFAULT_255_1_234
10
4.4282203
20
-1.6311832
40
0.3259678
50
316.8171152
51
323.1492751
0
ARC
8
DEFAULT_255_1_234
10
4.4343392
20
-1.634854
40
0.3189975
50
281.8396411
51
316.5457803
0
ARC
8
DEFAULT_255_1_234
10
4.3967656
20
-1.4793238
40
0.4789527
50
269.5770101
51
282.4214771
0
ARC
8
DEFAULT_255_1_234
10
4.3896467
20
-1.5006875
40
0.45759
50
256.2427136
51
270.4486331
0
ARC
8
DEFAULT_255_1_234
10
4.359737
20
-1.6206771
40
0.3339303
50
228.9023911
51
256.3314342
0
ARC
8
DEFAULT_255_1_234
10
4.3523602
20
-1.6323254
40
0.32031
50
193.753695
51
228.5271154
0
ARC
8
DEFAULT_255_1_234
10
4.4761556
20
-1.59602
40
0.4492253
50
184.924711
51
194.497588
0
ARC
8
DEFAULT_255_1_234
10
4.4954123
20
-1.5924409
40
0.3289787
50
187.3600538
51
198.6732863
0
ARC
8
DEFAULT_255_1_234
10
4.3904417
20
-1.6288326
40
0.217884
50
198.4451669
51
217.794479
0
ARC
8
DEFAULT_255_1_234
10
4.3608592
20
-1.6497915
40
0.1816698
50
218.2887171
51
228.5612368
0
ARC
8
DEFAULT_255_1_234
10
4.3706379
20
-1.6366037
40
0.1980329
50
228.9654866
51
258.1234728
0
ARC
8
DEFAULT_255_1_234
10
4.3912089
20
-1.5485167
40
0.2884748
50
257.7258293
51
270.401361
0
ARC
8
DEFAULT_255_1_234
10
4.3956975
20
-1.5930179
40
0.2439788
50
269.4204404
51
286.4209037
0
ARC
8
DEFAULT_255_1_234
10
4.4105463
20
-1.6469343
40
0.1880666
50
286.7251356
51
320.600362
0
ARC
8
DEFAULT_255_1_234
10
4.3722288
20
-1.6158405
40
0.2374121
50
320.6712579
51
344.5441685
0
ARC
8
DEFAULT_255_1_234
10
4.2565614
20
-1.5818955
40
0.3579479
50
344.2412205
51
356.7357071
0
ARC
8
DEFAULT_255_1_234
10
4.1316763
20
-1.5715556
40
0.4832297
50
356.3548756
51
0.0500261
0
ARC
8
DEFAULT_255_1_234
10
4.2653272
20
-1.568435
40
0.3495889
50
359.5576869
51
12.953486
0
ARC
8
DEFAULT_255_1_234
10
4.3708169
20
-1.5428566
40
0.2410532
50
12.6490276
51
41.6081334
0
ARC
8
DEFAULT_255_1_234
10
4.393854
20
-1.5232679
40
0.2108218
50
41.7850273
51
85.9892764
0
ARC
8
DEFAULT_255_1_234
10
4.3815277
20
-1.6045538
40
0.2928454
50
84.6957577
51
90.0676183
0
ARC
8
DEFAULT_255_1_234
10
4.3791761
20
-1.6714284
40
0.3597255
50
89.6804936
51
99.1614436
0
ARC
8
DEFAULT_255_1_234
10
4.3586392
20
-1.5486869
40
0.235281
50
98.9830931
51
113.8908934
0
ARC
8
DEFAULT_255_1_234
10
4.3356802
20
-1.4945413
40
0.176479
50
114.1950727
51
127.3641004
0
LINE
8
DEFAULT_255_1_234
10
21.4919835
20
-0.7719757
11
21.5184882
21
-0.7719757
0
LINE
8
DEFAULT_255_1_234
10
21.5184882
20
-0.7719757
11
21.5184882
21
-0.898074
0
LINE
8
DEFAULT_255_1_234
10
21.5184882
20
-0.898074
11
21.4911803
21
-0.898074
0
LINE
8
DEFAULT_255_1_234
10
20.9442189
20
-1.4972417
11
20.9442189
21
-1.4402164
0
LINE
8
DEFAULT_255_1_234
10
21.0936093
20
-1.4594925
11
21.0936093
21
-1.5141083
0
ARC
8
DEFAULT_255_1_234
10
21.4964151
20
-1.3978545
40
0.4998079
50
90.6001036
51
104.514704
0
ARC
8
DEFAULT_255_1_234
10
21.4575667
20
-1.2533869
40
0.3502176
50
104.2855254
51
133.862935
0
ARC
8
DEFAULT_255_1_234
10
21.4739424
20
-1.264217
40
0.3693984
50
134.5302688
51
161.6210873
0
ARC
8
DEFAULT_255_1_234
10
21.6392613
20
-1.3225105
40
0.5446739
50
161.2849839
51
174.2076652
0
ARC
8
DEFAULT_255_1_234
10
21.779955
20
-1.3419213
40
0.6866274
50
173.7810589
51
174.9254635
0
ARC
8
DEFAULT_255_1_234
10
21.3249382
20
-1.4802161
40
0.3033419
50
95.8330959
51
138.9954921
0
ARC
8
DEFAULT_255_1_234
10
21.3472738
20
-1.6080625
40
0.4328947
50
89.8753725
51
97.0544009
0
ARC
8
DEFAULT_255_1_234
10
21.3520204
20
-1.5245252
40
0.3493769
50
71.6407809
51
90.6240094
0
ARC
8
DEFAULT_255_1_234
10
21.3670777
20
-1.4690918
40
0.2920396
50
39.6367836
51
71.019018
0
ARC
8
DEFAULT_255_1_234
10
21.303425
20
-1.5241002
40
0.3761538
50
10.658731
51
39.9043955
0
ARC
8
DEFAULT_255_1_234
10
21.1486333
20
-1.5577314
40
0.5345136
50
359.682601
51
11.132623
0
ARC
8
DEFAULT_255_1_234
10
21.1446464
20
-1.564799
40
0.5385081
50
347.2486944
51
0.4369317
0
ARC
8
DEFAULT_255_1_234
10
21.3113941
20
-1.6049193
40
0.3670249
50
318.1409698
51
347.6118597
0
ARC
8
DEFAULT_255_1_234
10
21.3438934
20
-1.6316298
40
0.3250007
50
275.6342139
51
317.8248465
0
ARC
8
DEFAULT_255_1_234
10
21.3218045
20
-1.5016781
40
0.4565864
50
269.8874292
51
276.7917694
0
ARC
8
DEFAULT_255_1_234
10
21.3163116
20
-1.6042257
40
0.3540676
50
246.9140195
51
270.7437342
0
ARC
8
DEFAULT_255_1_234
10
21.3169506
20
-1.6184616
40
0.3412781
50
218.1665114
51
245.878116
0
ARC
8
DEFAULT_255_1_234
10
21.4048967
20
-1.5448721
40
0.455911
50
191.4115814
51
218.6077802
0
ARC
8
DEFAULT_255_1_234
10
21.5987056
20
-1.5014167
40
0.6545001
50
179.6345085
51
191.7836486
0
ARC
8
DEFAULT_255_1_234
10
22.1569393
20
-1.4335303
40
1.2127388
50
171.4525249
51
180.3158839
0
ARC
8
DEFAULT_255_1_234
10
21.7174269
20
-1.3651392
40
0.7679464
50
157.9802646
51
171.6246686
0
ARC
8
DEFAULT_255_1_234
10
21.496029
20
-1.2768579
40
0.5296008
50
141.4298019
51
157.854097
0
ARC
8
DEFAULT_255_1_234
10
21.431861
20
-1.2314619
40
0.4511509
50
102.8715806
51
140.8564722
0
ARC
8
DEFAULT_255_1_234
10
21.4966226
20
-1.4754448
40
0.7034845
50
90.3778349
51
103.5869322
0
ARC
8
DEFAULT_255_1_234
10
21.3228002
20
-1.535927
40
0.2370698
50
89.8751008
51
126.2071704
0
ARC
8
DEFAULT_255_1_234
10
21.3273792
20
-1.5513697
40
0.2522934
50
124.9745049
51
144.895901
0
ARC
8
DEFAULT_255_1_234
10
21.3097982
20
-1.537044
40
0.2296779
50
145.2974905
51
160.2660252
0
ARC
8
DEFAULT_255_1_234
10
21.6170521
20
-1.5172929
40
0.5234525
50
179.6514266
51
190.2855912
0
ARC
8
DEFAULT_255_1_234
10
21.4476658
20
-1.5492214
40
0.3510893
50
190.0945431
51
207.5098196
0
ARC
8
DEFAULT_255_1_234
10
21.3910928
20
-1.5761377
40
0.288489
50
207.9583163
51
216.3251085
0
ARC
8
DEFAULT_255_1_234
10
21.3571036
20
-1.6040895
40
0.2445587
50
215.7661442
51
232.5456785
0
ARC
8
DEFAULT_255_1_234
10
21.3188019
20
-1.6527518
40
0.1826382
50
232.8005391
51
270.6605633
0
ARC
8
DEFAULT_255_1_234
10
21.323372
20
-1.6163388
40
0.2190529
50
269.35537
51
288.4744281
0
ARC
8
DEFAULT_255_1_234
10
21.3326617
20
-1.6512882
40
0.1829749
50
289.1833337
51
322.9683818
0
ARC
8
DEFAULT_255_1_234
10
21.2715139
20
-1.6030609
40
0.2608399
50
322.6007884
51
346.5182367
0
ARC
8
DEFAULT_255_1_234
10
21.1557735
20
-1.5735384
40
0.3802777
50
346.2582162
51
358.7741648
0
ARC
8
DEFAULT_255_1_234
10
21.0539404
20
-1.5680035
40
0.4822176
50
358.3755224
51
0.0098023
0
ARC
8
DEFAULT_255_1_234
10
21.1295591
20
-1.5652343
40
0.4066078
50
359.6214041
51
11.2839074
0
ARC
8
DEFAULT_255_1_234
10
21.2572738
20
-1.5385934
40
0.2761514
50
11.0482309
51
31.8146458
0
ARC
8
DEFAULT_255_1_234
10
21.2881781
20
-1.5218416
40
0.2410679
50
32.3035391
51
38.082671
0
ARC
8
DEFAULT_255_1_234
10
21.3302441
20
-1.4837338
40
0.1844966
50
36.825067
51
85.7415724
0
ARC
8
DEFAULT_255_1_234
10
21.3235274
20
-1.5337699
40
0.2349122
50
85.0140713
51
90.0513278
0
ENDSEC
0
EOF