0
SECTION
2
HEADER
9
$MEASUREMENT
70
1
0
ENDSEC
0
SECTION
2
TABLES
0
TABLE
2
LTYPE
0
LTYPE
72
65
70
64
2
CONTINUOUS
3
______
73
0
40
0
0
ENDTAB
0
TABLE
2
LAYER
0
LAYER
2
DEFAULT_255_2_778
70
0
62
255
6
CONTINUOUS
0
LAYER
2
DEFAULT_255_1_234
70
0
62
255
6
CONTINUOUS
0
ENDTAB
0
ENDSEC
0
SECTION
2
ENTITIES
0
LINE
8
DEFAULT_255_2_778
10
2.7781169
20
10.4510665
11
16.0073169
21
10.4510665
0
LINE
8
DEFAULT_255_2_778
10
2.7781169
20
5.1593665
11
16.0073169
21
5.1593665
0
LINE
8
DEFAULT_255_2_778
10
2.7781169
20
-0.1322335
11
16.0073169
21
-0.1322335
0
LINE
8
DEFAULT_255_2_778
10
9.3926834
20
-2.7781002
11
9.3926834
21
13.0968998
0
LINE
8
DEFAULT_255_2_778
10
9.3926834
20
13.0968998
11
12.0384834
21
13.0968998
0
LINE
8
DEFAULT_255_2_778
10
12.0384834
20
13.0968998
11
12.0384834
21
-2.7781002
0
LINE
8
DEFAULT_255_2_778
10
12.0384834
20
-2.7781002
11
9.3926834
21
-2.7781002
0
LINE
8
DEFAULT_255_2_778
10
10.0542
20
10.0541833
11
10.0542
21
9.5249833
0
LINE
8
DEFAULT_255_2_778
10
10.0541417
20
9.7895917
11
11.3770417
21
9.5249917
0
LINE
8
DEFAULT_255_2_778
10
11.3770417
20
9.7895666
11
11.3770417
21
9.2604666
0
LINE
8
DEFAULT_255_2_778
10
10.0541417
20
10.5833666
11
10.7156417
21
11.6416666
0
LINE
8
DEFAULT_255_2_778
10
10.7156417
20
11.6416666
11
11.3770417
21
10.5833666
0
LINE
8
DEFAULT_255_2_778
10
10.0541417
20
4.7624666
11
10.0541417
21
4.2333666
0
LINE
8
DEFAULT_255_2_778
10
10.0541417
20
4.4978917
11
11.3770417
21
4.2332917
0
LINE
8
DEFAULT_255_2_778
10
11.3770417
20
4.4978666
11
11.3770417
21
3.9687666
0
LINE
8
DEFAULT_255_2_778
10
10.0541417
20
5.2916666
11
10.7156417
21
6.3499666
0
LINE
8
DEFAULT_255_2_778
10
10.7156417
20
6.3499666
11
11.3770417
21
5.2916666
0
LINE
8
DEFAULT_255_2_778
10
10.0541417
20
-0.5292334
11
10.0541417
21
-1.0583334
0
LINE
8
DEFAULT_255_2_778
10
10.0541417
20
-0.7937083
11
11.3770417
21
-1.0583083
0
LINE
8
DEFAULT_255_2_778
10
11.3770417
20
-0.793775
11
11.3770417
21
-1.322875
0
LINE
8
DEFAULT_255_2_778
10
10.0541417
20
0.000025
11
10.7156417
21
1.058325
0
LINE
8
DEFAULT_255_2_778
10
10.7156417
20
1.058325
11
11.3770417
21
0.000025
0
LINE
8
DEFAULT_255_2_778
10
6.7468834
20
-2.7781002
11
6.7468834
21
13.0968998
0
LINE
8
DEFAULT_255_2_778
10
6.7468834
20
13.0968998
11
9.3926834
21
13.0968998
0
LINE
8
DEFAULT_255_2_778
10
9.3926834
20
13.0968998
11
9.3926834
21
-2.7781002
0
LINE
8
DEFAULT_255_2_778
10
9.3926834
20
-2.7781002
11
6.7468834
21
-2.7781002
0
LINE
8
DEFAULT_255_2_778
10
6.7468834
20
10.4510248
11
7.4083834
21
10.4510248
0
LINE
8
DEFAULT_255_2_778
10
7.4083834
20
10.4510248
11
7.4083834
21
11.7739248
0
LINE
8
DEFAULT_255_2_778
10
7.4083834
20
11.7739248
11
8.7312834
21
11.7739248
0
LINE
8
DEFAULT_255_2_778
10
8.7312834
20
11.7739248
11
8.7312834
21
10.4510248
0
LINE
8
DEFAULT_255_2_778
10
8.7312834
20
10.4510248
11
9.3926834
21
10.4510248
0
LINE
8
DEFAULT_255_2_778
10
6.7468834
20
5.1593248
11
7.4083834
21
5.1593248
0
LINE
8
DEFAULT_255_2_778
10
7.4083834
20
5.1593248
11
7.4083834
21
6.4822248
0
LINE
8
DEFAULT_255_2_778
10
7.4083834
20
6.4822248
11
8.7312834
21
6.4822248
0
LINE
8
DEFAULT_255_2_778
10
8.7312834
20
6.4822248
11
8.7312834
21
5.1593248
0
LINE
8
DEFAULT_255_2_778
10
8.7312834
20
5.1593248
11
9.3926834
21
5.1593248
0
LINE
8
DEFAULT_255_2_778
10
6.7468834
20
-0.1322752
11
7.4083834
21
-0.1322752
0
LINE
8
DEFAULT_255_2_778
10
7.4083834
20
-0.1322752
11
7.4083834
21
1.1906248
0
LINE
8
DEFAULT_255_2_778
10
7.4083834
20
1.1906248
11
8.7312834
21
1.1906248
0
LINE
8
DEFAULT_255_2_778
10
8.7312834
20
1.1906248
11
8.7312834
21
-0.1322752
0
LINE
8
DEFAULT_255_2_778
10
8.7312834
20
-0.1322752
11
9.3926834
21
-0.1322752
0
LINE
8
DEFAULT_255_1_234
10
4.4811137
20
12.5628433
11
4.4811137
21
11.3878
0
LINE
8
DEFAULT_255_1_234
10
4.4811137
20
11.3878
11
4.3317234
21
11.3878
0
LINE
8
DEFAULT_255_1_234
10
4.3317234
20
11.3878
11
4.3317234
21
12.3781133
0
LINE
8
DEFAULT_255_1_234
10
4.3317234
20
12.3781133
11
4.0321396
21
12.2680785
0
LINE
8
DEFAULT_255_1_234
10
4.0321396
20
12.2680785
11
4.0321396
21
12.4030117
0
LINE
8
DEFAULT_255_1_234
10
4.0321396
20
12.4030117
11
4.4578217
21
12.5628433
0
LINE
8
DEFAULT_255_1_234
10
4.4578217
20
12.5628433
11
4.4811137
21
12.5628433
0
LINE
8
DEFAULT_255_1_234
10
13.7631119
20
11.5090792
11
13.7631119
21
11.3878
0
LINE
8
DEFAULT_255_1_234
10
13.7631119
20
11.3878
11
12.996884
21
11.3878
0
LINE
8
DEFAULT_255_1_234
10
12.996884
20
11.3878
11
12.996884
21
11.4946221
0
LINE
8
DEFAULT_255_1_234
10
12.996884
20
11.4946221
11
13.4016836
21
11.9443995
0
LINE
8
DEFAULT_255_1_234
10
13.1229823
20
12.2126595
11
12.9743952
21
12.2126595
0
LINE
8
DEFAULT_255_1_234
10
13.4892296
20
11.8488218
11
13.1759918
21
11.5090792
0
LINE
8
DEFAULT_255_1_234
10
13.1759918
20
11.5090792
11
13.7631119
21
11.5090792
0
ARC
8
DEFAULT_255_1_234
10
12.052667
20
13.1373527
40
1.8008286
50
318.5132453
51
320.7828378
0
ARC
8
DEFAULT_255_1_234
10
12.5813644
20
12.7070426
40
1.1191493
50
320.7372736
51
323.9737074
0
ARC
8
DEFAULT_255_1_234
10
12.9733501
20
12.4230361
40
0.6350923
50
323.8961724
51
328.6421089
0
ARC
8
DEFAULT_255_1_234
10
13.1780096
20
12.2968031
40
0.3946393
50
328.8299013
51
331.789948
0
ARC
8
DEFAULT_255_1_234
10
13.2777274
20
12.2453509
40
0.2824501
50
331.4255242
51
352.9364833
0
ARC
8
DEFAULT_255_1_234
10
13.2913775
20
12.2422976
40
0.2685315
50
353.2248685
51
0.0169286
0
ARC
8
DEFAULT_255_1_234
10
13.3123652
20
12.244595
40
0.2475536
50
359.4866256
51
15.9339782
0
ARC
8
DEFAULT_255_1_234
10
13.3630637
20
12.2582286
40
0.1950618
50
16.1714718
51
43.5284424
0
ARC
8
DEFAULT_255_1_234
10
13.3707946
20
12.2659573
40
0.184134
50
43.4415429
51
83.1661404
0
ARC
8
DEFAULT_255_1_234
10
13.3573864
20
12.1922771
40
0.258926
50
82.160215
51
90.1505798
0
ARC
8
DEFAULT_255_1_234
10
13.3542291
20
12.1385865
40
0.3126255
50
89.5460705
51
102.5418777
0
ARC
8
DEFAULT_255_1_234
10
13.3299377
20
12.2416665
40
0.2067346
50
102.1739365
51
129.2061916
0
ARC
8
DEFAULT_255_1_234
10
13.3220449
20
12.2541094
40
0.1921118
50
129.7279328
51
135.7542026
0
ARC
8
DEFAULT_255_1_234
10
13.3341977
20
12.2444045
40
0.2075944
50
136.175737
51
166.3674722
0
ARC
8
DEFAULT_255_1_234
10
13.4348896
20
12.2174182
40
0.3118201
50
165.9092917
51
178.8683903
0
ARC
8
DEFAULT_255_1_234
10
13.5213757
20
12.2127179
40
0.3983935
50
178.438168
51
180.0083905
0
ARC
8
DEFAULT_255_1_234
10
13.3812359
20
12.2166231
40
0.4068601
50
163.2878735
51
180.5581814
0
ARC
8
DEFAULT_255_1_234
10
13.3010621
20
12.238684
40
0.3237344
50
133.454115
51
162.9470031
0
ARC
8
DEFAULT_255_1_234
10
13.3189162
20
12.2197
40
0.349795
50
100.7869394
51
133.4384016
0
ARC
8
DEFAULT_255_1_234
10
13.3536934
20
12.0648319
40
0.5084616
50
89.6605301
51
101.3704185
0
ARC
8
DEFAULT_255_1_234
10
13.3603273
20
12.0709496
40
0.502348
50
78.2171172
51
90.4130393
0
ARC
8
DEFAULT_255_1_234
10
13.3958351
20
12.2333637
40
0.3361092
50
55.9268222
51
78.4888551
0
ARC
8
DEFAULT_255_1_234
10
13.4154791
20
12.2672324
40
0.2970617
50
47.9292255
51
55.4054003
0
ARC
8
DEFAULT_255_1_234
10
13.4256352
20
12.2775502
40
0.2825983
50
4.3347696
51
48.0560701
0
ARC
8
DEFAULT_255_1_234
10
13.3160745
20
12.2605601
40
0.393225
50
359.925209
51
5.5967654
0
ARC
8
DEFAULT_255_1_234
10
13.3589637
20
12.2661816
40
0.3503892
50
337.8914096
51
358.9967724
0
ARC
8
DEFAULT_255_1_234
10
13.0876049
20
12.3708706
40
0.6412172
50
326.9135351
51
338.3505194
0
ARC
8
DEFAULT_255_1_234
10
12.6890353
20
12.6263284
40
1.1146189
50
319.6472867
51
327.095818
0
ARC
8
DEFAULT_255_1_234
10
12.3057356
20
12.9425
40
1.6114559
50
317.2586784
51
319.9046139
0
LINE
8
DEFAULT_255_1_234
10
4.2170378
20
6.6307169
11
4.2170378
21
6.7519962
0
LINE
8
DEFAULT_255_1_234
10
4.2170378
20
6.7519962
11
4.328679
21
6.7519962
0
LINE
8
DEFAULT_255_1_234
10
4.1383268
20
6.9576087
11
3.9897396
21
6.9576087
0
LINE
8
DEFAULT_255_1_234
10
3.9792983
20
6.4034188
11
4.1286887
21
6.4034188
0
LINE
8
DEFAULT_255_1_234
10
4.328679
20
6.6307169
11
4.2170378
21
6.6307169
0
ARC
8
DEFAULT_255_1_234
10
4.3257656
20
7.0912713
40
0.3392876
50
270.4919872
51
281.8951556
0
ARC
8
DEFAULT_255_1_234
10
4.3498918
20
6.9810702
40
0.2264817
50
281.6691735
51
301.2943132
0
ARC
8
DEFAULT_255_1_234
10
4.3669128
20
6.9499304
40
0.1910381
50
301.7833094
51
311.7545298
0
ARC
8
DEFAULT_255_1_234
10
4.3760704
20
6.9397748
40
0.1773635
50
311.7323931
51
354.2802411
0
ARC
8
DEFAULT_255_1_234
10
4.3034329
20
6.9522722
40
0.2509385
50
353.0937916
51
0.1181479
0
ARC
8
DEFAULT_255_1_234
10
4.2573114
20
6.9570386
40
0.2970898
50
359.1805295
51
15.0453146
0
ARC
8
DEFAULT_255_1_234
10
4.3918951
20
6.9962992
40
0.1569564
50
13.9577229
51
77.6713066
0
ARC
8
DEFAULT_255_1_234
10
4.353248
20
6.8577949
40
0.3006298
50
76.1116566
51
90.7026153
0
ARC
8
DEFAULT_255_1_234
10
4.3473318
20
6.8851545
40
0.2732568
50
89.5324876
51
103.531937
0
ARC
8
DEFAULT_255_1_234
10
4.3272762
20
6.9650884
40
0.1908508
50
103.2931773
51
133.5619022
0
ARC
8
DEFAULT_255_1_234
10
4.3228251
20
6.9710375
40
0.1834746
50
133.8349307
51
173.5344437
0
ARC
8
DEFAULT_255_1_234
10
4.3951294
20
6.9582213
40
0.2568033
50
172.5096846
51
180.1366907
0
ARC
8
DEFAULT_255_1_234
10
4.3000188
20
6.9616622
40
0.3103056
50
155.3484492
51
180.7484736
0
ARC
8
DEFAULT_255_1_234
10
4.2951277
20
6.9587846
40
0.3070957
50
131.5744599
51
154.4798489
0
ARC
8
DEFAULT_255_1_234
10
4.3264424
20
6.927131
40
0.3515643
50
96.9875458
51
131.9690667
0
ARC
8
DEFAULT_255_1_234
10
4.3483904
20
6.8025636
40
0.4779224
50
89.8596053
51
97.7825159
0
ARC
8
DEFAULT_255_1_234
10
4.3531967
20
6.7763616
40
0.5041361
50
78.3655447
51
90.4131539
0
ARC
8
DEFAULT_255_1_234
10
4.3889885
20
6.9422887
40
0.3344039
50
56.6229102
51
78.638727
0
ARC
8
DEFAULT_255_1_234
10
4.4104829
20
6.9798805
40
0.2912001
50
47.0253525
51
56.0854072
0
ARC
8
DEFAULT_255_1_234
10
4.4124609
20
6.9838223
40
0.2869704
50
10.9208013
51
46.7778124
0
ARC
8
DEFAULT_255_1_234
10
4.2760675
20
6.9522857
40
0.426899
50
359.6364486
51
11.6087304
0
ARC
8
DEFAULT_255_1_234
10
4.4595519
20
6.9507752
40
0.243409
50
332.3549906
51
359.7179418
0
ARC
8
DEFAULT_255_1_234
10
4.3945121
20
6.9816142
40
0.3153459
50
325.2333722
51
332.8745602
0
ARC
8
DEFAULT_255_1_234
10
4.4097744
20
6.9709828
40
0.2967456
50
292.9802137
51
325.2392345
0
ARC
8
DEFAULT_255_1_234
10
4.3823118
20
7.0243863
40
0.3566604
50
292.5402179
51
293.6924929
0
ARC
8
DEFAULT_255_1_234
10
4.4215714
20
6.3789091
40
0.3307468
50
57.6435486
51
72.8625112
0
ARC
8
DEFAULT_255_1_234
10
4.4570214
20
6.4363549
40
0.2632492
50
36.7248896
51
57.4697979
0
ARC
8
DEFAULT_255_1_234
10
4.4558847
20
6.437622
40
0.2634081
50
8.0545065
51
36.356114
0
ARC
8
DEFAULT_255_1_234
10
4.3696032
20
6.4221174
40
0.3510261
50
359.8320645
51
8.5869982
0
ARC
8
DEFAULT_255_1_234
10
4.3320808
20
6.4173101
40
0.3885653
50
343.9829931
51
0.5571613
0
ARC
8
DEFAULT_255_1_234
10
4.4207005
20
6.3930438
40
0.2966924
50
311.6359546
51
343.7651759
0
ARC
8
DEFAULT_255_1_234
10
4.3828574
20
6.4357102
40
0.3537231
50
279.7829875
51
311.6255694
0
ARC
8
DEFAULT_255_1_234
10
4.3527351
20
6.579428
40
0.5004971
50
269.7286406
51
280.3856417
0
ARC
8
DEFAULT_255_1_234
10
4.3465423
20
6.5752996
40
0.4963778
50
256.6828919
51
270.4412052
0
ARC
8
DEFAULT_255_1_234
10
4.3126719
20
6.4368394
40
0.3538406
50
229.4223008
51
256.8556159
0
ARC
8
DEFAULT_255_1_234
10
4.2712112
20
6.3901736
40
0.2914296
50
181.818294
51
229.6455059
0
ARC
8
DEFAULT_255_1_234
10
4.3752068
20
6.4032496
40
0.3959084
50
179.9755256
51
183.2323064
0
ARC
8
DEFAULT_255_1_234
10
4.3579814
20
6.4012037
40
0.2293034
50
179.4465117
51
196.2869258
0
ARC
8
DEFAULT_255_1_234
10
4.3092222
20
6.3878651
40
0.1787621
50
196.5661473
51
227.705904
0
ARC
8
DEFAULT_255_1_234
10
4.3256317
20
6.4062155
40
0.2033784
50
227.7652068
51
257.8762805
0
ARC
8
DEFAULT_255_1_234
10
4.3481287
20
6.5005156
40
0.3003081
50
257.4584385
51
270.426602
0
ARC
8
DEFAULT_255_1_234
10
4.3526853
20
6.5294996
40
0.329292
50
269.5962073
51
280.8789248
0
ARC
8
DEFAULT_255_1_234
10
4.3756382
20
6.4148685
40
0.2123908
50
280.6346389
51
299.8595945
0
ARC
8
DEFAULT_255_1_234
10
4.3947289
20
6.3786212
40
0.171457
50
300.3576302
51
314.5517981
0
ARC
8
DEFAULT_255_1_234
10
4.3864349
20
6.3846919
40
0.1816095
50
315.0728369
51
345.0431014
0
ARC
8
DEFAULT_255_1_234
10
4.2941163
20
6.4115841
40
0.2777492
50
344.5986631
51
357.9269593
0
ARC
8
DEFAULT_255_1_234
10
4.2045489
20
6.4177276
40
0.3674917
50
357.4748886
51
0.0231117
0
ARC
8
DEFAULT_255_1_234
10
4.3068599
20
6.4201679
40
0.2651907
50
359.5047933
51
13.4239635
0
ARC
8
DEFAULT_255_1_234
10
4.3935242
20
6.4423478
40
0.1757509
50
12.9498199
51
48.7551375
0
ARC
8
DEFAULT_255_1_234
10
4.3752976
20
6.41744
40
0.2065134
50
49.5088623
51
72.1836453
0
ARC
8
DEFAULT_255_1_234
10
4.3395129
20
6.3112291
40
0.3185836
50
71.9010081
51
84.3554254
0
ARC
8
DEFAULT_255_1_234
10
4.3233761
20
6.1751326
40
0.4556151
50
84.0193428
51
89.333121
0
LINE
8
DEFAULT_255_1_234
10
13.4124628
20
7.2644211
11
13.4124628
21
6.487752
0
LINE
8
DEFAULT_255_1_234
10
13.4124628
20
6.487752
11
13.5747039
21
6.487752
0
LINE
8
DEFAULT_255_1_234
10
13.5747039
20
6.487752
11
13.5747039
21
6.3664728
0
LINE
8
DEFAULT_255_1_234
10
13.5747039
20
6.3664728
11
13.4124628
21
6.3664728
0
LINE
8
DEFAULT_255_1_234
10
13.4124628
20
6.3664728
11
13.4124628
21
6.095
0
LINE
8
DEFAULT_255_1_234
10
13.4124628
20
6.095
11
13.2630725
21
6.095
0
LINE
8
DEFAULT_255_1_234
10
13.2630725
20
6.095
11
13.2630725
21
6.3664728
0
LINE
8
DEFAULT_255_1_234
10
13.2630725
20
6.3664728
11
12.7305682
21
6.3664728
0
LINE
8
DEFAULT_255_1_234
10
12.7305682
20
6.3664728
11
12.7305682
21
6.4540187
0
LINE
8
DEFAULT_255_1_234
10
12.7305682
20
6.4540187
11
13.2542375
21
7.2644211
0
LINE
8
DEFAULT_255_1_234
10
13.2542375
20
7.2644211
11
13.4124628
21
7.2644211
0
LINE
8
DEFAULT_255_1_234
10
13.2454026
20
7.0290912
11
12.8992347
21
6.487752
0
LINE
8
DEFAULT_255_1_234
10
12.8992347
20
6.487752
11
13.2630725
21
6.487752
0
LINE
8
DEFAULT_255_1_234
10
13.2630725
20
6.487752
11
13.2630725
21
7.0612181
0
LINE
8
DEFAULT_255_1_234
10
13.2630725
20
7.0612181
11
13.2454026
21
7.0290912
0
LINE
8
DEFAULT_255_1_234
10
4.1881235
20
1.3596963
11
4.0692538
21
1.3902169
0
LINE
8
DEFAULT_255_1_234
10
4.0692538
20
1.3902169
11
4.1286887
21
1.9733211
0
LINE
8
DEFAULT_255_1_234
10
4.1286887
20
1.9733211
11
4.7278563
21
1.9733211
0
LINE
8
DEFAULT_255_1_234
10
4.7278563
20
1.9733211
11
4.7278563
21
1.8359784
0
LINE
8
DEFAULT_255_1_234
10
4.7278563
20
1.8359784
11
4.254787
21
1.8359784
0
LINE
8
DEFAULT_255_1_234
10
4.254787
20
1.8359784
11
4.2194473
21
1.5171184
0
LINE
8
DEFAULT_255_1_234
10
4.0274888
20
1.1115156
11
4.1680442
21
1.1115156
0
LINE
8
DEFAULT_255_1_234
10
4.2274791
20
1.3918232
11
4.1881235
21
1.3596963
0
ARC
8
DEFAULT_255_1_234
10
4.4049257
20
1.199123
40
0.3681349
50
93.7182161
51
120.2538958
0
ARC
8
DEFAULT_255_1_234
10
4.414352
20
1.1183394
40
0.449379
50
89.9660152
51
94.2496022
0
ARC
8
DEFAULT_255_1_234
10
4.4184254
20
1.1772549
40
0.390482
50
73.8043271
51
90.5585896
0
ARC
8
DEFAULT_255_1_234
10
4.4419151
20
1.2630602
40
0.3015334
50
41.3071453
51
73.5430202
0
ARC
8
DEFAULT_255_1_234
10
4.4002978
20
1.2272324
40
0.3564457
50
13.5075983
51
41.2174222
0
ARC
8
DEFAULT_255_1_234
10
4.2361182
20
1.1842486
40
0.5261351
50
1.1331335
51
13.8829381
0
ARC
8
DEFAULT_255_1_234
10
4.0949551
20
1.1766665
40
0.6674378
50
359.9919444
51
1.544251
0
ARC
8
DEFAULT_255_1_234
10
4.2226377
20
1.172528
40
0.5397702
50
347.8572367
51
0.4293338
0
ARC
8
DEFAULT_255_1_234
10
4.3976695
20
1.1328736
40
0.3603188
50
323.673004
51
348.1672506
0
ARC
8
DEFAULT_255_1_234
10
4.4271203
20
1.1149168
40
0.3259678
50
316.8171152
51
323.1492751
0
ARC
8
DEFAULT_255_1_234
10
4.4332392
20
1.111246
40
0.3189975
50
281.8396411
51
316.5457803
0
ARC
8
DEFAULT_255_1_234
10
4.3956656
20
1.2667762
40
0.4789527
50
269.5770101
51
282.4214771
0
ARC
8
DEFAULT_255_1_234
10
4.3885467
20
1.2454125
40
0.45759
50
256.2427136
51
270.4486331
0
ARC
8
DEFAULT_255_1_234
10
4.358637
20
1.1254229
40
0.3339303
50
228.9023911
51
256.3314342
0
ARC
8
DEFAULT_255_1_234
10
4.3512602
20
1.1137746
40
0.32031
50
193.753695
51
228.5271154
0
ARC
8
DEFAULT_255_1_234
10
4.4750556
20
1.15008
40
0.4492253
50
184.924711
51
194.497588
0
ARC
8
DEFAULT_255_1_234
10
4.4943123
20
1.1536591
40
0.3289787
50
187.3600538
51
198.6732863
0
ARC
8
DEFAULT_255_1_234
10
4.3893417
20
1.1172674
40
0.217884
50
198.4451669
51
217.794479
0
ARC
8
DEFAULT_255_1_234
10
4.3597592
20
1.0963085
40
0.1816698
50
218.2887171
51
228.5612368
0
ARC
8
DEFAULT_255_1_234
10
4.3695379
20
1.1094963
40
0.1980329
50
228.9654866
51
258.1234728
0
ARC
8
DEFAULT_255_1_234
10
4.3901089
20
1.1975833
40
0.2884748
50
257.7258293
51
270.401361
0
ARC
8
DEFAULT_255_1_234
10
4.3945975
20
1.1530821
40
0.2439788
50
269.4204404
51
286.4209037
0
ARC
8
DEFAULT_255_1_234
10
4.4094463
20
1.0991657
40
0.1880666
50
286.7251356
51
320.600362
0
ARC
8
DEFAULT_255_1_234
10
4.3711288
20
1.1302595
40
0.2374121
50
320.6712579
51
344.5441685
0
ARC
8
DEFAULT_255_1_234
10
4.2554614
20
1.1642045
40
0.3579479
50
344.2412205
51
356.7357071
0
ARC
8
DEFAULT_255_1_234
10
4.1305763
20
1.1745444
40
0.4832297
50
356.3548756
51
0.0500261
0
ARC
8
DEFAULT_255_1_234
10
4.2642272
20
1.177665
40
0.3495889
50
359.5576869
51
12.953486
0
ARC
8
DEFAULT_255_1_234
10
4.3697169
20
1.2032434
40
0.2410532
50
12.6490276
51
41.6081334
0
ARC
8
DEFAULT_255_1_234
10
4.392754
20
1.2228321
40
0.2108218
50
41.7850273
51
85.9892764
0
ARC
8
DEFAULT_255_1_234
10
4.3804277
20
1.1415462
40
0.2928454
50
84.6957577
51
90.0676183
0
ARC
8
DEFAULT_255_1_234
10
4.3780761
20
1.0746716
40
0.3597255
50
89.6804936
51
99.1614436
0
ARC
8
DEFAULT_255_1_234
10
4.3575392
20
1.1974131
40
0.235281
50
98.9830931
51
113.8908934
0
ARC
8
DEFAULT_255_1_234
10
4.3345802
20
1.2515587
40
0.176479
50
114.1950727
51
127.3641004
0
LINE
8
DEFAULT_255_1_234
10
13.5534835
20
1.9741243
11
13.5799882
21
1.9741243
0
LINE
8
DEFAULT_255_1_234
10
13.5799882
20
1.9741243
11
13.5799882
21
1.848026
0
LINE
8
DEFAULT_255_1_234
10
13.5799882
20
1.848026
11
13.5526803
21
1.848026
0
LINE
8
DEFAULT_255_1_234
10
13.0057189
20
1.2488583
11
13.0057189
21
1.3058836
0
LINE
8
DEFAULT_255_1_234
10
13.1551093
20
1.2866075
11
13.1551093
21
1.2319917
0
ARC
8
DEFAULT_255_1_234
10
13.5579151
20
1.3482455
40
0.4998079
50
90.6001036
51
104.514704
0
ARC
8
DEFAULT_255_1_234
10
13.5190667
20
1.4927131
40
0.3502176
50
104.2855254
51
133.862935
0
ARC
8
DEFAULT_255_1_234
10
13.5354424
20
1.481883
40
0.3693984
50
134.5302688
51
161.6210873
0
ARC
8
DEFAULT_255_1_234
10
13.7007613
20
1.4235895
40
0.5446739
50
161.2849839
51
174.2076652
0
ARC
8
DEFAULT_255_1_234
10
13.841455
20
1.4041787
40
0.6866274
50
173.7810589
51
174.9254635
0
ARC
8
DEFAULT_255_1_234
10
13.3864382
20
1.2658839
40
0.3033419
50
95.8330959
51
138.9954921
0
ARC
8
DEFAULT_255_1_234
10
13.4087738
20
1.1380375
40
0.4328947
50
89.8753725
51
97.0544009
0
ARC
8
DEFAULT_255_1_234
10
13.4135204
20
1.2215748
40
0.3493769
50
71.6407809
51
90.6240094
0
ARC
8
DEFAULT_255_1_234
10
13.4285777
20
1.2770082
40
0.2920396
50
39.6367836
51
71.019018
0
ARC
8
DEFAULT_255_1_234
10
13.364925
20
1.2219998
40
0.3761538
50
10.658731
51
39.9043955
0
ARC
8
DEFAULT_255_1_234
10
13.2101333
20
1.1883686
40
0.5345136
50
359.682601
51
11.132623
0
ARC
8
DEFAULT_255_1_234
10
13.2061464
20
1.181301
40
0.5385081
50
347.2486944
51
0.4369317
0
ARC
8
DEFAULT_255_1_234
10
13.3728941
20
1.1411807
40
0.3670249
50
318.1409698
51
347.6118597
0
ARC
8
DEFAULT_255_1_234
10
13.4053934
20
1.1144702
40
0.3250007
50
275.6342139
51
317.8248465
0
ARC
8
DEFAULT_255_1_234
10
13.3833045
20
1.2444219
40
0.4565864
50
269.8874292
51
276.7917694
0
ARC
8
DEFAULT_255_1_234
10
13.3778116
20
1.1418743
40
0.3540676
50
246.9140195
51
270.7437342
0
ARC
8
DEFAULT_255_1_234
10
13.3784506
20
1.1276384
40
0.3412781
50
218.1665114
51
245.878116
0
ARC
8
DEFAULT_255_1_234
10
13.4663967
20
1.2012279
40
0.455911
50
191.4115814
51
218.6077802
0
ARC
8
DEFAULT_255_1_234
10
13.6602056
20
1.2446833
40
0.6545001
50
179.6345085
51
191.7836486
0
ARC
8
DEFAULT_255_1_234
10
14.2184393
20
1.3125697
40
1.2127388
50
171.4525249
51
180.3158839
0
ARC
8
DEFAULT_255_1_234
10
13.7789269
20
1.3809608
40
0.7679464
50
157.9802646
51
171.6246686
0
ARC
8
DEFAULT_255_1_234
10
13.557529
20
1.4692421
40
0.5296008
50
141.4298019
51
157.854097
0
ARC
8
DEFAULT_255_1_234
10
13.493361
20
1.5146381
40
0.4511509
50
102.8715806
51
140.8564722
0
ARC
8
DEFAULT_255_1_234
10
13.5581226
20
1.2706552
40
0.7034845
50
90.3778349
51
103.5869322
0
ARC
8
DEFAULT_255_1_234
10
13.3843002
20
1.210173
40
0.2370698
50
89.8751008
51
126.2071704
0
ARC
8
DEFAULT_255_1_234
10
13.3888792
20
1.1947303
40
0.2522934
50
124.9745049
51
144.895901
0
ARC
8
DEFAULT_255_1_234
10
13.3712982
20
1.209056
40
0.2296779
50
145.2974905
51
160.2660252
0
ARC
8
DEFAULT_255_1_234
10
13.6785521
20
1.2288071
40
0.5234525
50
179.6514266
51
190.2855912
0
ARC
8
DEFAULT_255_1_234
10
13.5091658
20
1.1968786
40
0.3510893
50
190.0945431
51
207.5098196
0
ARC
8
DEFAULT_255_1_234
10
13.4525928
20
1.1699623
40
0.288489
50
207.9583163
51
216.3251085
0
ARC
8
DEFAULT_255_1_234
10
13.4186036
20
1.1420105
40
0.2445587
50
215.7661442
51
232.5456785
0
ARC
8
DEFAULT_255_1_234
10
13.3803019
20
1.0933482
40
0.1826382
50
232.8005391
51
270.6605633
0
ARC
8
DEFAULT_255_1_234
10
13.384872
20
1.1297612
40
0.2190529
50
269.35537
51
288.4744281
0
ARC
8
DEFAULT_255_1_234
10
13.3941617
20
1.0948118
40
0.1829749
50
289.1833337
51
322.9683818
0
ARC
8
DEFAULT_255_1_234
10
13.3330139
20
1.1430391
40
0.2608399
50
322.6007884
51
346.5182367
0
ARC
8
DEFAULT_255_1_234
10
13.2172735
20
1.1725616
40
0.3802777
50
346.2582162
51
358.7741648
0
ARC
8
DEFAULT_255_1_234
10
13.1154404
20
1.1780965
40
0.4822176
50
358.3755224
51
0.0098023
0
ARC
8
DEFAULT_255_1_234
10
13.1910591
20
1.1808657
40
0.4066078
50
359.6214041
51
11.2839074
0
ARC
8
DEFAULT_255_1_234
10
13.3187738
20
1.2075066
40
0.2761514
50
11.0482309
51
31.8146458
0
ARC
8
DEFAULT_255_1_234
10
13.3496781
20
1.2242584
40
0.2410679
50
32.3035391
51
38.082671
0
ARC
8
DEFAULT_255_1_234
10
13.3917441
20
1.2623662
40
0.1844966
50
36.825067
51
85.7415724
0
ARC
8
DEFAULT_255_1_234
10
13.3850274
20
1.2123301
40
0.2349122
50
85.0140713
51
90.0513278
0
ENDSEC
0
EOF